  0
SECTION
  2
HEADER
  9
$ACADVER
  1
AC1012
  9
$DWGCODEPAGE
  3
ansi_932
  9
$INSBASE
 10
0.0
 20
0.0
 30
0.0
  9
$EXTMIN
 10
-505.2988396158602
 20
-1742.560037150411
 30
0.0
  9
$EXTMAX
 10
-206.4197668448705
 20
-1550.972228260545
 30
0.0
  9
$LIMMIN
 10
0.0
 20
0.0
  9
$LIMMAX
 10
420.0
 20
297.0
  9
$ORTHOMODE
 70
     0
  9
$REGENMODE
 70
     1
  9
$FILLMODE
 70
     1
  9
$QTEXTMODE
 70
     0
  9
$MIRRTEXT
 70
     0
  9
$DRAGMODE
 70
     2
  9
$LTSCALE
 40
0.5
  9
$OSMODE
 70
 14429
  9
$ATTMODE
 70
     1
  9
$TEXTSIZE
 40
4.0
  9
$TRACEWID
 40
1.0
  9
$TEXTSTYLE
  7
STANDARD
  9
$CLAYER
  8
1TEXT
  9
$CELTYPE
  6
BYLAYER
  9
$CECOLOR
 62
   256
  9
$CELTSCALE
 40
1.0
  9
$DELOBJ
 70
     1
  9
$DISPSILH
 70
     0
  9
$DIMSCALE
 40
1.0
  9
$DIMASZ
 40
2.0
  9
$DIMEXO
 40
0.0
  9
$DIMDLI
 40
7.0
  9
$DIMRND
 40
0.0
  9
$DIMDLE
 40
0.0
  9
$DIMEXE
 40
1.0
  9
$DIMTP
 40
0.0
  9
$DIMTM
 40
0.0
  9
$DIMTXT
 40
3.5
  9
$DIMCEN
 40
0.0
  9
$DIMTSZ
 40
0.0
  9
$DIMTOL
 70
     0
  9
$DIMLIM
 70
     0
  9
$DIMTIH
 70
     0
  9
$DIMTOH
 70
     0
  9
$DIMSE1
 70
     0
  9
$DIMSE2
 70
     0
  9
$DIMTAD
 70
     1
  9
$DIMZIN
 70
     8
  9
$DIMBLK
  1

  9
$DIMASO
 70
     1
  9
$DIMSHO
 70
     1
  9
$DIMPOST
  1
 
  9
$DIMAPOST
  1

  9
$DIMALT
 70
     0
  9
$DIMALTD
 70
     2
  9
$DIMALTF
 40
25.4
  9
$DIMLFAC
 40
1.0
  9
$DIMTOFL
 70
     1
  9
$DIMTVP
 40
0.0
  9
$DIMTIX
 70
     0
  9
$DIMSOXD
 70
     0
  9
$DIMSAH
 70
     1
  9
$DIMBLK1
  1
OPEN30
  9
$DIMBLK2
  1
OPEN30
  9
$DIMSTYLE
  2
NEWX10
  9
$DIMCLRD
 70
   256
  9
$DIMCLRE
 70
   256
  9
$DIMCLRT
 70
   201
  9
$DIMTFAC
 40
0.7
  9
$DIMGAP
 40
0.7
  9
$DIMJUST
 70
     0
  9
$DIMSD1
 70
     0
  9
$DIMSD2
 70
     0
  9
$DIMTOLJ
 70
     1
  9
$DIMTZIN
 70
     8
  9
$DIMALTZ
 70
     0
  9
$DIMALTTZ
 70
     0
  9
$DIMFIT
 70
     2
  9
$DIMUPT
 70
     0
  9
$DIMUNIT
 70
     2
  9
$DIMDEC
 70
     2
  9
$DIMTDEC
 70
     4
  9
$DIMALTU
 70
     2
  9
$DIMALTTD
 70
     2
  9
$DIMTXSTY
  7
STANDARD
  9
$DIMAUNIT
 70
     0
  9
$LUNITS
 70
     2
  9
$LUPREC
 70
     4
  9
$SKETCHINC
 40
1.0
  9
$FILLETRAD
 40
0.0
  9
$AUNITS
 70
     0
  9
$AUPREC
 70
     2
  9
$MENU
  1
acad
  9
$ELEVATION
 40
0.0
  9
$PELEVATION
 40
0.0
  9
$THICKNESS
 40
0.0
  9
$LIMCHECK
 70
     0
  9
$CHAMFERA
 40
10.0
  9
$CHAMFERB
 40
10.0
  9
$CHAMFERC
 40
20.0
  9
$CHAMFERD
 40
0.0
  9
$SKPOLY
 70
     0
  9
$TDCREATE
 40
2453033.690996817
  9
$TDUPDATE
 40
2458439.460123634
  9
$TDINDWG
 40
1.744524294
  9
$TDUSRTIMER
 40
1.744524294
  9
$USRTIMER
 70
     1
  9
$ANGBASE
 50
0.0
  9
$ANGDIR
 70
     0
  9
$PDMODE
 70
     0
  9
$PDSIZE
 40
0.0
  9
$PLINEWID
 40
0.0
  9
$COORDS
 70
     2
  9
$SPLFRAME
 70
     0
  9
$SPLINETYPE
 70
     6
  9
$SPLINESEGS
 70
     8
  9
$ATTDIA
 70
     0
  9
$ATTREQ
 70
     1
  9
$HANDLING
 70
     1
  9
$HANDSEED
  5
17E8C
  9
$SURFTAB1
 70
     6
  9
$SURFTAB2
 70
     6
  9
$SURFTYPE
 70
     6
  9
$SURFU
 70
     6
  9
$SURFV
 70
     6
  9
$UCSNAME
  2

  9
$UCSORG
 10
0.0
 20
0.0
 30
0.0
  9
$UCSXDIR
 10
1.0
 20
0.0
 30
0.0
  9
$UCSYDIR
 10
0.0
 20
1.0
 30
0.0
  9
$PUCSNAME
  2

  9
$PUCSORG
 10
0.0
 20
0.0
 30
0.0
  9
$PUCSXDIR
 10
1.0
 20
0.0
 30
0.0
  9
$PUCSYDIR
 10
0.0
 20
1.0
 30
0.0
  9
$USERI1
 70
     0
  9
$USERI2
 70
     0
  9
$USERI3
 70
     0
  9
$USERI4
 70
     0
  9
$USERI5
 70
     0
  9
$USERR1
 40
0.0
  9
$USERR2
 40
0.0
  9
$USERR3
 40
0.0
  9
$USERR4
 40
0.0
  9
$USERR5
 40
0.0
  9
$WORLDVIEW
 70
     1
  9
$SHADEDGE
 70
     3
  9
$SHADEDIF
 70
    70
  9
$TILEMODE
 70
     1
  9
$MAXACTVP
 70
    48
  9
$PINSBASE
 10
0.0
 20
0.0
 30
0.0
  9
$PLIMCHECK
 70
     0
  9
$PEXTMIN
 10
1.000000000000000E+20
 20
1.000000000000000E+20
 30
1.000000000000000E+20
  9
$PEXTMAX
 10
-1.000000000000000E+20
 20
-1.000000000000000E+20
 30
-1.000000000000000E+20
  9
$PLIMMIN
 10
0.0
 20
0.0
  9
$PLIMMAX
 10
420.0
 20
297.0
  9
$UNITMODE
 70
     0
  9
$VISRETAIN
 70
     1
  9
$PLINEGEN
 70
     0
  9
$PSLTSCALE
 70
     1
  9
$TREEDEPTH
 70
  3020
  9
$PICKSTYLE
 70
     1
  9
$CMLSTYLE
  2
STANDARD
  9
$CMLJUST
 70
     0
  9
$CMLSCALE
 40
20.0
  9
$SAVEIMAGES
 70
     1
  0
ENDSEC
  0
SECTION
  2
CLASSES
  0
CLASS
  1
DICTIONARYVAR
  2
AcDbDictionaryVar
  3
ObjectDBX Classes
 90
        0
280
     0
281
     0
  0
CLASS
  1
IDBUFFER
  2
AcDbIdBuffer
  3
ObjectDBX Classes
 90
    32768
280
     0
281
     0
  0
CLASS
  1
LWPOLYLINE
  2
AcDbPolyline
  3
ObjectDBX Classes
 90
    32768
280
     0
281
     1
  0
CLASS
  1
ACDBDICTIONARYWDFLT
  2
AcDbDictionaryWithDefault
  3
ObjectDBX Classes
 90
    32768
280
     0
281
     0
  0
CLASS
  1
ACDBPLACEHOLDER
  2
AcDbPlaceHolder
  3
ObjectDBX Classes
 90
        0
280
     0
281
     0
  0
CLASS
  1
LAYOUT
  2
AcDbLayout
  3
ObjectDBX Classes
 90
        0
280
     0
281
     0
  0
CLASS
  1
TABLESTYLE
  2
AcDbTableStyle
  3
ObjectDBX Classes
 90
     4095
280
     0
281
     0
  0
CLASS
  1
SORTENTSTABLE
  2
AcDbSortentsTable
  3
ObjectDBX Classes
 90
    32768
280
     0
281
     0
  0
CLASS
  1
DIMASSOC
  2
AcDbDimAssoc
  3
"AcDbDimAssoc|Product Desc:     AcDim ARX App For Dimension|Company:          Autodesk, Inc.|WEB Address:      www.autodesk.com"
 90
        0
280
     0
281
     0
  0
CLASS
  1
MATERIAL
  2
AcDbMaterial
  3
ObjectDBX Classes
 90
     1153
280
     0
281
     0
  0
CLASS
  1
VISUALSTYLE
  2
AcDbVisualStyle
  3
ObjectDBX Classes
 90
     4095
280
     0
281
     0
  0
CLASS
  1
SCALE
  2
AcDbScale
  3
ObjectDBX Classes
 90
     1153
280
     0
281
     0
  0
CLASS
  1
MLEADERSTYLE
  2
AcDbMLeaderStyle
  3
ACDB_MLEADERSTYLE_CLASS
 90
     4095
280
     0
281
     0
  0
CLASS
  1
CELLSTYLEMAP
  2
AcDbCellStyleMap
  3
ObjectDBX Classes
 90
     1152
280
     0
281
     0
  0
CLASS
  1
EXACTERMXREFMAP
  2
ExAcTermXrefMap
  3
EXAC_SERVICE
 90
   -31743
280
     1
281
     0
  0
CLASS
  1
NPOCOLLECTION
  2
AcDbImpNonPersistentObjectsCollection
  3
ObjectDBX Classes
 90
   -31615
280
     1
281
     0
  0
CLASS
  1
EXACXREFPANELOBJECT
  2
ExAcXREFPanelObject
  3
EXAC_ESW
 90
   -31743
280
     1
281
     0
  0
CLASS
  1
AEC_REFEDIT_STATUS_TRACKER
  2
AecDbRefEditStatusTracker
  3
AecArchBase60|Product Desc: Autodesk Architectural Desktop 2007 |Company: Autodesk,Inc. |WEB Address: www.autodesk.com
 90
   -32639
280
     1
281
     0
  0
CLASS
  1
ACDBSECTIONVIEWSTYLE
  2
AcDbSectionViewStyle
  3
ObjectDBX Classes
 90
     1025
280
     0
281
     0
  0
CLASS
  1
ACDBDETAILVIEWSTYLE
  2
AcDbDetailViewStyle
  3
ObjectDBX Classes
 90
     1025
280
     0
281
     0
  0
CLASS
  1
SUN
  2
AcDbSun
  3
SCENEOE
 90
     1153
280
     0
281
     0
  0
CLASS
  1
XRECORD
  2
AcDbXrecord
  3
ObjectDBX Classes
 90
    32768
280
     0
281
     0
  0
CLASS
  1
HATCH
  2
AcDbHatch
  3
ObjectDBX Classes
 90
    32768
280
     0
281
     1
  0
ENDSEC
  0
SECTION
  2
TABLES
  0
TABLE
  2
VPORT
  5
8
330
0
100
AcDbSymbolTable
 70
     1
  0
VPORT
  5
1679C
330
8
100
AcDbSymbolTableRecord
100
AcDbViewportTableRecord
  2
*ACTIVE
 70
     0
 10
0.0
 20
0.0
 11
1.0
 21
1.0
 12
-355.8593032303653
 22
-1646.766132705478
 13
0.0
 23
0.0
 14
10.0
 24
10.0
 15
10.0
 25
10.0
 16
0.0
 26
0.0
 36
1.0
 17
0.0
 27
0.0
 37
0.0
 40
205.7048053343822
 41
2.143386897404203
 42
50.0
 43
0.0
 44
0.0
 50
0.0
 51
0.0
 71
    16
 72
   100
 73
     1
 74
     1
 75
     0
 76
     0
 77
     0
 78
     0
1001
ACAD_NAV_VCDISPLAY
1070
     3
  0
ENDTAB
  0
TABLE
  2
LTYPE
  5
5
330
0
100
AcDbSymbolTable
 70
     6
  0
LTYPE
  5
12
330
5
100
AcDbSymbolTableRecord
100
AcDbLinetypeTableRecord
  2
BYBLOCK
 70
     0
  3

 72
    65
 73
     0
 40
0.0
  0
LTYPE
  5
13
330
5
100
AcDbSymbolTableRecord
100
AcDbLinetypeTableRecord
  2
BYLAYER
 70
     0
  3

 72
    65
 73
     0
 40
0.0
  0
LTYPE
  5
14
330
5
100
AcDbSymbolTableRecord
100
AcDbLinetypeTableRecord
  2
CONTINUOUS
 70
     0
  3
Solid line
 72
    65
 73
     0
 40
0.0
  0
LTYPE
  5
26
330
5
100
AcDbSymbolTableRecord
100
AcDbLinetypeTableRecord
  2
CENTER2
 70
     0
  3
Center (.5x) ___ _ ___ _ ___ _ ___ _ ___ _ ___
 72
    65
 73
     4
 40
28.575
 49
19.05
 74
     0
 49
-3.175
 74
     0
 49
3.175
 74
     0
 49
-3.175
 74
     0
  0
LTYPE
  5
6A
330
5
100
AcDbSymbolTableRecord
100
AcDbLinetypeTableRecord
  2
XREF1|CENTER2
 70
    48
  3
Center (.5x) ___ _ ___ _ ___ _ ___ _ ___ _ ___
 72
    65
 73
     4
 40
28.575
 49
19.05
 74
     0
 49
-3.175
 74
     0
 49
3.175
 74
     0
 49
-3.175
 74
     0
  0
LTYPE
  5
100
330
5
100
AcDbSymbolTableRecord
100
AcDbLinetypeTableRecord
  2
PHANTOM2
 70
     0
  3
Phantom (0.5x) ___ _ _ ___ _ _ ___ _ _ ___ _ _
 72
    65
 73
     6
 40
31.75
 49
15.875
 74
     0
 49
-3.175
 74
     0
 49
3.175
 74
     0
 49
-3.175
 74
     0
 49
3.175
 74
     0
 49
-3.175
 74
     0
  0
LTYPE
  5
6E2
330
5
100
AcDbSymbolTableRecord
100
AcDbLinetypeTableRecord
  2
A3WAKUDAKE|CENTER2
 70
    48
  3
Center (.5x) ___ _ ___ _ ___ _ ___ _ ___ _ ___
 72
    65
 73
     4
 40
28.575
 49
19.05
 74
     0
 49
-3.175
 74
     0
 49
3.175
 74
     0
 49
-3.175
 74
     0
  0
LTYPE
  5
16EDE
330
5
100
AcDbSymbolTableRecord
100
AcDbLinetypeTableRecord
  2
CENTER
 70
     0
  3
____ _ ____ _ ____ _ ____ _ ____ _ ____ _ ____
 72
    65
 73
     4
 40
17.5
 49
13.0
 74
     0
 49
-1.5
 74
     0
 49
1.5
 74
     0
 49
-1.5
 74
     0
  0
ENDTAB
  0
TABLE
  2
LAYER
  5
2
102
{ACAD_XDICTIONARY
360
15E19
102
}
330
0
100
AcDbSymbolTable
 70
    11
  0
LAYER
  5
E
102
{ACAD_XDICTIONARY
360
16B9A
102
}
330
2
100
AcDbSymbolTableRecord
100
AcDbLayerTableRecord
  2
0
 70
     0
 62
     7
  6
CONTINUOUS
  0
LAYER
  5
29
102
{ACAD_XDICTIONARY
360
16B9C
102
}
330
2
100
AcDbSymbolTableRecord
100
AcDbLayerTableRecord
  2
1CENTER
 70
     0
 62
     7
  6
CENTER2
  0
LAYER
  5
31
102
{ACAD_XDICTIONARY
360
16B9E
102
}
330
2
100
AcDbSymbolTableRecord
100
AcDbLayerTableRecord
  2
1TEXT
 70
     0
 62
     7
  6
CONTINUOUS
  0
LAYER
  5
101
102
{ACAD_XDICTIONARY
360
16BA8
102
}
330
2
100
AcDbSymbolTableRecord
100
AcDbLayerTableRecord
  2
1DIM
 70
     0
 62
     7
  6
CONTINUOUS
  0
LAYER
  5
103
102
{ACAD_XDICTIONARY
360
16BAC
102
}
330
2
100
AcDbSymbolTableRecord
100
AcDbLayerTableRecord
  2
1PHANTOM
 70
     0
 62
     7
  6
PHANTOM2
  0
LAYER
  5
25F
102
{ACAD_XDICTIONARY
360
16BB0
102
}
330
2
100
AcDbSymbolTableRecord
100
AcDbLayerTableRecord
  2
01
 70
     0
 62
     1
  6
CONTINUOUS
  0
LAYER
  5
26D
102
{ACAD_XDICTIONARY
360
16BCC
102
}
330
2
100
AcDbSymbolTableRecord
100
AcDbLayerTableRecord
  2
1HATCH
 70
     0
 62
     7
  6
CONTINUOUS
  0
LAYER
  5
6DD
102
{ACAD_XDICTIONARY
360
16BE4
102
}
330
2
100
AcDbSymbolTableRecord
100
AcDbLayerTableRecord
  2
A3WAKUDAKE|THICK
 70
    48
 62
     7
  6
CONTINUOUS
  0
LAYER
  5
6DE
102
{ACAD_XDICTIONARY
360
16BE6
102
}
330
2
100
AcDbSymbolTableRecord
100
AcDbLayerTableRecord
  2
A3WAKUDAKE|POINT
 70
    48
 62
     7
  6
CONTINUOUS
  0
LAYER
  5
6DF
102
{ACAD_XDICTIONARY
360
16BE8
102
}
330
2
100
AcDbSymbolTableRecord
100
AcDbLayerTableRecord
  2
A3WAKUDAKE|1CENTER
 70
    48
 62
     7
  6
A3WAKUDAKE|CENTER2
  0
LAYER
  5
6E0
102
{ACAD_XDICTIONARY
360
16BEA
102
}
330
2
100
AcDbSymbolTableRecord
100
AcDbLayerTableRecord
  2
A3WAKUDAKE|0-6
 70
    48
 62
     7
  6
CONTINUOUS
  0
ENDTAB
  0
TABLE
  2
STYLE
  5
3
330
0
100
AcDbSymbolTable
 70
     3
  0
STYLE
  5
F
330
3
100
AcDbSymbolTableRecord
100
AcDbTextStyleTableRecord
  2
STANDARD
 70
     0
 40
0.0
 41
1.0
 50
0.0
 71
     0
 42
4.0
  3
txt.shx
  4
extfont.shx
  0
STYLE
  5
17DB2
330
3
100
AcDbSymbolTableRecord
100
AcDbTextStyleTableRecord
  2
A3WAKUDAKE|STANDARD
 70
    48
 40
0.0
 41
1.0
 50
0.0
 71
     0
 42
4.0
  3
romans.shx
  4
extfont.shx
  0
STYLE
  5
17DDA
330
3
100
AcDbSymbolTableRecord
100
AcDbTextStyleTableRecord
  2
XREF1|STANDARD
 70
    48
 40
0.0
 41
1.0
 50
0.0
 71
     0
 42
4.0
  3
romans.shx
  4
extfont.shx
  0
ENDTAB
  0
TABLE
  2
VIEW
  5
6
330
0
100
AcDbSymbolTable
 70
     0
  0
ENDTAB
  0
TABLE
  2
UCS
  5
7
330
0
100
AcDbSymbolTable
 70
     0
  0
ENDTAB
  0
TABLE
  2
APPID
  5
9
330
0
100
AcDbSymbolTable
 70
    18
  0
APPID
  5
10
330
9
100
AcDbSymbolTableRecord
100
AcDbRegAppTableRecord
  2
ACAD
 70
     0
  0
APPID
  5
21
330
9
100
AcDbSymbolTableRecord
100
AcDbRegAppTableRecord
  2
DRAWINGVARIABLESXDATA
 70
     0
  0
APPID
  5
64
330
9
100
AcDbSymbolTableRecord
100
AcDbRegAppTableRecord
  2
CONTENTTABDATA
 70
     0
  0
APPID
  5
65
330
9
100
AcDbSymbolTableRecord
100
AcDbRegAppTableRecord
  2
CONTENTCURRENTTAB
 70
     0
  0
APPID
  5
66
330
9
100
AcDbSymbolTableRecord
100
AcDbRegAppTableRecord
  2
CONTENTBLOCKDESCRIPTION
 70
     0
  0
APPID
  5
67
330
9
100
AcDbSymbolTableRecord
100
AcDbRegAppTableRecord
  2
CONTENTBLOCKICON
 70
     0
  0
APPID
  5
68
330
9
100
AcDbSymbolTableRecord
100
AcDbRegAppTableRecord
  2
CONTENTLONGBLOCKNAME
 70
     0
  0
APPID
  5
5A9
330
9
100
AcDbSymbolTableRecord
100
AcDbRegAppTableRecord
  2
ACAD_PSEXT
 70
     0
  0
APPID
  5
18AC
330
9
100
AcDbSymbolTableRecord
100
AcDbRegAppTableRecord
  2
ACAD_DSTYLE_DIMTEXT_FILL
 70
     0
  0
APPID
  5
167FA
330
9
100
AcDbSymbolTableRecord
100
AcDbRegAppTableRecord
  2
ACAD_MLEADERVER
 70
     0
  0
APPID
  5
16B14
330
9
100
AcDbSymbolTableRecord
100
AcDbRegAppTableRecord
  2
ACAD_EXEMPT_FROM_CAD_STAND
 70
     0
  0
APPID
  5
16C39
330
9
100
AcDbSymbolTableRecord
100
AcDbRegAppTableRecord
  2
ACLAYERTOOLS
 70
     0
  0
APPID
  5
16D78
330
9
100
AcDbSymbolTableRecord
100
AcDbRegAppTableRecord
  2
ACAD_NAV_VCDISPLAY
 70
     0
  0
APPID
  5
16EDF
330
9
100
AcDbSymbolTableRecord
100
AcDbRegAppTableRecord
  2
ACADANNOTATIVE
 70
     0
  0
APPID
  5
16EE0
330
9
100
AcDbSymbolTableRecord
100
AcDbRegAppTableRecord
  2
ACAD_OBJECT_CHANGE_GUID
 70
     0
  0
APPID
  5
16EE1
330
9
100
AcDbSymbolTableRecord
100
AcDbRegAppTableRecord
  2
ACADSTRINGINFO
 70
     0
  0
APPID
  5
175FC
330
9
100
AcDbSymbolTableRecord
100
AcDbRegAppTableRecord
  2
GRADIENTCOLOR1ACI
 70
     0
  0
APPID
  5
175FD
330
9
100
AcDbSymbolTableRecord
100
AcDbRegAppTableRecord
  2
GRADIENTCOLOR2ACI
 70
     0
  0
ENDTAB
  0
TABLE
  2
DIMSTYLE
  5
A
330
0
100
AcDbSymbolTable
 70
     1
  0
DIMSTYLE
105
48
330
A
100
AcDbSymbolTableRecord
100
AcDbDimStyleTableRecord
  2
NEWX10
 70
     0
  3
 
  4

  5

  6
OPEN30
  7
OPEN30
 40
1.0
 41
2.0
 42
0.0
 43
7.0
 44
1.0
 45
0.0
 46
0.0
 47
0.0
 48
0.0
140
3.5
141
0.0
142
0.0
143
25.4
144
1.0
145
0.0
146
0.7
147
0.7
 71
     0
 72
     0
 73
     0
 74
     0
 75
     0
 76
     0
 77
     1
 78
     8
170
     0
171
     2
172
     1
173
     1
174
     0
175
     0
176
   256
177
   256
178
   201
179
     2
270
     2
271
     2
272
     4
273
     2
274
     2
340
F
275
     0
280
     0
281
     0
282
     0
283
     1
284
     8
285
     0
286
     0
287
     2
288
     0
  0
ENDTAB
  0
TABLE
  2
BLOCK_RECORD
  5
1
330
0
100
AcDbSymbolTable
 70
     3
  0
BLOCK_RECORD
  5
18
102
{ACAD_XDICTIONARY
360
6E9
102
}
330
1
100
AcDbSymbolTableRecord
100
AcDbBlockTableRecord
  2
*MODEL_SPACE
  0
BLOCK_RECORD
  5
15
102
{ACAD_XDICTIONARY
360
59B
102
}
330
1
100
AcDbSymbolTableRecord
100
AcDbBlockTableRecord
  2
*PAPER_SPACE
  0
BLOCK_RECORD
  5
42
330
1
100
AcDbSymbolTableRecord
100
AcDbBlockTableRecord
  2
_OPEN30
  0
BLOCK_RECORD
  5
5B
330
1
100
AcDbSymbolTableRecord
100
AcDbBlockTableRecord
  2
XREF1
  0
BLOCK_RECORD
  5
6DA
330
1
100
AcDbSymbolTableRecord
100
AcDbBlockTableRecord
  2
A3WAKUDAKE
  0
ENDTAB
  0
ENDSEC
  0
SECTION
  2
BLOCKS
  0
BLOCK
  5
19
330
18
100
AcDbEntity
  8
0
100
AcDbBlockBegin
  2
*MODEL_SPACE
 70
     0
 10
0.0
 20
0.0
 30
0.0
  3
*MODEL_SPACE
  1

  0
ENDBLK
  5
1A
330
18
100
AcDbEntity
  8
0
100
AcDbBlockEnd
  0
BLOCK
  5
16
330
15
100
AcDbEntity
 67
     1
  8
0
100
AcDbBlockBegin
  2
*PAPER_SPACE
 70
     0
 10
0.0
 20
0.0
 30
0.0
  3
*PAPER_SPACE
  1

  0
ENDBLK
  5
17
330
15
100
AcDbEntity
 67
     1
  8
0
100
AcDbBlockEnd
  0
BLOCK
  5
43
330
42
100
AcDbEntity
  8
0
100
AcDbBlockBegin
  2
_OPEN30
 70
     0
 10
0.0
 20
0.0
 30
0.0
  3
_OPEN30
  1

  0
LINE
  5
44
330
42
100
AcDbEntity
  8
0
  6
BYBLOCK
 62
     0
100
AcDbLine
 10
-1.0
 20
0.26794919
 30
0.0
 11
0.0
 21
0.0
 31
0.0
  0
LINE
  5
45
330
42
100
AcDbEntity
  8
0
  6
BYBLOCK
 62
     0
100
AcDbLine
 10
0.0
 20
0.0
 30
0.0
 11
-1.0
 21
-0.26794919
 31
0.0
  0
LINE
  5
46
330
42
100
AcDbEntity
  8
0
  6
BYBLOCK
 62
     0
100
AcDbLine
 10
0.0
 20
0.0
 30
0.0
 11
-1.0
 21
0.0
 31
0.0
  0
ENDBLK
  5
47
330
42
100
AcDbEntity
  8
0
100
AcDbBlockEnd
  0
BLOCK
  5
5C
330
5B
100
AcDbEntity
  8
0
100
AcDbBlockBegin
  2
XREF1
 70
    36
 10
0.0
 20
0.0
 30
0.0
  3
XREF1
  1
D:\ACLT\FORMAT\KAWAJUN(9)図面用.dwg
  0
ENDBLK
  5
5D
330
5B
100
AcDbEntity
  8
0
100
AcDbBlockEnd
  0
BLOCK
  5
6DB
330
6DA
100
AcDbEntity
  8
0
100
AcDbBlockBegin
  2
A3WAKUDAKE
 70
   100
 10
0.0
 20
0.0
 30
0.0
  3
A3WAKUDAKE
  1
D:\ACLT\FORMAT\A3WAKUdake.dwg
  0
ENDBLK
  5
6DC
330
6DA
100
AcDbEntity
  8
0
100
AcDbBlockEnd
  0
ENDSEC
  0
SECTION
  2
ENTITIES
  0
LINE
  5
16A25
330
18
100
AcDbEntity
  8
1CENTER
100
AcDbLine
 10
-380.1102839417192
 20
-1706.511526015714
 30
0.0
 11
-324.1102839417192
 21
-1706.511526015714
 31
0.0
  0
LINE
  5
16A26
330
18
100
AcDbEntity
  8
1CENTER
100
AcDbLine
 10
-352.1102839417192
 20
-1734.511526015714
 30
0.0
 11
-352.1102839417192
 21
-1678.511526015714
 31
0.0
  0
LINE
  5
16AED
330
18
100
AcDbEntity
  8
1PHANTOM
100
AcDbLine
 10
-257.7187740860479
 20
-1662.560037150411
 30
0.0
 11
-257.7187740860479
 21
-1742.560037150411
 31
0.0
  0
TEXT
  5
16E76
330
18
100
AcDbEntity
  8
1TEXT
100
AcDbText
 10
-497.1655062825267
 20
-1579.662777423062
 30
0.0
 40
4.0
  1
表面処理
 72
     1
 11
-487.8988396158601
 21
-1579.662777423062
 31
0.0
100
AcDbText
  0
LINE
  5
16E77
330
18
100
AcDbEntity
  8
1DIM
100
AcDbLine
 10
-505.2988396158602
 20
-1574.162777423062
 30
0.0
 11
-435.2988396158602
 21
-1574.162777423062
 31
0.0
  0
LINE
  5
16E78
330
18
100
AcDbEntity
  8
1DIM
100
AcDbLine
 10
-505.2988396158602
 20
-1588.162777423062
 30
0.0
 11
-435.2988396158602
 21
-1588.162777423062
 31
0.0
  0
LINE
  5
16E79
330
18
100
AcDbEntity
  8
1DIM
100
AcDbLine
 10
-505.2988396158602
 20
-1581.162777423062
 30
0.0
 11
-435.2988396158602
 21
-1581.162777423062
 31
0.0
  0
LINE
  5
16E7A
330
18
100
AcDbEntity
  8
1DIM
100
AcDbLine
 10
-470.2988396158602
 20
-1574.162777423062
 30
0.0
 11
-470.2988396158612
 21
-1623.162777423062
 31
0.0
  0
TEXT
  5
16E7B
330
18
100
AcDbEntity
  8
1TEXT
100
AcDbText
 10
-459.7655062825268
 20
-1579.662777423062
 30
0.0
 40
4.0
  1
コード
 72
     1
 11
-452.8988396158601
 21
-1579.662777423062
 31
0.0
100
AcDbText
  0
LINE
  5
16E7C
330
18
100
AcDbEntity
  8
1DIM
100
AcDbLine
 10
-505.2988396158602
 20
-1623.162777423062
 30
0.0
 11
-505.2988396158602
 21
-1574.162777423062
 31
0.0
  0
LINE
  5
16E7D
330
18
100
AcDbEntity
  8
1DIM
100
AcDbLine
 10
-435.2988396158605
 20
-1623.162777423062
 30
0.0
 11
-435.2988396158602
 21
-1574.162777423062
 31
0.0
  0
TEXT
  5
16E7E
330
18
100
AcDbEntity
  8
1TEXT
100
AcDbText
 10
-505.2988396158602
 20
-1569.162777423062
 30
0.0
 40
8.0
  1
SH-025-X-5
100
AcDbText
  0
TEXT
  5
16E7F
330
18
100
AcDbEntity
  8
1TEXT
100
AcDbText
 10
-497.8858766528971
 20
-1586.498066082586
 30
0.0
 40
4.0
  1
Mirror
 72
     1
 11
-487.8988396158601
 21
-1586.498066082586
 31
0.0
100
AcDbText
  0
TEXT
  5
16E80
330
18
100
AcDbEntity
  8
1TEXT
100
AcDbText
 10
-465.5071729491932
 20
-1586.877134406711
 30
0.0
 40
4.0
  1
SH-025-XP-5
 41
0.6
 72
     1
 11
-452.8988396158599
 21
-1586.877134406711
 31
0.0
100
AcDbText
  0
LINE
  5
16E81
330
18
100
AcDbEntity
  8
1DIM
100
AcDbLine
 10
-505.2988396158602
 20
-1595.162777423062
 30
0.0
 11
-435.2988396158602
 21
-1595.162777423062
 31
0.0
  0
TEXT
  5
16E82
330
18
100
AcDbEntity
  8
1TEXT
100
AcDbText
 10
-499.8996729491934
 20
-1593.498066082586
 30
0.0
 40
4.0
  1
Brushed
 41
0.9
 72
     1
 11
-487.8988396158601
 21
-1593.498066082586
 31
0.0
100
AcDbText
  0
TEXT
  5
16E83
330
18
100
AcDbEntity
  8
1TEXT
100
AcDbText
 10
-465.5071729491932
 20
-1593.877134406711
 30
0.0
 40
4.0
  1
SH-025-XT-5
 41
0.6
 72
     1
 11
-452.8988396158599
 21
-1593.877134406711
 31
0.0
100
AcDbText
  0
LINE
  5
16E84
330
18
100
AcDbEntity
  8
1DIM
100
AcDbLine
 10
-505.2988396158602
 20
-1602.162777423062
 30
0.0
 11
-435.2988396158602
 21
-1602.162777423062
 31
0.0
  0
TEXT
  5
16E85
330
18
100
AcDbEntity
  8
1TEXT
100
AcDbText
 10
-500.6821729491934
 20
-1600.498066082586
 30
0.0
 40
4.0
  1
Lumi Gold
 41
0.9
 72
     1
 11
-487.8988396158601
 21
-1600.498066082586
 31
0.0
100
AcDbText
  0
TEXT
  5
16E86
330
18
100
AcDbEntity
  8
1TEXT
100
AcDbText
 10
-466.1071729491932
 20
-1600.877134406711
 30
0.0
 40
4.0
  1
SH-025-P01-5
 41
0.6
 72
     1
 11
-452.8988396158599
 21
-1600.877134406711
 31
0.0
100
AcDbText
  0
CIRCLE
  5
174AA
330
18
100
AcDbEntity
  8
01
100
AcDbCircle
 10
-352.1102839417193
 20
-1706.511526015714
 30
0.0
 40
15.0
  0
LINE
  5
174BD
330
18
100
AcDbEntity
  8
1CENTER
100
AcDbLine
 10
-372.1102839417192
 20
-1706.511526015714
 30
0.0
 11
-332.1102839417192
 21
-1706.511526015714
 31
0.0
  0
LINE
  5
174BE
330
18
100
AcDbEntity
  8
1CENTER
100
AcDbLine
 10
-352.1102839417193
 20
-1686.511526015714
 30
0.0
 11
-352.1102839417193
 21
-1726.511526015714
 31
0.0
  0
LINE
  5
17577
330
18
100
AcDbEntity
  8
1DIM
100
AcDbLine
 10
-505.2988396158602
 20
-1609.162777423062
 30
0.0
 11
-435.2988396158602
 21
-1609.162777423062
 31
0.0
  0
TEXT
  5
17578
330
18
100
AcDbEntity
  8
1TEXT
100
AcDbText
 10
-501.9416173936378
 20
-1607.498066082586
 30
0.0
 40
4.0
  1
Lumi Rose Gold
 41
0.6
 72
     1
 11
-487.8988396158601
 21
-1607.498066082586
 31
0.0
100
AcDbText
  0
TEXT
  5
17579
330
18
100
AcDbEntity
  8
1TEXT
100
AcDbText
 10
-466.5071729491932
 20
-1607.877134406711
 30
0.0
 40
4.0
  1
SH-025-P02-5
 41
0.6
 72
     1
 11
-452.8988396158599
 21
-1607.877134406711
 31
0.0
100
AcDbText
  0
LINE
  5
1757A
330
18
100
AcDbEntity
  8
1DIM
100
AcDbLine
 10
-505.2988396158602
 20
-1616.162777423062
 30
0.0
 11
-435.2988396158602
 21
-1616.162777423062
 31
0.0
  0
TEXT
  5
1757B
330
18
100
AcDbEntity
  8
1TEXT
100
AcDbText
 10
-501.2603210973415
 20
-1614.498066082586
 30
0.0
 40
4.0
  1
Lumi Champagne Gold
 41
0.4
 72
     1
 11
-487.8988396158601
 21
-1614.498066082586
 31
0.0
100
AcDbText
  0
TEXT
  5
1757C
330
18
100
AcDbEntity
  8
1TEXT
100
AcDbText
 10
-466.5155062825265
 20
-1614.877134406711
 30
0.0
 40
4.0
  1
SH-025-P05-5
 41
0.6
 72
     1
 11
-452.8988396158599
 21
-1614.877134406711
 31
0.0
100
AcDbText
  0
LINE
  5
1757D
330
18
100
AcDbEntity
  8
1DIM
100
AcDbLine
 10
-505.2988396158602
 20
-1623.162777423062
 30
0.0
 11
-435.2988396158602
 21
-1623.162777423062
 31
0.0
  0
TEXT
  5
1757E
330
18
100
AcDbEntity
  8
1TEXT
100
AcDbText
 10
-502.4696729491934
 20
-1621.498066082586
 30
0.0
 40
4.0
  1
Lumi Black
 41
0.9
 72
     1
 11
-487.8988396158601
 21
-1621.498066082586
 31
0.0
100
AcDbText
  0
TEXT
  5
1757F
330
18
100
AcDbEntity
  8
1TEXT
100
AcDbText
 10
-466.5071729491932
 20
-1621.877134406711
 30
0.0
 40
4.0
  1
SH-025-P07-5
 41
0.6
 72
     1
 11
-452.8988396158599
 21
-1621.877134406711
 31
0.0
100
AcDbText
  0
LINE
  5
177E8
330
18
100
AcDbEntity
  8
01
100
AcDbLine
 10
-245.418776759375
 20
-1702.2954319802
 30
0.0
 11
-258.0187753092495
 21
-1702.2954319802
 31
0.0
  0
LINE
  5
177E9
330
18
100
AcDbEntity
  8
01
100
AcDbLine
 10
-258.0187753092495
 20
-1698.54543201954
 30
0.0
 11
-245.718772535434
 21
-1698.54543201954
 31
0.0
  0
LINE
  5
177EA
330
18
100
AcDbEntity
  8
01
100
AcDbLine
 10
-258.0187753092495
 20
-1710.7954319802
 30
0.0
 11
-245.4187767593748
 21
-1710.7954319802
 31
0.0
  0
LINE
  5
177EB
330
18
100
AcDbEntity
  8
01
100
AcDbLine
 10
-245.718772535434
 20
-1714.54543201954
 30
0.0
 11
-258.0187753092495
 21
-1714.54543201954
 31
0.0
  0
LINE
  5
177EE
330
18
100
AcDbEntity
  8
1CENTER
  6
CENTER
 48
0.1
100
AcDbLine
 10
-238.118775595243
 20
-1712.172588083375
 30
0.0
 11
-238.118775595243
 21
-1722.568791039221
 31
0.0
  0
LINE
  5
177F7
330
18
100
AcDbEntity
  8
01
100
AcDbLine
 10
-245.7187768755945
 20
-1693.120630699902
 30
0.0
 11
-245.7187733349644
 21
-1720.120647026154
 31
0.0
  0
LINE
  5
1780C
330
18
100
AcDbEntity
  8
01
100
AcDbLine
 10
-242.418776759375
 20
-1721.511457168077
 30
0.0
 11
-245.418776759375
 21
-1721.511457168077
 31
0.0
  0
LINE
  5
1780E
330
18
100
AcDbEntity
  8
01
100
AcDbLine
 10
-242.418776759375
 20
-1691.511457168077
 30
0.0
 11
-242.4187804712489
 21
-1721.511457168077
 31
0.0
  0
LINE
  5
1780F
330
18
100
AcDbEntity
  8
01
100
AcDbLine
 10
-245.418776759375
 20
-1691.511457168077
 30
0.0
 11
-242.418776759375
 21
-1691.511457168077
 31
0.0
  0
LINE
  5
17815
330
18
100
AcDbEntity
  8
1PHANTOM
100
AcDbLine
 10
-242.4187767593748
 20
-1719.011457168077
 30
0.0
 11
-235.4187767593748
 21
-1719.011457168077
 31
0.0
  0
ARC
  5
17816
330
18
100
AcDbEntity
  8
1PHANTOM
100
AcDbCircle
 10
-235.4187767593748
 20
-1718.011457168077
 30
0.0
 40
1.0
100
AcDbArc
 50
270.0
 51
0.0
  0
LINE
  5
17819
330
18
100
AcDbEntity
  8
01
100
AcDbLine
 10
-245.418776759375
 20
-1691.511457168077
 30
0.0
 11
-245.418776759375
 21
-1721.511457168077
 31
0.0
  0
LINE
  5
1781A
330
18
100
AcDbEntity
  8
1CENTER
  6
CENTER
 48
0.1
100
AcDbLine
 10
-238.1187767593748
 20
-1712.063417571939
 30
0.0
 11
-238.1187767593748
 21
-1722.459620527785
 31
0.0
  0
LINE
  5
1781B
330
18
100
AcDbEntity
  8
01
100
AcDbLine
 10
-241.918776759375
 20
-1704.011457168077
 30
0.0
 11
-241.918776759375
 21
-1709.011457168077
 31
0.0
  0
LINE
  5
1781C
330
18
100
AcDbEntity
  8
1CENTER
100
AcDbLine
 10
-206.4197668448705
 20
-1706.511457168079
 30
0.0
 11
-298.6014006563263
 21
-1706.511457168079
 31
0.0
  0
LINE
  5
17827
330
18
100
AcDbEntity
  8
01
100
AcDbLine
 10
-214.9562917358821
 20
-1691.511457168077
 30
0.0
 11
-211.418776759375
 21
-1691.511457168077
 31
0.0
  0
LINE
  5
17828
330
18
100
AcDbEntity
  8
01
100
AcDbLine
 10
-241.3687768562842
 20
-1721.511457189888
 30
0.0
 11
-242.418776759375
 21
-1721.511457168077
 31
0.0
  0
LINE
  5
17829
330
18
100
AcDbEntity
  8
01
100
AcDbLine
 10
-242.418776759375
 20
-1691.511457168077
 30
0.0
 11
-234.88126178289
 21
-1691.511457168077
 31
0.0
  0
LINE
  5
17831
330
18
100
AcDbEntity
  8
01
100
AcDbLine
 10
-211.418776759375
 20
-1721.511457168077
 30
0.0
 11
-214.9562917358823
 21
-1721.511457168077
 31
0.0
  0
LINE
  5
17832
330
18
100
AcDbEntity
  8
01
100
AcDbLine
 10
-210.418776759375
 20
-1692.511457168077
 30
0.0
 11
-210.418776759375
 21
-1720.511457168077
 31
0.0
  0
ARC
  5
17833
330
18
100
AcDbEntity
  8
01
100
AcDbCircle
 10
-224.918776759375
 20
-1677.971826449332
 30
0.0
 40
16.53999999999996
100
AcDbArc
 50
236.4788902062745
 51
303.5211097936595
  0
ARC
  5
17835
330
18
100
AcDbEntity
  8
01
100
AcDbCircle
 10
-214.9562917358823
 20
-1693.011457168077
 30
0.0
 40
1.5
100
AcDbArc
 50
90.0
 51
123.5211097936595
  0
ARC
  5
17836
330
18
100
AcDbEntity
  8
01
100
AcDbCircle
 10
-234.88126178289
 20
-1693.011457168077
 30
0.0
 40
1.5
100
AcDbArc
 50
56.47889020627449
 51
90.0
  0
ARC
  5
17837
330
18
100
AcDbEntity
  8
01
100
AcDbCircle
 10
-234.88126178289
 20
-1720.011457168077
 30
0.0
 40
1.5
100
AcDbArc
 50
270.0
 51
303.5211097937255
  0
ARC
  5
17838
330
18
100
AcDbEntity
  8
01
100
AcDbCircle
 10
-224.918776759375
 20
-1735.051087886823
 30
0.0
 40
16.53999999999996
100
AcDbArc
 50
56.47889020634048
 51
123.5211097937255
  0
ARC
  5
17839
330
18
100
AcDbEntity
  8
01
100
AcDbCircle
 10
-214.9562917358823
 20
-1720.011457168077
 30
0.0
 40
1.5
100
AcDbArc
 50
236.4788902063405
 51
270.0
  0
ARC
  5
1783A
330
18
100
AcDbEntity
  8
01
100
AcDbCircle
 10
-211.418776759375
 20
-1692.511457168077
 30
0.0
 40
1.0
100
AcDbArc
 50
0.0
 51
90.0
  0
ARC
  5
1783B
330
18
100
AcDbEntity
  8
01
100
AcDbCircle
 10
-211.418776759375
 20
-1720.511457168077
 30
0.0
 40
1.0
100
AcDbArc
 50
270.0
 51
0.0
  0
LINE
  5
17840
330
18
100
AcDbEntity
  8
01
100
AcDbLine
 10
-242.418776759375
 20
-1694.011457168077
 30
0.0
 11
-242.418776759375
 21
-1691.511457168077
 31
0.0
  0
LINE
  5
17841
330
18
100
AcDbEntity
  8
01
100
AcDbLine
 10
-241.3687767593753
 20
-1721.511457168077
 30
0.0
 11
-234.88126178289
 21
-1721.511457168077
 31
0.0
  0
LINE
  5
17858
330
18
100
AcDbEntity
  8
01
100
AcDbLine
 10
-258.0187753092495
 20
-1698.54543201954
 30
0.0
 11
-258.0187753092495
 21
-1714.54543201954
 31
0.0
  0
LINE
  5
17859
330
18
100
AcDbEntity
  8
01
100
AcDbLine
 10
-261.0187753092495
 20
-1691.544634382219
 30
0.0
 11
-261.0187753092495
 21
-1721.544634382219
 31
0.0
  0
LINE
  5
1785A
330
18
100
AcDbEntity
  8
01
  6
CONTINUOUS
100
AcDbLine
 10
-261.0187753092495
 20
-1691.544634382219
 30
0.0
 11
-258.0187753092495
 21
-1691.544634382219
 31
0.0
  0
LINE
  5
1785B
330
18
100
AcDbEntity
  8
01
  6
CONTINUOUS
100
AcDbLine
 10
-261.0187753092495
 20
-1694.294634382219
 30
0.0
 11
-261.0187753092495
 21
-1691.544634382219
 31
0.0
  0
LINE
  5
1785C
330
18
100
AcDbEntity
  8
01
  6
CONTINUOUS
100
AcDbLine
 10
-261.0187753092495
 20
-1721.544634382219
 30
0.0
 11
-261.0187753092495
 21
-1718.794634382219
 31
0.0
  0
LINE
  5
1785D
330
18
100
AcDbEntity
  8
01
  6
CONTINUOUS
100
AcDbLine
 10
-258.0187753092495
 20
-1721.544634382219
 30
0.0
 11
-261.0187753092495
 21
-1721.544634382219
 31
0.0
  0
LINE
  5
17860
330
18
100
AcDbEntity
  8
01
100
AcDbLine
 10
-258.0187753092495
 20
-1691.544634382219
 30
0.0
 11
-258.0187753092495
 21
-1721.544634382219
 31
0.0
  0
LINE
  5
17861
330
18
100
AcDbEntity
  8
01
100
AcDbLine
 10
-261.0187753092495
 20
-1691.544634382219
 30
0.0
 11
-258.0187753092495
 21
-1691.544634382219
 31
0.0
  0
LINE
  5
17862
330
18
100
AcDbEntity
  8
01
100
AcDbLine
 10
-261.0187753092495
 20
-1699.144634382219
 30
0.0
 11
-261.0187753092495
 21
-1691.544634382219
 31
0.0
  0
LINE
  5
17870
330
18
100
AcDbEntity
  8
01
100
AcDbLine
 10
-261.0187753092495
 20
-1721.544634382219
 30
0.0
 11
-261.0187753092495
 21
-1713.944634382219
 31
0.0
  0
LINE
  5
17872
330
18
100
AcDbEntity
  8
01
100
AcDbLine
 10
-258.0187753092495
 20
-1721.544634382219
 30
0.0
 11
-261.0187753092495
 21
-1721.544634382219
 31
0.0
  0
LINE
  5
178DB
330
18
100
AcDbEntity
  8
01
100
AcDbLine
 10
-258.0187753092495
 20
-1721.544634382219
 30
0.0
 11
-261.0187753092495
 21
-1721.544634382219
 31
0.0
  0
LINE
  5
178E8
330
18
100
AcDbEntity
  8
01
100
AcDbLine
 10
-292.0187753092495
 20
-1721.544634382219
 30
0.0
 11
-288.481260332765
 21
-1721.544634382219
 31
0.0
  0
LINE
  5
178E9
330
18
100
AcDbEntity
  8
01
100
AcDbLine
 10
-268.5562902857343
 20
-1721.544634382219
 30
0.0
 11
-261.0187753092495
 21
-1721.544634382219
 31
0.0
  0
LINE
  5
178EA
330
18
100
AcDbEntity
  8
01
100
AcDbLine
 10
-261.0187753092495
 20
-1691.544634382219
 30
0.0
 11
-268.5562902857343
 21
-1691.544634382219
 31
0.0
  0
LINE
  5
178EB
330
18
100
AcDbEntity
  8
01
100
AcDbLine
 10
-293.0187753092495
 20
-1692.544634382219
 30
0.0
 11
-293.0187753092495
 21
-1720.544634382219
 31
0.0
  0
LINE
  5
178EC
330
18
100
AcDbEntity
  8
01
100
AcDbLine
 10
-261.0187753092495
 20
-1691.544634382219
 30
0.0
 11
-261.0187753092495
 21
-1721.544634382219
 31
0.0
  0
LINE
  5
178ED
330
18
100
AcDbEntity
  8
01
100
AcDbLine
 10
-288.481260332765
 20
-1691.544634382219
 30
0.0
 11
-292.0187753092495
 21
-1691.544634382219
 31
0.0
  0
ARC
  5
178EE
330
18
100
AcDbEntity
  8
01
100
AcDbCircle
 10
-292.0187753092495
 20
-1720.544634382219
 30
0.0
 40
1.0
100
AcDbArc
 50
180.0
 51
270.0
  0
ARC
  5
178EF
330
18
100
AcDbEntity
  8
01
100
AcDbCircle
 10
-288.481260332765
 20
-1720.044634382219
 30
0.0
 40
1.5
100
AcDbArc
 50
270.0
 51
303.5211097937419
  0
ARC
  5
178F0
330
18
100
AcDbEntity
  8
01
100
AcDbCircle
 10
-278.5187753092495
 20
-1735.084265100965
 30
0.0
 40
16.53999999999996
100
AcDbArc
 50
56.47889020627424
 51
123.521109793726
  0
ARC
  5
178F1
330
18
100
AcDbEntity
  8
01
100
AcDbCircle
 10
-268.5562902857343
 20
-1720.044634382219
 30
0.0
 40
1.5
100
AcDbArc
 50
236.4788902062581
 51
270.0
  0
ARC
  5
178F2
330
18
100
AcDbEntity
  8
01
100
AcDbCircle
 10
-288.481260332765
 20
-1693.044634382219
 30
0.0
 40
1.5
100
AcDbArc
 50
56.47889020625812
 51
90.0
  0
ARC
  5
178F3
330
18
100
AcDbEntity
  8
01
100
AcDbCircle
 10
-278.5187753092495
 20
-1678.005003663474
 30
0.0
 40
16.53999999999996
100
AcDbArc
 50
236.4788902062581
 51
303.5211097937419
  0
ARC
  5
178F4
330
18
100
AcDbEntity
  8
01
100
AcDbCircle
 10
-268.5562902857343
 20
-1693.044634382219
 30
0.0
 40
1.5
100
AcDbArc
 50
90.0
 51
123.5211097937419
  0
ARC
  5
178F5
330
18
100
AcDbEntity
  8
01
100
AcDbCircle
 10
-292.0187753092495
 20
-1692.544634382219
 30
0.0
 40
1.0
100
AcDbArc
 50
90.0
 51
180.0
  0
LINE
  5
17904
330
18
100
AcDbEntity
  8
01
  6
CONTINUOUS
100
AcDbLine
 10
-241.918776759375
 20
-1705.511457468079
 30
0.0
 11
-239.918776759375
 21
-1707.511457568079
 31
0.0
  0
LINE
  5
17906
330
18
100
AcDbEntity
  8
1CENTER
100
AcDbLine
 10
-233.4472989329581
 20
-1706.511457168079
 30
0.0
 11
-281.8061257166475
 21
-1706.511457168079
 31
0.0
  0
LINE
  5
17907
330
18
100
AcDbEntity
  8
1PHANTOM
100
AcDbLine
 10
-279.28877331594
 20
-1710.511786363162
 30
0.0
 11
-239.918767452078
 21
-1710.511507515653
 31
0.0
  0
LINE
  5
17908
330
18
100
AcDbEntity
  8
1PHANTOM
100
AcDbLine
 10
-279.9187689183538
 20
-1709.881792226617
 30
0.0
 11
-279.28877331594
 21
-1710.511786363162
 31
0.0
  0
LINE
  5
17909
330
18
100
AcDbEntity
  8
1PHANTOM
100
AcDbLine
 10
-239.918767452078
 20
-1710.511507515653
 30
0.0
 11
-239.9187604718108
 21
-1713.511457168079
 31
0.0
  0
LINE
  5
1790A
330
18
100
AcDbEntity
  8
1PHANTOM
100
AcDbLine
 10
-279.9187846009513
 20
-1703.141792226471
 30
0.0
 11
-279.9187689183538
 21
-1709.881792226617
 31
0.0
  0
LINE
  5
1790B
330
18
100
AcDbEntity
  8
1PHANTOM
100
AcDbLine
 10
-238.7187697789872
 20
-1713.511457168079
 30
0.0
 11
-239.9187604718108
 21
-1713.511457168079
 31
0.0
  0
LINE
  5
1790C
330
18
100
AcDbEntity
  8
1PHANTOM
100
AcDbLine
 10
-279.9187846009513
 20
-1703.141792226471
 30
0.0
 11
-279.2887889986195
 21
-1702.511786362962
 31
0.0
  0
ARC
  5
1790D
330
18
100
AcDbEntity
  8
1PHANTOM
100
AcDbCircle
 10
-238.7187697789872
 20
-1709.511457168079
 30
0.0
 40
4.0
100
AcDbArc
 50
270.0
 51
0.0001333155250614
  0
LINE
  5
1790E
330
18
100
AcDbEntity
  8
1PHANTOM
100
AcDbLine
 10
-279.2887889986195
 20
-1702.511786362962
 30
0.0
 11
-239.9187860664376
 21
-1702.511507515451
 31
0.0
  0
LINE
  5
1790F
330
18
100
AcDbEntity
  8
1PHANTOM
100
AcDbLine
 10
-234.7187837397673
 20
-1703.511447860899
 30
0.0
 11
-234.7187697789979
 21
-1709.511447860899
 31
0.0
  0
LINE
  5
17910
330
18
100
AcDbEntity
  8
1PHANTOM
100
AcDbLine
 10
-239.9187930469392
 20
-1699.511457168079
 30
0.0
 11
-239.9187860664376
 21
-1702.511507515451
 31
0.0
  0
ARC
  5
17911
330
18
100
AcDbEntity
  8
1PHANTOM
100
AcDbCircle
 10
-238.7187837397564
 20
-1703.511457168079
 30
0.0
 40
4.0
100
AcDbArc
 50
0.0001333155250614
 51
90.0
  0
LINE
  5
17912
330
18
100
AcDbEntity
  8
1PHANTOM
100
AcDbLine
 10
-238.7187837397564
 20
-1699.511457168079
 30
0.0
 11
-239.9187930469392
 21
-1699.511457168079
 31
0.0
  0
LINE
  5
17913
330
18
100
AcDbEntity
  8
1PHANTOM
100
AcDbLine
 10
-279.9187846009513
 20
-1703.141792226471
 30
0.0
 11
-239.918784600557
 21
-1703.14150739758
 31
0.0
  0
LINE
  5
17914
330
18
100
AcDbEntity
  8
1PHANTOM
100
AcDbLine
 10
-279.9187689183538
 20
-1709.881792226617
 30
0.0
 11
-239.9187689179593
 21
-1709.881507397756
 31
0.0
  0
LINE
  5
17915
330
18
100
AcDbEntity
  8
1PHANTOM
100
AcDbLine
 10
-279.28877331594
 20
-1710.511786363162
 30
0.0
 11
-279.2887889986195
 21
-1702.511786362962
 31
0.0
  0
LINE
  5
17916
330
18
100
AcDbEntity
  8
1PHANTOM
100
AcDbLine
 10
-239.918767452078
 20
-1710.511507515653
 30
0.0
 11
-239.9187860664376
 21
-1702.511507515451
 31
0.0
  0
LINE
  5
17948
330
18
100
AcDbEntity
  8
1PHANTOM
100
AcDbLine
 10
-234.4187767593748
 20
-1701.061457168077
 30
0.0
 11
-234.4187767593748
 21
-1718.011457168077
 31
0.0
  0
LINE
  5
1794A
330
18
100
AcDbEntity
  8
1PHANTOM
100
AcDbLine
 10
-242.4187767593748
 20
-1701.061459384719
 30
0.0
 11
-234.4187767593748
 21
-1701.061459384719
 31
0.0
  0
LINE
  5
17955
330
18
100
AcDbEntity
  8
01
100
AcDbLine
 10
-236.4687755952429
 20
-1715.511457168077
 30
0.0
 11
-239.7687755952426
 21
-1715.511457168077
 31
0.0
  0
LINE
  5
17956
330
18
100
AcDbEntity
  8
01
100
AcDbLine
 10
-239.7687755952426
 20
-1715.511457168077
 30
0.0
 11
-240.118775595243
 21
-1715.861457168077
 31
0.0
  0
LINE
  5
17957
330
18
100
AcDbEntity
  8
01
100
AcDbLine
 10
-240.118775595243
 20
-1715.861457168077
 30
0.0
 11
-240.118775595243
 21
-1720.211456994003
 31
0.0
  0
LINE
  5
17958
330
18
100
AcDbEntity
  8
01
100
AcDbLine
 10
-240.118775595243
 20
-1720.211456994003
 30
0.0
 11
-241.118775595243
 21
-1721.211457068077
 31
0.0
  0
LINE
  5
17959
330
18
100
AcDbEntity
  8
01
100
AcDbLine
 10
-241.118775595243
 20
-1721.211457068077
 30
0.0
 11
-241.118775595243
 21
-1721.511457168077
 31
0.0
  0
LINE
  5
1795A
330
18
100
AcDbEntity
  8
01
100
AcDbLine
 10
-235.118775595243
 20
-1721.511457168077
 30
0.0
 11
-241.118775595243
 21
-1721.511457168077
 31
0.0
  0
LINE
  5
1795B
330
18
100
AcDbEntity
  8
01
100
AcDbLine
 10
-235.118775595243
 20
-1721.211457158077
 30
0.0
 11
-235.118775595243
 21
-1721.511457168077
 31
0.0
  0
LINE
  5
1795C
330
18
100
AcDbEntity
  8
01
100
AcDbLine
 10
-236.118775595243
 20
-1720.211456994003
 30
0.0
 11
-235.118775595243
 21
-1721.211457158077
 31
0.0
  0
LINE
  5
1795D
330
18
100
AcDbEntity
  8
01
100
AcDbLine
 10
-236.118775595243
 20
-1715.861457168077
 30
0.0
 11
-236.118775595243
 21
-1720.211456994003
 31
0.0
  0
LINE
  5
1795E
330
18
100
AcDbEntity
  8
01
100
AcDbLine
 10
-236.118775595243
 20
-1715.861457168077
 30
0.0
 11
-236.4687755952429
 21
-1715.511457168077
 31
0.0
  0
LINE
  5
1795F
330
18
100
AcDbEntity
  8
1HATCH
100
AcDbLine
 10
-236.118775595243
 20
-1715.861457168077
 30
0.0
 11
-240.118775595243
 21
-1715.861457168077
 31
0.0
  0
LINE
  5
17960
330
18
100
AcDbEntity
  8
1HATCH
100
AcDbLine
 10
-239.7687755952426
 20
-1715.511457168077
 30
0.0
 11
-239.7687755952431
 21
-1719.861457168077
 31
0.0
  0
LINE
  5
17961
330
18
100
AcDbEntity
  8
1HATCH
100
AcDbLine
 10
-236.4687755952429
 20
-1715.511457168077
 30
0.0
 11
-236.4687755952429
 21
-1719.861457168077
 31
0.0
  0
LINE
  5
17962
330
18
100
AcDbEntity
  8
1HATCH
100
AcDbLine
 10
-235.118775595243
 20
-1721.211457158077
 30
0.0
 11
-241.118775595243
 21
-1721.211457158077
 31
0.0
  0
LINE
  5
17963
330
18
100
AcDbEntity
  8
1HATCH
100
AcDbLine
 10
-236.4687755952429
 20
-1719.861457168077
 30
0.0
 11
-236.118775595243
 21
-1720.211456994003
 31
0.0
  0
LINE
  5
17964
330
18
100
AcDbEntity
  8
1HATCH
100
AcDbLine
 10
-240.118775595243
 20
-1720.211456994003
 30
0.0
 11
-239.7687755952431
 21
-1719.861457168077
 31
0.0
  0
LINE
  5
1796E
330
18
100
AcDbEntity
  8
01
100
AcDbLine
 10
-257.7187723114266
 20
-1720.044303876958
 30
0.0
 11
-257.7187758520567
 21
-1693.044287550706
 31
0.0
  0
LINE
  5
1799A
330
18
100
AcDbEntity
  8
01
100
AcDbLine
 10
-245.7187768755945
 20
-1693.120630699902
 30
0.0
 11
-245.418776759375
 21
-1693.120630699902
 31
0.0
  0
LINE
  5
1799B
330
18
100
AcDbEntity
  8
01
100
AcDbLine
 10
-245.7187733349644
 20
-1720.120647026154
 30
0.0
 11
-245.418776759375
 21
-1720.120647026154
 31
0.0
  0
LINE
  5
1799C
330
18
100
AcDbEntity
  8
01
100
AcDbLine
 10
-257.7187723114266
 20
-1720.044303876958
 30
0.0
 11
-258.0187753092495
 21
-1720.044303876958
 31
0.0
  0
LINE
  5
1799D
330
18
100
AcDbEntity
  8
01
100
AcDbLine
 10
-257.7187758520567
 20
-1693.044287550706
 30
0.0
 11
-258.0187753092495
 21
-1693.044287550706
 31
0.0
  0
LINE
  5
1799E
330
18
100
AcDbEntity
  8
1DIM
100
AcDbLine
 10
-288.481260332765
 20
-1691.544634382219
 30
0.0
 11
-288.481260332765
 21
-1721.544634382219
 31
0.0
  0
LINE
  5
1799F
330
18
100
AcDbEntity
  8
1DIM
100
AcDbLine
 10
-287.652894061408
 20
-1691.794110763698
 30
0.0
 11
-287.652894061408
 21
-1721.29515800074
 31
0.0
  0
LINE
  5
179A2
330
18
100
AcDbEntity
  8
1DIM
100
AcDbLine
 10
-214.9562917358821
 20
-1691.511457168077
 30
0.0
 11
-214.9562917358821
 21
-1721.511457168077
 31
0.0
  0
LINE
  5
179A3
330
18
100
AcDbEntity
  8
1DIM
100
AcDbLine
 10
-215.7846580072376
 20
-1691.76093354957
 30
0.0
 11
-215.7846580072376
 21
-1721.261980786584
 31
0.0
  0
LINE
  5
179A4
330
18
100
AcDbEntity
  8
1DIM
100
AcDbLine
 10
-234.4487027856316
 20
-1691.575179787523
 30
0.0
 11
-234.4487027856316
 21
-1721.447734548631
 31
0.0
  0
LINE
  5
179A5
330
18
100
AcDbEntity
  8
1DIM
100
AcDbLine
 10
-268.988849282993
 20
-1691.608357001665
 30
0.0
 11
-268.988849282993
 21
-1721.480911762773
 31
0.0
  0
LINE
  5
179A6
330
18
100
AcDbEntity
  8
1PHANTOM
100
AcDbLine
 10
-245.7187740860479
 20
-1662.560037150411
 30
0.0
 11
-245.7187740860479
 21
-1742.560037150411
 31
0.0
  0
LINE
  5
179F1
330
18
100
AcDbEntity
  8
01
100
AcDbLine
 10
-360.0763091295984
 20
-1607.045112828766
 30
0.0
 11
-360.0763090902581
 21
-1595.045110233532
 31
0.0
  0
LINE
  5
179F3
330
18
100
AcDbEntity
  8
01
100
AcDbLine
 10
-344.0763090902581
 20
-1595.045110233532
 30
0.0
 11
-344.0763090902581
 21
-1607.045110730616
 31
0.0
  0
LINE
  5
179F5
330
18
100
AcDbEntity
  8
01
100
AcDbLine
 10
-365.5011104098965
 20
-1595.045114573693
 30
0.0
 11
-338.5010940836444
 21
-1595.045111033063
 31
0.0
  0
LINE
  5
179F6
330
18
100
AcDbEntity
  8
01
100
AcDbLine
 10
-337.1102839417213
 20
-1591.745114457473
 30
0.0
 11
-337.1102839417213
 21
-1594.745114457473
 31
0.0
  0
LINE
  5
179F7
330
18
100
AcDbEntity
  8
01
100
AcDbLine
 10
-367.1102839417213
 20
-1591.745114457473
 30
0.0
 11
-337.1102839417213
 21
-1591.745118169347
 31
0.0
  0
LINE
  5
179F8
330
18
100
AcDbEntity
  8
01
100
AcDbLine
 10
-367.1102839417213
 20
-1594.745114457473
 30
0.0
 11
-367.1102839417213
 21
-1591.745114457473
 31
0.0
  0
LINE
  5
179FB
330
18
100
AcDbEntity
  8
01
100
AcDbLine
 10
-367.1102839417213
 20
-1594.745114457473
 30
0.0
 11
-337.1102839417213
 21
-1594.745114457473
 31
0.0
  0
LINE
  5
179FD
330
18
100
AcDbEntity
  8
01
100
AcDbLine
 10
-354.6102839417213
 20
-1591.245114457473
 30
0.0
 11
-349.6102839417213
 21
-1591.245114457473
 31
0.0
  0
LINE
  5
179FE
330
18
100
AcDbEntity
  8
01
100
AcDbLine
 10
-367.1102839417213
 20
-1564.28262943398
 30
0.0
 11
-367.1102839417208
 21
-1560.745114457473
 31
0.0
  0
LINE
  5
179FF
330
18
100
AcDbEntity
  8
01
100
AcDbLine
 10
-337.1102839417213
 20
-1584.207599480988
 30
0.0
 11
-337.1102839417213
 21
-1591.745114457473
 31
0.0
  0
LINE
  5
17A00
330
18
100
AcDbEntity
  8
01
100
AcDbLine
 10
-367.1102839417208
 20
-1591.745114457473
 30
0.0
 11
-367.1102839417208
 21
-1584.207599480988
 31
0.0
  0
LINE
  5
17A01
330
18
100
AcDbEntity
  8
01
100
AcDbLine
 10
-337.1102839417213
 20
-1560.745114457473
 30
0.0
 11
-337.1102839417213
 21
-1564.282629433981
 31
0.0
  0
LINE
  5
17A02
330
18
100
AcDbEntity
  8
01
100
AcDbLine
 10
-366.1102839417208
 20
-1559.745114457473
 30
0.0
 11
-338.1102839417213
 21
-1559.745114457473
 31
0.0
  0
ARC
  5
17A03
330
18
100
AcDbEntity
  8
01
100
AcDbCircle
 10
-380.6499146604665
 20
-1574.245114457473
 30
0.0
 40
16.53999999999996
100
AcDbArc
 50
326.4788902062745
 51
33.52110979365954
  0
ARC
  5
17A04
330
18
100
AcDbEntity
  8
01
100
AcDbCircle
 10
-365.6102839417208
 20
-1564.282629433981
 30
0.0
 40
1.5
100
AcDbArc
 50
180.0
 51
213.5211097936595
  0
ARC
  5
17A05
330
18
100
AcDbEntity
  8
01
100
AcDbCircle
 10
-365.6102839417208
 20
-1584.207599480988
 30
0.0
 40
1.5
100
AcDbArc
 50
146.4788902062745
 51
180.0
  0
ARC
  5
17A06
330
18
100
AcDbEntity
  8
01
100
AcDbCircle
 10
-338.6102839417213
 20
-1584.207599480988
 30
0.0
 40
1.5
100
AcDbArc
 50
0.0
 51
33.52110979372548
  0
ARC
  5
17A07
330
18
100
AcDbEntity
  8
01
100
AcDbCircle
 10
-323.5706532229756
 20
-1574.245114457473
 30
0.0
 40
16.53999999999996
100
AcDbArc
 50
146.4788902063405
 51
213.5211097937255
  0
ARC
  5
17A08
330
18
100
AcDbEntity
  8
01
100
AcDbCircle
 10
-338.6102839417213
 20
-1564.282629433981
 30
0.0
 40
1.5
100
AcDbArc
 50
326.4788902063404
 51
0.0
  0
ARC
  5
17A09
330
18
100
AcDbEntity
  8
01
100
AcDbCircle
 10
-366.1102839417208
 20
-1560.745114457473
 30
0.0
 40
1.0
100
AcDbArc
 50
90.0
 51
180.0
  0
ARC
  5
17A0A
330
18
100
AcDbEntity
  8
01
100
AcDbCircle
 10
-338.1102839417213
 20
-1560.745114457473
 30
0.0
 40
1.0
100
AcDbArc
 50
0.0
 51
90.0
  0
LINE
  5
17A0B
330
18
100
AcDbEntity
  8
01
100
AcDbLine
 10
-364.6102839417213
 20
-1591.745114457473
 30
0.0
 11
-367.1102839417208
 21
-1591.745114457473
 31
0.0
  0
LINE
  5
17A0D
330
18
100
AcDbEntity
  8
01
100
AcDbLine
 10
-360.0763090902581
 20
-1607.345113007348
 30
0.0
 11
-344.0763090902581
 21
-1607.345113007348
 31
0.0
  0
LINE
  5
17A0E
330
18
100
AcDbEntity
  8
01
100
AcDbLine
 10
-367.0771067275793
 20
-1610.345113007348
 30
0.0
 11
-337.0771067275793
 21
-1610.345113007348
 31
0.0
  0
LINE
  5
17A0F
330
18
100
AcDbEntity
  8
01
  6
CONTINUOUS
100
AcDbLine
 10
-367.0771067275793
 20
-1610.345113007348
 30
0.0
 11
-367.0771067275793
 21
-1607.345113007348
 31
0.0
  0
LINE
  5
17A10
330
18
100
AcDbEntity
  8
01
  6
CONTINUOUS
100
AcDbLine
 10
-364.3271067275793
 20
-1610.345113007348
 30
0.0
 11
-367.0771067275793
 21
-1610.345113007348
 31
0.0
  0
LINE
  5
17A11
330
18
100
AcDbEntity
  8
01
  6
CONTINUOUS
100
AcDbLine
 10
-337.0771067275793
 20
-1610.345113007348
 30
0.0
 11
-339.8271067275793
 21
-1610.345113007348
 31
0.0
  0
LINE
  5
17A12
330
18
100
AcDbEntity
  8
01
  6
CONTINUOUS
100
AcDbLine
 10
-337.0771067275793
 20
-1607.345113007348
 30
0.0
 11
-337.0771067275793
 21
-1610.345113007348
 31
0.0
  0
LINE
  5
17A13
330
18
100
AcDbEntity
  8
01
100
AcDbLine
 10
-367.0771067275789
 20
-1607.345113007348
 30
0.0
 11
-337.0771067275793
 21
-1607.345113007348
 31
0.0
  0
LINE
  5
17A14
330
18
100
AcDbEntity
  8
01
100
AcDbLine
 10
-367.0771067275789
 20
-1610.345113007348
 30
0.0
 11
-367.0771067275789
 21
-1607.345113007348
 31
0.0
  0
LINE
  5
17A15
330
18
100
AcDbEntity
  8
01
100
AcDbLine
 10
-359.477106727579
 20
-1610.345113007348
 30
0.0
 11
-367.0771067275789
 21
-1610.345113007348
 31
0.0
  0
LINE
  5
17A16
330
18
100
AcDbEntity
  8
01
100
AcDbLine
 10
-337.0771067275793
 20
-1610.345113007348
 30
0.0
 11
-344.6771067275788
 21
-1610.345113007348
 31
0.0
  0
LINE
  5
17A17
330
18
100
AcDbEntity
  8
01
100
AcDbLine
 10
-337.0771067275793
 20
-1607.345113007348
 30
0.0
 11
-337.0771067275793
 21
-1610.345113007348
 31
0.0
  0
LINE
  5
17A18
330
18
100
AcDbEntity
  8
01
100
AcDbLine
 10
-337.0771067275793
 20
-1607.345113007348
 30
0.0
 11
-337.0771067275793
 21
-1610.345113007348
 31
0.0
  0
LINE
  5
17A19
330
18
100
AcDbEntity
  8
01
100
AcDbLine
 10
-337.0771067275793
 20
-1641.345113007348
 30
0.0
 11
-337.0771067275793
 21
-1637.807598030863
 31
0.0
  0
LINE
  5
17A1A
330
18
100
AcDbEntity
  8
01
100
AcDbLine
 10
-337.0771067275793
 20
-1617.882627983833
 30
0.0
 11
-337.0771067275793
 21
-1610.345113007348
 31
0.0
  0
LINE
  5
17A1B
330
18
100
AcDbEntity
  8
01
100
AcDbLine
 10
-367.0771067275793
 20
-1610.345113007348
 30
0.0
 11
-367.0771067275793
 21
-1617.882627983833
 31
0.0
  0
LINE
  5
17A1C
330
18
100
AcDbEntity
  8
01
100
AcDbLine
 10
-366.0771067275793
 20
-1642.345113007348
 30
0.0
 11
-338.0771067275793
 21
-1642.345113007348
 31
0.0
  0
LINE
  5
17A1D
330
18
100
AcDbEntity
  8
01
100
AcDbLine
 10
-367.0771067275793
 20
-1610.345113007348
 30
0.0
 11
-337.0771067275793
 21
-1610.345113007348
 31
0.0
  0
LINE
  5
17A1E
330
18
100
AcDbEntity
  8
01
100
AcDbLine
 10
-367.0771067275793
 20
-1637.807598030863
 30
0.0
 11
-367.0771067275793
 21
-1641.345113007348
 31
0.0
  0
ARC
  5
17A1F
330
18
100
AcDbEntity
  8
01
100
AcDbCircle
 10
-338.0771067275793
 20
-1641.345113007348
 30
0.0
 40
1.0
100
AcDbArc
 50
270.0
 51
0.0
  0
ARC
  5
17A20
330
18
100
AcDbEntity
  8
01
100
AcDbCircle
 10
-338.5771067275793
 20
-1637.807598030863
 30
0.0
 40
1.5
100
AcDbArc
 50
0.0
 51
33.52110979374307
  0
ARC
  5
17A21
330
18
100
AcDbEntity
  8
01
100
AcDbCircle
 10
-323.5374760088337
 20
-1627.845113007348
 30
0.0
 40
16.53999999999996
100
AcDbArc
 50
146.4788902062745
 51
213.5211097937255
  0
ARC
  5
17A22
330
18
100
AcDbEntity
  8
01
100
AcDbCircle
 10
-338.5771067275793
 20
-1617.882627983833
 30
0.0
 40
1.5
100
AcDbArc
 50
326.4788902062568
 51
0.0
  0
ARC
  5
17A23
330
18
100
AcDbEntity
  8
01
100
AcDbCircle
 10
-365.5771067275793
 20
-1637.807598030863
 30
0.0
 40
1.5
100
AcDbArc
 50
146.4788902062569
 51
180.0
  0
ARC
  5
17A24
330
18
100
AcDbEntity
  8
01
100
AcDbCircle
 10
-380.6167374463246
 20
-1627.845113007348
 30
0.0
 40
16.53999999999996
100
AcDbArc
 50
326.4788902062568
 51
33.52110979374307
  0
ARC
  5
17A25
330
18
100
AcDbEntity
  8
01
100
AcDbCircle
 10
-365.5771067275793
 20
-1617.882627983833
 30
0.0
 40
1.5
100
AcDbArc
 50
180.0
 51
213.5211097937431
  0
ARC
  5
17A26
330
18
100
AcDbEntity
  8
01
100
AcDbCircle
 10
-366.0771067275793
 20
-1641.345113007348
 30
0.0
 40
1.0
100
AcDbArc
 50
180.0
 51
270.0
  0
LINE
  5
17A27
330
18
100
AcDbEntity
  8
01
  6
CONTINUOUS
100
AcDbLine
 10
-353.1102836417194
 20
-1591.245114457473
 30
0.0
 11
-351.1102835417194
 21
-1589.245114457473
 31
0.0
  0
LINE
  5
17A29
330
18
100
AcDbEntity
  8
1CENTER
100
AcDbLine
 10
-352.1102839417194
 20
-1582.773636631056
 30
0.0
 11
-352.1102839417192
 21
-1631.132463414746
 31
0.0
  0
LINE
  5
17A2A
330
18
100
AcDbEntity
  8
1PHANTOM
100
AcDbLine
 10
-348.109954746636
 20
-1628.615111014038
 30
0.0
 11
-348.1102335941453
 21
-1589.245105150176
 31
0.0
  0
LINE
  5
17A2B
330
18
100
AcDbEntity
  8
1PHANTOM
100
AcDbLine
 10
-348.7399488831809
 20
-1629.245106616452
 30
0.0
 11
-348.109954746636
 21
-1628.615111014038
 31
0.0
  0
LINE
  5
17A2C
330
18
100
AcDbEntity
  8
1PHANTOM
100
AcDbLine
 10
-348.1102335941453
 20
-1589.245105150176
 30
0.0
 11
-345.1102839417197
 21
-1589.245098169909
 31
0.0
  0
LINE
  5
17A2D
330
18
100
AcDbEntity
  8
1PHANTOM
100
AcDbLine
 10
-355.4799488833276
 20
-1629.24512229905
 30
0.0
 11
-348.7399488831809
 21
-1629.245106616452
 31
0.0
  0
LINE
  5
17A2E
330
18
100
AcDbEntity
  8
1PHANTOM
100
AcDbLine
 10
-345.1102839417197
 20
-1588.045107477086
 30
0.0
 11
-345.1102839417197
 21
-1589.245098169909
 31
0.0
  0
LINE
  5
17A2F
330
18
100
AcDbEntity
  8
1PHANTOM
100
AcDbLine
 10
-355.4799488833276
 20
-1629.24512229905
 30
0.0
 11
-356.1099547468366
 21
-1628.615126696718
 31
0.0
  0
ARC
  5
17A30
330
18
100
AcDbEntity
  8
1PHANTOM
100
AcDbCircle
 10
-349.1102839417197
 20
-1588.045107477086
 30
0.0
 40
4.0
100
AcDbArc
 50
0.0
 51
90.00013331552503
  0
LINE
  5
17A31
330
18
100
AcDbEntity
  8
1PHANTOM
100
AcDbLine
 10
-356.1099547468366
 20
-1628.615126696718
 30
0.0
 11
-356.1102335943472
 21
-1589.245123764536
 31
0.0
  0
LINE
  5
17A32
330
18
100
AcDbEntity
  8
1PHANTOM
100
AcDbLine
 10
-355.1102932488991
 20
-1584.045121437866
 30
0.0
 11
-349.1102932488991
 21
-1584.045107477096
 31
0.0
  0
LINE
  5
17A33
330
18
100
AcDbEntity
  8
1PHANTOM
100
AcDbLine
 10
-359.1102839417194
 20
-1589.245130745038
 30
0.0
 11
-356.1102335943472
 21
-1589.245123764536
 31
0.0
  0
ARC
  5
17A34
330
18
100
AcDbEntity
  8
1PHANTOM
100
AcDbCircle
 10
-355.1102839417194
 20
-1588.045121437855
 30
0.0
 40
4.0
100
AcDbArc
 50
90.00013331552503
 51
180.0
  0
LINE
  5
17A35
330
18
100
AcDbEntity
  8
1PHANTOM
100
AcDbLine
 10
-359.1102839417194
 20
-1588.045121437855
 30
0.0
 11
-359.1102839417194
 21
-1589.245130745038
 31
0.0
  0
LINE
  5
17A36
330
18
100
AcDbEntity
  8
1PHANTOM
100
AcDbLine
 10
-355.4799488833276
 20
-1629.24512229905
 30
0.0
 11
-355.4802337122178
 21
-1589.245122298655
 31
0.0
  0
LINE
  5
17A37
330
18
100
AcDbEntity
  8
1PHANTOM
100
AcDbLine
 10
-348.7399488831809
 20
-1629.245106616452
 30
0.0
 11
-348.7402337120423
 21
-1589.245106616058
 31
0.0
  0
LINE
  5
17A38
330
18
100
AcDbEntity
  8
1PHANTOM
100
AcDbLine
 10
-348.109954746636
 20
-1628.615111014038
 30
0.0
 11
-356.1099547468366
 21
-1628.615126696718
 31
0.0
  0
LINE
  5
17A39
330
18
100
AcDbEntity
  8
1PHANTOM
100
AcDbLine
 10
-348.1102335941453
 20
-1589.245105150176
 30
0.0
 11
-356.1102335943472
 21
-1589.245123764536
 31
0.0
  0
LINE
  5
17A4C
330
18
100
AcDbEntity
  8
01
100
AcDbLine
 10
-338.5774372328399
 20
-1607.045110009525
 30
0.0
 11
-365.577453559092
 21
-1607.045113550155
 31
0.0
  0
LINE
  5
17A4D
330
18
100
AcDbEntity
  8
01
100
AcDbLine
 10
-365.5011104098965
 20
-1595.045114573693
 30
0.0
 11
-365.5011104098965
 21
-1594.745114457473
 31
0.0
  0
LINE
  5
17A4E
330
18
100
AcDbEntity
  8
01
100
AcDbLine
 10
-338.5010940836444
 20
-1595.045111033063
 30
0.0
 11
-338.5010940836444
 21
-1594.745114457473
 31
0.0
  0
LINE
  5
17A4F
330
18
100
AcDbEntity
  8
01
100
AcDbLine
 10
-338.5774372328399
 20
-1607.045110009525
 30
0.0
 11
-338.5774372328399
 21
-1607.345113007348
 31
0.0
  0
LINE
  5
17A50
330
18
100
AcDbEntity
  8
01
100
AcDbLine
 10
-365.577453559092
 20
-1607.045113550155
 30
0.0
 11
-365.577453559092
 21
-1607.345113007348
 31
0.0
  0
LINE
  5
17A51
330
18
100
AcDbEntity
  8
1DIM
100
AcDbLine
 10
-367.0771067275793
 20
-1637.807598030863
 30
0.0
 11
-337.0771067275793
 21
-1637.807598030863
 31
0.0
  0
LINE
  5
17A52
330
18
100
AcDbEntity
  8
1DIM
100
AcDbLine
 10
-366.8276303461
 20
-1636.979231759507
 30
0.0
 11
-337.3265831090587
 21
-1636.979231759507
 31
0.0
  0
LINE
  5
17A53
330
18
100
AcDbEntity
  8
1DIM
100
AcDbLine
 10
-367.1102839417213
 20
-1564.28262943398
 30
0.0
 11
-337.1102839417213
 21
-1564.28262943398
 31
0.0
  0
LINE
  5
17A54
330
18
100
AcDbEntity
  8
1DIM
100
AcDbLine
 10
-366.8608075602278
 20
-1565.110995705336
 30
0.0
 11
-337.3597603232142
 21
-1565.110995705336
 31
0.0
  0
LINE
  5
17A55
330
18
100
AcDbEntity
  8
1DIM
100
AcDbLine
 10
-367.0465613222748
 20
-1583.77504048373
 30
0.0
 11
-337.1740065611673
 21
-1583.77504048373
 31
0.0
  0
LINE
  5
17A56
330
18
100
AcDbEntity
  8
1DIM
100
AcDbLine
 10
-367.0133841081331
 20
-1618.315186981091
 30
0.0
 11
-337.1408293470256
 21
-1618.315186981091
 31
0.0
  0
LINE
  5
17A5D
330
18
100
AcDbEntity
  8
1PHANTOM
100
AcDbLine
 10
-399.5107343299408
 20
-1607.045111784146
 30
0.0
 11
-304.709833529353
 21
-1607.045111784146
 31
0.0
  0
LINE
  5
17A5E
330
18
100
AcDbEntity
  8
1PHANTOM
100
AcDbLine
 10
-399.5107343299408
 20
-1595.045111784146
 30
0.0
 11
-304.709833529353
 21
-1595.045111784146
 31
0.0
  0
LINE
  5
17DFE
330
18
100
AcDbEntity
  8
1DIM
100
AcDbLine
 10
-367.1102839417193
 20
-1706.511526015714
 30
0.0
 11
-367.1102839417193
 21
-1669.637653593871
 31
0.0
1001
ACAD
1000
DSTYLE
1002
{
1070
     3
1000
\U+03C6<>
1002
}
  0
LINE
  5
17DFF
330
18
100
AcDbEntity
  8
1DIM
100
AcDbLine
 10
-337.1102839417193
 20
-1706.511526015714
 30
0.0
 11
-337.1102839417193
 21
-1669.637653593871
 31
0.0
1001
ACAD
1000
DSTYLE
1002
{
1070
     3
1000
\U+03C6<>
1002
}
  0
LINE
  5
17E00
330
18
100
AcDbEntity
  8
1DIM
100
AcDbLine
 10
-365.1102839417193
 20
-1670.637653593871
 30
0.0
 11
-339.1102839417193
 21
-1670.637653593871
 31
0.0
1001
ACAD
1000
DSTYLE
1002
{
1070
     3
1000
\U+03C6<>
1002
}
  0
LINE
  5
17E04
330
18
100
AcDbEntity
  8
1DIM
100
AcDbLine
 10
-293.0187728293427
 20
-1692.511515747829
 30
0.0
 11
-293.0187728293427
 21
-1669.99133777295
 31
0.0
1001
ACAD
1000
DSTYLE
1002
{
1070
    75
1070
     1
1070
    76
1070
     0
1070
   271
1070
     0
1070
   281
1070
     0
1070
   282
1070
     0
1002
}
  0
LINE
  5
17E05
330
18
100
AcDbEntity
  8
1DIM
100
AcDbLine
 10
-259.7187740860479
 20
-1670.99133777295
 30
0.0
 11
-291.0187728293427
 21
-1670.99133777295
 31
0.0
1001
ACAD
1000
DSTYLE
1002
{
1070
    75
1070
     1
1070
    76
1070
     0
1070
   271
1070
     0
1070
   281
1070
     0
1070
   282
1070
     0
1002
}
  0
LINE
  5
17E09
330
18
100
AcDbEntity
  8
1DIM
100
AcDbLine
 10
-278.5187723665899
 20
-1694.511499648694
 30
0.0
 11
-305.8556345964967
 21
-1694.511499648694
 31
0.0
1001
ACAD
1000
DSTYLE
1002
{
1070
     3
1000
\U+03C6<>
1002
}
  0
LINE
  5
17E0A
330
18
100
AcDbEntity
  8
1DIM
100
AcDbLine
 10
-278.5187723665899
 20
-1718.511518130026
 30
0.0
 11
-305.8556345964967
 21
-1718.511518130026
 31
0.0
1001
ACAD
1000
DSTYLE
1002
{
1070
     3
1000
\U+03C6<>
1002
}
  0
LINE
  5
17E0B
330
18
100
AcDbEntity
  8
1DIM
100
AcDbLine
 10
-304.8556345964967
 20
-1696.511499648694
 30
0.0
 11
-304.8556345964967
 21
-1716.511518130026
 31
0.0
1001
ACAD
1000
DSTYLE
1002
{
1070
     3
1000
\U+03C6<>
1002
}
  0
LINE
  5
17E0F
330
18
100
AcDbEntity
  8
1DIM
100
AcDbLine
 10
-257.7187740860479
 20
-1693.011514580651
 30
0.0
 11
-257.7187740860479
 21
-1677.138266710389
 31
0.0
1001
ACAD
1000
DSTYLE
1002
{
1070
   271
1070
     0
1002
}
  0
LINE
  5
17E10
330
18
100
AcDbEntity
  8
1DIM
100
AcDbLine
 10
-269.0187984349047
 20
-1691.511517452566
 30
0.0
 11
-269.0187984349047
 21
-1677.138266710389
 31
0.0
1001
ACAD
1000
DSTYLE
1002
{
1070
   271
1070
     0
1002
}
  0
LINE
  5
17E11
330
18
100
AcDbEntity
  8
1DIM
100
AcDbLine
 10
-259.7187740860479
 20
-1678.138266710389
 30
0.0
 11
-267.0187984349047
 21
-1678.138266710389
 31
0.0
1001
ACAD
1000
DSTYLE
1002
{
1070
   271
1070
     0
1002
}
  0
LINE
  5
17E15
330
18
100
AcDbEntity
  8
1DIM
100
AcDbLine
 10
-269.0187984349075
 20
-1691.511517452568
 30
0.0
 11
-269.0187984349075
 21
-1677.138266710389
 31
0.0
  0
LINE
  5
17E16
330
18
100
AcDbEntity
  8
1DIM
100
AcDbLine
 10
-288.0187462982723
 20
-1691.511517452568
 30
0.0
 11
-288.0187462982723
 21
-1677.138266710389
 31
0.0
  0
LINE
  5
17E17
330
18
100
AcDbEntity
  8
1DIM
100
AcDbLine
 10
-271.0187984349075
 20
-1678.138266710389
 30
0.0
 11
-286.0187462982723
 21
-1678.138266710389
 31
0.0
  0
LINE
  5
17E1B
330
18
100
AcDbEntity
  8
1DIM
100
AcDbLine
 10
-238.1187767593748
 20
-1722.459620527785
 30
0.0
 11
-238.1187767593748
 21
-1733.297291570221
 31
0.0
  0
LINE
  5
17E1C
330
18
100
AcDbEntity
  8
1DIM
100
AcDbLine
 10
-245.7187740860479
 20
-1724.523544496202
 30
0.0
 11
-245.7187740860479
 21
-1733.297291570221
 31
0.0
  0
LINE
  5
17E1D
330
18
100
AcDbEntity
  8
1DIM
100
AcDbLine
 10
-243.7187740860479
 20
-1732.297291570221
 30
0.0
 11
-240.1187767593748
 21
-1732.297291570221
 31
0.0
  0
LINE
  5
17E1E
330
18
100
AcDbEntity
  8
1DIM
100
AcDbLine
 10
-238.1187767593748
 20
-1732.297291570221
 30
0.0
 11
-225.5492043247547
 21
-1732.297291570221
 31
0.0
  0
SOLID
  5
17E22
330
18
100
AcDbEntity
  8
1DIM
100
AcDbTrace
 10
-342.2860932049433
 20
-1634.122346822724
 30
0.0
 11
-343.2706216491263
 21
-1632.349830291432
 31
0.0
 12
-341.7644407323177
 22
-1633.707228595892
 32
0.0
 13
-341.7644407323177
 23
-1633.707228595892
 33
0.0
1001
ACAD
1000
DSTYLE
1002
{
1070
    45
1040
0.5
1002
}
  0
LINE
  5
17E23
330
18
100
AcDbEntity
  8
1DIM
100
AcDbLine
 10
-342.0252669686305
 20
-1633.914787709308
 30
0.0
 11
-324.0197607413247
 21
-1656.54115349438
 31
0.0
1001
ACAD
1000
DSTYLE
1002
{
1070
    45
1040
0.5
1002
}
  0
LINE
  5
17E24
330
18
100
AcDbEntity
  8
1DIM
100
AcDbLine
 10
-324.0197607413247
 20
-1656.54115349438
 30
0.0
 11
-260.5197607413247
 21
-1656.54115349438
 31
0.0
1001
ACAD
1000
DSTYLE
1002
{
1070
    45
1040
0.5
1002
}
  0
TEXT
  5
17E25
330
18
100
AcDbEntity
  8
1DIM
  6
CONTINUOUS
100
AcDbText
 10
-321.3197607413247
 20
-1650.007820161047
 30
0.0
 40
3.5
  1
Material：Stainless Steel
100
AcDbText
  0
TEXT
  5
17E26
330
18
100
AcDbEntity
  8
1DIM
  6
CONTINUOUS
100
AcDbText
 10
-321.3197607413247
 20
-1655.84115349438
 30
0.0
 40
3.5
  1
Finish：Various Finish
100
AcDbText
  0
LINE
  5
17E27
330
18
100
AcDbEntity
  8
1PHANTOM
100
AcDbLine
 10
-241.918776759375
 20
-1698.811457368079
 30
0.0
 11
-241.918776759375
 21
-1714.211456968079
 31
0.0
  0
LINE
  5
17E28
330
18
100
AcDbEntity
  8
1PHANTOM
100
AcDbLine
 10
-241.918776759375
 20
-1714.211456968079
 30
0.0
 11
-239.918776759375
 21
-1714.211456968079
 31
0.0
  0
LINE
  5
17E29
330
18
100
AcDbEntity
  8
1PHANTOM
100
AcDbLine
 10
-239.918776759375
 20
-1714.211456968079
 30
0.0
 11
-239.918776759375
 21
-1698.811457368079
 31
0.0
  0
LINE
  5
17E2A
330
18
100
AcDbEntity
  8
1PHANTOM
100
AcDbLine
 10
-239.918776759375
 20
-1698.811457368079
 30
0.0
 11
-241.918776759375
 21
-1698.811457368079
 31
0.0
  0
LINE
  5
17E2B
330
18
100
AcDbEntity
  8
1DIM
100
AcDbLine
 10
-210.418776759375
 20
-1693.120630699902
 30
0.0
 11
-210.418776759375
 21
-1669.99133777295
 31
0.0
1001
ACAD
1000
DSTYLE
1002
{
1070
    75
1070
     1
1070
   271
1070
     0
1002
}
  0
LINE
  5
17E2C
330
18
100
AcDbEntity
  8
1DIM
100
AcDbLine
 10
-243.7187768755945
 20
-1670.99133777295
 30
0.0
 11
-212.418776759375
 21
-1670.99133777295
 31
0.0
1001
ACAD
1000
DSTYLE
1002
{
1070
    75
1070
     1
1070
   271
1070
     0
1002
}
  0
LINE
  5
17E30
330
18
100
AcDbEntity
  8
1PHANTOM
100
AcDbLine
 10
-359.8102837417196
 20
-1591.245114457473
 30
0.0
 11
-344.4102841417196
 21
-1591.245114457473
 31
0.0
  0
LINE
  5
17E31
330
18
100
AcDbEntity
  8
1PHANTOM
100
AcDbLine
 10
-344.4102841417196
 20
-1591.245114457473
 30
0.0
 11
-344.4102841417196
 21
-1589.245114457473
 31
0.0
  0
LINE
  5
17E32
330
18
100
AcDbEntity
  8
1PHANTOM
100
AcDbLine
 10
-344.4102841417196
 20
-1589.245114457473
 30
0.0
 11
-359.8102837417196
 21
-1589.245114457473
 31
0.0
  0
LINE
  5
17E33
330
18
100
AcDbEntity
  8
1PHANTOM
100
AcDbLine
 10
-359.8102837417196
 20
-1589.245114457473
 30
0.0
 11
-359.8102837417196
 21
-1591.245114457473
 31
0.0
  0
SOLID
  5
17E34
330
18
100
AcDbEntity
  8
1DIM
100
AcDbTrace
 10
-341.5124328976834
 20
-1570.90877474114
 30
0.0
 11
-343.2706216491263
 21
-1571.918667520305
 31
0.0
 12
-341.935002920734
 22
-1570.393140161167
 32
0.0
 13
-341.935002920734
 23
-1570.393140161167
 33
0.0
1001
ACAD
1000
DSTYLE
1002
{
1070
    45
1040
0.5
1002
}
  0
LINE
  5
17E35
330
18
100
AcDbEntity
  8
1DIM
100
AcDbLine
 10
-341.7237179092087
 20
-1570.650957451154
 30
0.0
 11
-329.9540717671798
 21
-1561.005561593878
 31
0.0
1001
ACAD
1000
DSTYLE
1002
{
1070
    45
1040
0.5
1002
}
  0
LINE
  5
17E36
330
18
100
AcDbEntity
  8
1DIM
100
AcDbLine
 10
-329.9540717671798
 20
-1561.005561593878
 30
0.0
 11
-266.4540717671798
 21
-1561.005561593878
 31
0.0
1001
ACAD
1000
DSTYLE
1002
{
1070
    45
1040
0.5
1002
}
  0
TEXT
  5
17E37
330
18
100
AcDbEntity
  8
1DIM
  6
CONTINUOUS
100
AcDbText
 10
-327.2540717671798
 20
-1554.472228260545
 30
0.0
 40
3.5
  1
Material：Stainless Steel
100
AcDbText
  0
TEXT
  5
17E38
330
18
100
AcDbEntity
  8
1DIM
  6
CONTINUOUS
100
AcDbText
 10
-327.2540717671798
 20
-1560.305561593878
 30
0.0
 40
3.5
  1
Finish：Various Finish
100
AcDbText
  0
SOLID
  5
17E39
330
18
100
AcDbEntity
  8
1DIM
100
AcDbTrace
 10
-323.1391674277569
 20
-1601.728556637813
 30
0.0
 11
-324.3408357609972
 21
-1600.095429475587
 31
0.0
 12
-322.6744596093724
 22
-1601.250549223669
 32
0.0
 13
-322.6744596093724
 23
-1601.250549223669
 33
0.0
1001
ACAD
1000
DSTYLE
1002
{
1070
    45
1040
0.5
1002
}
  0
LINE
  5
17E3A
330
18
100
AcDbEntity
  8
1DIM
100
AcDbLine
 10
-322.9068135185647
 20
-1601.489552930741
 30
0.0
 11
-305.0899748531955
 21
-1618.810673862549
 31
0.0
1001
ACAD
1000
DSTYLE
1002
{
1070
    45
1040
0.5
1002
}
  0
LINE
  5
17E3B
330
18
100
AcDbEntity
  8
1DIM
100
AcDbLine
 10
-305.0899748531955
 20
-1618.810673862549
 30
0.0
 11
-243.0233081865289
 21
-1618.810673862549
 31
0.0
1001
ACAD
1000
DSTYLE
1002
{
1070
    45
1040
0.5
1002
}
  0
TEXT
  5
17E3C
330
18
100
AcDbEntity
  8
1DIM
  6
CONTINUOUS
100
AcDbText
 10
-302.3899748531956
 20
-1618.110673862549
 30
0.0
 40
3.5
  1
Glass Door t=8~12mm
100
AcDbText
  0
LINE
  5
17E3D
330
18
100
AcDbEntity
  8
1DIM
100
AcDbLine
 10
-360.0763091099282
 20
-1601.045111531149
 30
0.0
 11
-337.7778360141891
 21
-1578.74663843541
 31
0.0
1001
ACAD
1000
DSTYLE
1002
{
1070
     3
1000
\U+03C6<>
1002
}
  0
LINE
  5
17E3E
330
18
100
AcDbEntity
  8
1DIM
100
AcDbLine
 10
-344.0763090902581
 20
-1601.045111531149
 30
0.0
 11
-321.7778359945189
 21
-1578.74663843541
 31
0.0
1001
ACAD
1000
DSTYLE
1002
{
1070
     3
1000
\U+03C6<>
1002
}
  0
LINE
  5
17E3F
330
18
100
AcDbEntity
  8
1DIM
100
AcDbLine
 10
-322.7778359945189
 20
-1579.74663843541
 30
0.0
 11
-282.4123267352596
 21
-1579.74663843541
 31
0.0
1001
ACAD
1000
DSTYLE
1002
{
1070
     3
1000
\U+03C6<>
1002
}
  0
LINE
  5
17E40
330
18
100
AcDbEntity
  8
1DIM
100
AcDbLine
 10
-336.7778360141891
 20
-1579.74663843541
 30
0.0
 11
-324.7778359945189
 21
-1579.74663843541
 31
0.0
1001
ACAD
1000
DSTYLE
1002
{
1070
     3
1000
\U+03C6<>
1002
}
  0
SOLID
  5
17E44
330
18
100
AcDbEntity
  8
1DIM
100
AcDbTrace
 10
-345.6452459246138
 20
-1603.268650297661
 30
0.0
 11
-346.5646110645766
 21
-1601.461476025341
 31
0.0
 12
-345.1088307627786
 22
-1602.872792724034
 32
0.0
 13
-345.1088307627786
 23
-1602.872792724034
 33
0.0
1001
ACAD
1000
DSTYLE
1002
{
1070
    45
1040
0.5
1002
}
  0
LINE
  5
17E45
330
18
100
AcDbEntity
  8
1DIM
100
AcDbLine
 10
-345.3770383436962
 20
-1603.070721510847
 30
0.0
 11
-319.5427382692514
 21
-1638.07803519786
 31
0.0
1001
ACAD
1000
DSTYLE
1002
{
1070
    45
1040
0.5
1002
}
  0
LINE
  5
17E46
330
18
100
AcDbEntity
  8
1DIM
100
AcDbLine
 10
-319.5427382692514
 20
-1638.07803519786
 30
0.0
 11
-282.1427382692514
 21
-1638.07803519786
 31
0.0
1001
ACAD
1000
DSTYLE
1002
{
1070
    45
1040
0.5
1002
}
  0
TEXT
  5
17E47
330
18
100
AcDbEntity
  8
1DIM
  6
CONTINUOUS
100
AcDbText
 10
-316.8427382692514
 20
-1631.544701864527
 30
0.0
 40
3.5
  1
Material：Gum
100
AcDbText
  0
TEXT
  5
17E48
330
18
100
AcDbEntity
  8
1DIM
  6
CONTINUOUS
100
AcDbText
 10
-316.8427382692514
 20
-1637.37803519786
 30
0.0
 40
3.5
  1
Finish：Black
100
AcDbText
  0
LINE
  5
17E49
330
18
100
AcDbEntity
  8
0
  6
BYBLOCK
100
AcDbLine
 10
-365.1102839417193
 20
-1671.173551973871
 30
0.0
 11
-367.1102839417193
 21
-1670.637653593871
 31
0.0
  0
LINE
  5
17E4A
330
18
100
AcDbEntity
  8
0
  6
BYBLOCK
100
AcDbLine
 10
-367.1102839417193
 20
-1670.637653593871
 30
0.0
 11
-365.1102839417193
 21
-1670.101755213871
 31
0.0
  0
LINE
  5
17E4B
330
18
100
AcDbEntity
  8
0
  6
BYBLOCK
100
AcDbLine
 10
-367.1102839417193
 20
-1670.637653593871
 30
0.0
 11
-365.1102839417193
 21
-1670.637653593871
 31
0.0
  0
LINE
  5
17E4C
330
18
100
AcDbEntity
  8
0
  6
BYBLOCK
100
AcDbLine
 10
-339.1102839417193
 20
-1670.101755213871
 30
0.0
 11
-337.1102839417193
 21
-1670.637653593871
 31
0.0
  0
LINE
  5
17E4D
330
18
100
AcDbEntity
  8
0
  6
BYBLOCK
100
AcDbLine
 10
-337.1102839417193
 20
-1670.637653593871
 30
0.0
 11
-339.1102839417193
 21
-1671.173551973871
 31
0.0
  0
LINE
  5
17E4E
330
18
100
AcDbEntity
  8
0
  6
BYBLOCK
100
AcDbLine
 10
-337.1102839417193
 20
-1670.637653593871
 30
0.0
 11
-339.1102839417193
 21
-1670.637653593871
 31
0.0
  0
TEXT
  5
17E4F
330
18
100
AcDbEntity
  8
1DIM
  6
CONTINUOUS
100
AcDbText
 10
-357.3748672750527
 20
-1669.937653593871
 30
0.0
 40
3.5
  1
φ30
100
AcDbText
1001
ACAD
1000
DSTYLE
1002
{
1070
     3
1000
\U+03C6<>
1002
}
  0
LINE
  5
17E50
330
18
100
AcDbEntity
  8
0
  6
BYBLOCK
100
AcDbLine
 10
-259.7187740860479
 20
-1670.45543939295
 30
0.0
 11
-257.7187740860479
 21
-1670.99133777295
 31
0.0
  0
LINE
  5
17E51
330
18
100
AcDbEntity
  8
0
  6
BYBLOCK
100
AcDbLine
 10
-257.7187740860479
 20
-1670.99133777295
 30
0.0
 11
-259.7187740860479
 21
-1671.52723615295
 31
0.0
  0
LINE
  5
17E52
330
18
100
AcDbEntity
  8
0
  6
BYBLOCK
100
AcDbLine
 10
-257.7187740860479
 20
-1670.99133777295
 30
0.0
 11
-259.7187740860479
 21
-1670.99133777295
 31
0.0
  0
LINE
  5
17E53
330
18
100
AcDbEntity
  8
0
  6
BYBLOCK
100
AcDbLine
 10
-291.0187728293427
 20
-1671.52723615295
 30
0.0
 11
-293.0187728293427
 21
-1670.99133777295
 31
0.0
  0
LINE
  5
17E54
330
18
100
AcDbEntity
  8
0
  6
BYBLOCK
100
AcDbLine
 10
-293.0187728293427
 20
-1670.99133777295
 30
0.0
 11
-291.0187728293427
 21
-1670.45543939295
 31
0.0
  0
LINE
  5
17E55
330
18
100
AcDbEntity
  8
0
  6
BYBLOCK
100
AcDbLine
 10
-293.0187728293427
 20
-1670.99133777295
 30
0.0
 11
-291.0187728293427
 21
-1670.99133777295
 31
0.0
  0
TEXT
  5
17E56
330
18
100
AcDbEntity
  8
1DIM
  6
CONTINUOUS
100
AcDbText
 10
-278.285440124362
 20
-1670.29133777295
 30
0.0
 40
3.5
  1
35
100
AcDbText
1001
ACAD
1000
DSTYLE
1002
{
1070
    75
1070
     1
1070
    76
1070
     0
1070
   271
1070
     0
1070
   281
1070
     0
1070
   282
1070
     0
1002
}
  0
LINE
  5
17E57
330
18
100
AcDbEntity
  8
0
  6
BYBLOCK
100
AcDbLine
 10
-305.3915329764966
 20
-1696.511499648694
 30
0.0
 11
-304.8556345964967
 21
-1694.511499648694
 31
0.0
  0
LINE
  5
17E58
330
18
100
AcDbEntity
  8
0
  6
BYBLOCK
100
AcDbLine
 10
-304.8556345964967
 20
-1694.511499648694
 30
0.0
 11
-304.3197362164967
 21
-1696.511499648694
 31
0.0
  0
LINE
  5
17E59
330
18
100
AcDbEntity
  8
0
  6
BYBLOCK
100
AcDbLine
 10
-304.8556345964967
 20
-1694.511499648694
 30
0.0
 11
-304.8556345964967
 21
-1696.511499648694
 31
0.0
  0
LINE
  5
17E5A
330
18
100
AcDbEntity
  8
0
  6
BYBLOCK
100
AcDbLine
 10
-304.3197362164967
 20
-1716.511518130026
 30
0.0
 11
-304.8556345964967
 21
-1718.511518130026
 31
0.0
  0
LINE
  5
17E5B
330
18
100
AcDbEntity
  8
0
  6
BYBLOCK
100
AcDbLine
 10
-304.8556345964967
 20
-1718.511518130026
 30
0.0
 11
-305.3915329764966
 21
-1716.511518130026
 31
0.0
  0
LINE
  5
17E5C
330
18
100
AcDbEntity
  8
0
  6
BYBLOCK
100
AcDbLine
 10
-304.8556345964967
 20
-1718.511518130026
 30
0.0
 11
-304.8556345964967
 21
-1716.511518130026
 31
0.0
  0
TEXT
  5
17E5D
330
18
100
AcDbEntity
  8
1DIM
  6
CONTINUOUS
100
AcDbText
 10
-305.5556345964965
 20
-1711.994842222694
 30
0.0
 40
3.5
  1
φ24
 50
90.0
100
AcDbText
1001
ACAD
1000
DSTYLE
1002
{
1070
     3
1000
\U+03C6<>
1002
}
  0
LINE
  5
17E5E
330
18
100
AcDbEntity
  8
0
  6
BYBLOCK
100
AcDbLine
 10
-259.7187740860479
 20
-1677.602368330389
 30
0.0
 11
-257.7187740860479
 21
-1678.138266710389
 31
0.0
  0
LINE
  5
17E5F
330
18
100
AcDbEntity
  8
0
  6
BYBLOCK
100
AcDbLine
 10
-257.7187740860479
 20
-1678.138266710389
 30
0.0
 11
-259.7187740860479
 21
-1678.674165090389
 31
0.0
  0
LINE
  5
17E60
330
18
100
AcDbEntity
  8
0
  6
BYBLOCK
100
AcDbLine
 10
-257.7187740860479
 20
-1678.138266710389
 30
0.0
 11
-259.7187740860479
 21
-1678.138266710389
 31
0.0
  0
LINE
  5
17E61
330
18
100
AcDbEntity
  8
0
  6
BYBLOCK
100
AcDbLine
 10
-267.0187984349047
 20
-1678.674165090389
 30
0.0
 11
-269.0187984349047
 21
-1678.138266710389
 31
0.0
  0
LINE
  5
17E62
330
18
100
AcDbEntity
  8
0
  6
BYBLOCK
100
AcDbLine
 10
-269.0187984349047
 20
-1678.138266710389
 30
0.0
 11
-267.0187984349047
 21
-1677.602368330389
 31
0.0
  0
LINE
  5
17E63
330
18
100
AcDbEntity
  8
0
  6
BYBLOCK
100
AcDbLine
 10
-269.0187984349047
 20
-1678.138266710389
 30
0.0
 11
-267.0187984349047
 21
-1678.138266710389
 31
0.0
  0
TEXT
  5
17E64
330
18
100
AcDbEntity
  8
1DIM
  6
CONTINUOUS
100
AcDbText
 10
-265.1187862604763
 20
-1677.438266710389
 30
0.0
 40
3.5
  1
11
100
AcDbText
1001
ACAD
1000
DSTYLE
1002
{
1070
   271
1070
     0
1002
}
  0
LINE
  5
17E65
330
18
100
AcDbEntity
  8
0
  6
BYBLOCK
100
AcDbLine
 10
-271.0187984349075
 20
-1677.602368330389
 30
0.0
 11
-269.0187984349075
 21
-1678.138266710389
 31
0.0
  0
LINE
  5
17E66
330
18
100
AcDbEntity
  8
0
  6
BYBLOCK
100
AcDbLine
 10
-269.0187984349075
 20
-1678.138266710389
 30
0.0
 11
-271.0187984349075
 21
-1678.674165090389
 31
0.0
  0
LINE
  5
17E67
330
18
100
AcDbEntity
  8
0
  6
BYBLOCK
100
AcDbLine
 10
-269.0187984349075
 20
-1678.138266710389
 30
0.0
 11
-271.0187984349075
 21
-1678.138266710389
 31
0.0
  0
LINE
  5
17E68
330
18
100
AcDbEntity
  8
0
  6
BYBLOCK
100
AcDbLine
 10
-286.0187462982723
 20
-1678.674165090389
 30
0.0
 11
-288.0187462982723
 21
-1678.138266710389
 31
0.0
  0
LINE
  5
17E69
330
18
100
AcDbEntity
  8
0
  6
BYBLOCK
100
AcDbLine
 10
-288.0187462982723
 20
-1678.138266710389
 30
0.0
 11
-286.0187462982723
 21
-1677.602368330389
 31
0.0
  0
LINE
  5
17E6A
330
18
100
AcDbEntity
  8
0
  6
BYBLOCK
100
AcDbLine
 10
-288.0187462982723
 20
-1678.138266710389
 30
0.0
 11
-286.0187462982723
 21
-1678.138266710389
 31
0.0
  0
TEXT
  5
17E6B
330
18
100
AcDbEntity
  8
1DIM
  6
CONTINUOUS
100
AcDbText
 10
-280.8529158851085
 20
-1677.438266710389
 30
0.0
 40
3.5
  1
19
100
AcDbText
  0
LINE
  5
17E6C
330
18
100
AcDbEntity
  8
0
  6
BYBLOCK
100
AcDbLine
 10
-243.7187740860479
 20
-1732.833189950221
 30
0.0
 11
-245.7187740860479
 21
-1732.297291570221
 31
0.0
  0
LINE
  5
17E6D
330
18
100
AcDbEntity
  8
0
  6
BYBLOCK
100
AcDbLine
 10
-245.7187740860479
 20
-1732.297291570221
 30
0.0
 11
-243.7187740860479
 21
-1731.761393190221
 31
0.0
  0
LINE
  5
17E6E
330
18
100
AcDbEntity
  8
0
  6
BYBLOCK
100
AcDbLine
 10
-245.7187740860479
 20
-1732.297291570221
 30
0.0
 11
-243.7187740860479
 21
-1732.297291570221
 31
0.0
  0
LINE
  5
17E6F
330
18
100
AcDbEntity
  8
0
  6
BYBLOCK
100
AcDbLine
 10
-240.1187767593748
 20
-1731.761393190221
 30
0.0
 11
-238.1187767593748
 21
-1732.297291570221
 31
0.0
  0
LINE
  5
17E70
330
18
100
AcDbEntity
  8
0
  6
BYBLOCK
100
AcDbLine
 10
-238.1187767593748
 20
-1732.297291570221
 30
0.0
 11
-240.1187767593748
 21
-1732.833189950221
 31
0.0
  0
LINE
  5
17E71
330
18
100
AcDbEntity
  8
0
  6
BYBLOCK
100
AcDbLine
 10
-238.1187767593748
 20
-1732.297291570221
 30
0.0
 11
-240.1187767593748
 21
-1732.297291570221
 31
0.0
  0
TEXT
  5
17E72
330
18
100
AcDbEntity
  8
1DIM
  6
CONTINUOUS
100
AcDbText
 10
-233.4158709914213
 20
-1731.597291570221
 30
0.0
 40
3.5
  1
7.5
100
AcDbText
  0
LINE
  5
17E73
330
18
100
AcDbEntity
  8
0
  6
BYBLOCK
100
AcDbLine
 10
-243.7187768755945
 20
-1671.52723615295
 30
0.0
 11
-245.7187768755945
 21
-1670.99133777295
 31
0.0
  0
LINE
  5
17E74
330
18
100
AcDbEntity
  8
0
  6
BYBLOCK
100
AcDbLine
 10
-245.7187768755945
 20
-1670.99133777295
 30
0.0
 11
-243.7187768755945
 21
-1670.45543939295
 31
0.0
  0
LINE
  5
17E75
330
18
100
AcDbEntity
  8
0
  6
BYBLOCK
100
AcDbLine
 10
-245.7187768755945
 20
-1670.99133777295
 30
0.0
 11
-243.7187768755945
 21
-1670.99133777295
 31
0.0
  0
LINE
  5
17E76
330
18
100
AcDbEntity
  8
0
  6
BYBLOCK
100
AcDbLine
 10
-212.418776759375
 20
-1670.45543939295
 30
0.0
 11
-210.418776759375
 21
-1670.99133777295
 31
0.0
  0
LINE
  5
17E77
330
18
100
AcDbEntity
  8
0
  6
BYBLOCK
100
AcDbLine
 10
-210.418776759375
 20
-1670.99133777295
 30
0.0
 11
-212.418776759375
 21
-1671.52723615295
 31
0.0
  0
LINE
  5
17E78
330
18
100
AcDbEntity
  8
0
  6
BYBLOCK
100
AcDbLine
 10
-210.418776759375
 20
-1670.99133777295
 30
0.0
 11
-212.418776759375
 21
-1670.99133777295
 31
0.0
  0
TEXT
  5
17E79
330
18
100
AcDbEntity
  8
1DIM
  6
CONTINUOUS
100
AcDbText
 10
-230.9854434841514
 20
-1670.288907217394
 30
0.0
 40
3.5
  1
35
100
AcDbText
1001
ACAD
1000
DSTYLE
1002
{
1070
    75
1070
     1
1070
   271
1070
     0
1002
}
  0
LINE
  5
17E7A
330
18
100
AcDbEntity
  8
0
  6
BYBLOCK
100
AcDbLine
 10
-336.7778360141891
 20
-1580.28253681541
 30
0.0
 11
-338.7778360141891
 21
-1579.74663843541
 31
0.0
  0
LINE
  5
17E7B
330
18
100
AcDbEntity
  8
0
  6
BYBLOCK
100
AcDbLine
 10
-338.7778360141891
 20
-1579.74663843541
 30
0.0
 11
-336.7778360141891
 21
-1579.21074005541
 31
0.0
  0
LINE
  5
17E7C
330
18
100
AcDbEntity
  8
0
  6
BYBLOCK
100
AcDbLine
 10
-338.7778360141891
 20
-1579.74663843541
 30
0.0
 11
-336.7778360141891
 21
-1579.74663843541
 31
0.0
  0
LINE
  5
17E7D
330
18
100
AcDbEntity
  8
0
  6
BYBLOCK
100
AcDbLine
 10
-324.7778359945189
 20
-1579.21074005541
 30
0.0
 11
-322.7778359945189
 21
-1579.74663843541
 31
0.0
  0
LINE
  5
17E7E
330
18
100
AcDbEntity
  8
0
  6
BYBLOCK
100
AcDbLine
 10
-322.7778359945189
 20
-1579.74663843541
 30
0.0
 11
-324.7778359945189
 21
-1580.28253681541
 31
0.0
  0
LINE
  5
17E7F
330
18
100
AcDbEntity
  8
0
  6
BYBLOCK
100
AcDbLine
 10
-322.7778359945189
 20
-1579.74663843541
 30
0.0
 11
-324.7778359945189
 21
-1579.74663843541
 31
0.0
  0
TEXT
  5
17E80
330
18
100
AcDbEntity
  8
1DIM
  6
CONTINUOUS
100
AcDbText
 10
-320.0778359945189
 20
-1579.04663843541
 30
0.0
 40
3.5
  1
Hole Size φ16
100
AcDbText
1001
ACAD
1000
DSTYLE
1002
{
1070
     3
1000
\U+03C6<>
1002
}
  0
VIEWPORT
  5
57
330
15
100
AcDbEntity
 67
     1
  8
0
100
AcDbViewport
 68
     1
 10
0.0
 20
0.0
 30
0.0
 40
582.6368603213814
 41
271.8299999999986
 68
     1
 69
     1
1001
ACAD
1000
MVIEW
1002
{
1070
    16
1010
0.0
1020
0.0
1030
0.0
1010
0.0
1020
0.0
1030
1.0
1040
0.0
1040
271.8299999999986
1040
-7.72199999999998
1040
10.08899999999932
1040
50.0
1040
0.0
1040
0.0
1070
    16
1070
   100
1070
     0
1070
     1
1070
     0
1070
     0
1070
     0
1070
     0
1040
0.0
1040
0.0
1040
0.0
1040
10.0
1040
10.0
1040
10.0
1040
10.0
1070
     0
1002
{
1002
}
1002
}
  0
ENDSEC
  0
SECTION
  2
OBJECTS
  0
DICTIONARY
  5
C
330
0
100
AcDbDictionary
  3
ACAD_CIP_PREVIOUS_PRODUCT_INFO
350
16D0B
  3
ACAD_COLOR
350
2D0
  3
ACAD_DETAILVIEWSTYLE
350
17D3B
  3
ACAD_GROUP
350
D
  3
ACAD_LAYOUT
350
2D1
  3
ACAD_MATERIAL
350
2CF
  3
ACAD_MLEADERSTYLE
350
167F8
  3
ACAD_MLINESTYLE
350
1B
  3
ACAD_PLOTSETTINGS
350
2D2
  3
ACAD_SCALELIST
350
167D6
  3
ACAD_SECTIONVIEWSTYLE
350
17D39
  3
ACAD_VISUALSTYLE
350
167C5
  3
ACDBHEADERROUNDTRIPXREC
350
17E81
  3
ACDBVARIABLEDICTIONARY
350
37
  3
AEC_PROPERTY_SET_DEFS
350
1709B
  3
CONTENTDICTIONARY
350
D8
  3
DRAWINGVARIABLESDICT
350
20
  3
DWGPROPS
350
17E84
1001
ACAD
1000
TREAT_AS_HARD
1070
     0
  0
DICTIONARY
  5
15E19
330
2
100
AcDbDictionary
  3
ACAD_LAYERSTATES
360
15E1A
1001
ACAD
1000
TREAT_AS_HARD
1070
     1
  0
DICTIONARY
  5
16B9A
330
E
100
AcDbDictionary
  3
ADSK_XREC_LAYER_RECONCILED
360
16B9B
1001
ACAD
1000
TREAT_AS_HARD
1070
     1
  0
DICTIONARY
  5
16B9C
330
29
100
AcDbDictionary
  3
ADSK_XREC_LAYER_RECONCILED
360
16B9D
1001
ACAD
1000
TREAT_AS_HARD
1070
     1
  0
DICTIONARY
  5
16B9E
330
31
100
AcDbDictionary
  3
ADSK_XREC_LAYER_RECONCILED
360
16B9F
1001
ACAD
1000
TREAT_AS_HARD
1070
     1
  0
DICTIONARY
  5
16BA8
330
101
100
AcDbDictionary
  3
ADSK_XREC_LAYER_RECONCILED
360
16BA9
1001
ACAD
1000
TREAT_AS_HARD
1070
     1
  0
DICTIONARY
  5
16BAC
330
103
100
AcDbDictionary
  3
ADSK_XREC_LAYER_RECONCILED
360
16BAD
1001
ACAD
1000
TREAT_AS_HARD
1070
     1
  0
DICTIONARY
  5
16BB0
330
25F
100
AcDbDictionary
  3
ADSK_XREC_LAYER_RECONCILED
360
16BB1
1001
ACAD
1000
TREAT_AS_HARD
1070
     1
  0
DICTIONARY
  5
16BCC
330
26D
100
AcDbDictionary
  3
ADSK_XREC_LAYER_RECONCILED
360
16BCD
1001
ACAD
1000
TREAT_AS_HARD
1070
     1
  0
DICTIONARY
  5
16BE4
330
6DD
100
AcDbDictionary
  3
ADSK_XREC_LAYER_RECONCILED
360
16BE5
1001
ACAD
1000
TREAT_AS_HARD
1070
     1
  0
DICTIONARY
  5
16BE6
330
6DE
100
AcDbDictionary
  3
ADSK_XREC_LAYER_RECONCILED
360
16BE7
1001
ACAD
1000
TREAT_AS_HARD
1070
     1
  0
DICTIONARY
  5
16BE8
330
6DF
100
AcDbDictionary
  3
ADSK_XREC_LAYER_RECONCILED
360
16BE9
1001
ACAD
1000
TREAT_AS_HARD
1070
     1
  0
DICTIONARY
  5
16BEA
330
6E0
100
AcDbDictionary
  3
ADSK_XREC_LAYER_RECONCILED
360
16BEB
1001
ACAD
1000
TREAT_AS_HARD
1070
     1
  0
DICTIONARY
  5
6E9
330
18
100
AcDbDictionary
  3
ACAD_SORTENTS
360
6EA
1001
ACAD
1000
TREAT_AS_HARD
1070
     1
  0
DICTIONARY
  5
59B
330
15
100
AcDbDictionary
  3
ACAD_SORTENTS
360
59C
1001
ACAD
1000
TREAT_AS_HARD
1070
     1
  0
XRECORD
  5
16D0B
102
{ACAD_REACTORS
330
C
102
}
330
C
100
AcDbXrecord
300
ACDLT
300
2012
300
ACDLT_F_S
  0
DICTIONARY
  5
2D0
102
{ACAD_REACTORS
330
C
102
}
330
C
100
AcDbDictionary
1001
ACAD
1000
TREAT_AS_HARD
1070
     0
  0
DICTIONARY
  5
17D3B
102
{ACAD_REACTORS
330
C
102
}
330
C
100
AcDbDictionary
  3
METRIC50
350
17D3C
1001
ACAD
1000
TREAT_AS_HARD
1070
     0
  0
DICTIONARY
  5
D
102
{ACAD_REACTORS
330
C
102
}
330
C
100
AcDbDictionary
1001
ACAD
1000
TREAT_AS_HARD
1070
     0
  0
DICTIONARY
  5
2D1
102
{ACAD_REACTORS
330
C
102
}
330
C
100
AcDbDictionary
1001
ACAD
1000
TREAT_AS_HARD
1070
     0
  0
DICTIONARY
  5
2CF
102
{ACAD_REACTORS
330
C
102
}
330
C
100
AcDbDictionary
  3
BYBLOCK
350
167B5
  3
BYLAYER
350
167AD
  3
GLOBAL
350
167BD
1001
ACAD
1000
TREAT_AS_HARD
1070
     0
  0
DICTIONARY
  5
167F8
102
{ACAD_REACTORS
330
C
102
}
330
C
100
AcDbDictionary
  3
STANDARD
350
167F9
1001
ACAD
1000
TREAT_AS_HARD
1070
     0
  0
DICTIONARY
  5
1B
102
{ACAD_REACTORS
330
C
102
}
330
C
100
AcDbDictionary
  3
STANDARD
350
1C
1001
ACAD
1000
TREAT_AS_HARD
1070
     0
  0
DICTIONARY
  5
2D2
102
{ACAD_REACTORS
330
C
102
}
330
C
100
AcDbDictionary
1001
ACAD
1000
TREAT_AS_HARD
1070
     0
  0
DICTIONARY
  5
167D6
102
{ACAD_REACTORS
330
C
102
}
330
C
100
AcDbDictionary
  3
*A1
350
16866
  3
*A2
350
16867
  3
*A3
350
16868
  3
A0
350
167D7
  3
A1
350
167D8
  3
A2
350
167D9
  3
A3
350
167DA
  3
A4
350
167DB
  3
A5
350
167DC
  3
A6
350
167DD
  3
A7
350
167DE
  3
A8
350
167DF
  3
A9
350
167E0
  3
B0
350
167E1
  3
B1
350
167E2
  3
B2
350
167E3
  3
B3
350
167E4
  3
B4
350
167E5
  3
B5
350
167E6
  3
B6
350
167E7
  3
B7
350
167E8
  3
B8
350
167E9
  3
B9
350
167EA
  3
C0
350
167EB
  3
C1
350
167EC
  3
C2
350
167ED
  3
C3
350
167EE
  3
C4
350
167EF
  3
C5
350
167F0
  3
C6
350
167F1
  3
C7
350
167F2
  3
C8
350
167F3
  3
C9
350
167F4
  3
D0
350
167F5
  3
D1
350
167F6
  3
D2
350
167F7
1001
ACAD
1000
TREAT_AS_HARD
1070
     0
  0
DICTIONARY
  5
17D39
102
{ACAD_REACTORS
330
C
102
}
330
C
100
AcDbDictionary
  3
METRIC50
350
17D3A
1001
ACAD
1000
TREAT_AS_HARD
1070
     0
  0
DICTIONARY
  5
167C5
102
{ACAD_REACTORS
330
C
102
}
330
C
100
AcDbDictionary
  3
2DWIREFRAME
350
167CB
  3
3D_HIDDEN
350
167CD
  3
3DWIREFRAME
350
167CC
  3
BASIC
350
167CA
  3
BRIGHTEN
350
167D1
  3
COLORCHANGE
350
167D5
  3
CONCEPTUAL
350
167CE
  3
DIM
350
167D0
  3
EDGECOLOROFF
350
16CFC
  3
FACEPATTERN
350
167D4
  3
FLAT
350
167C6
  3
FLATWITHEDGES
350
167C7
  3
GOURAUD
350
167C8
  3
GOURAUDWITHEDGES
350
167C9
  3
HIDDEN
350
16CF4
  3
JITTEROFF
350
16CFA
  3
LINEPATTERN
350
167D3
  3
MODELING
350
17DA4
  3
OVERHANGOFF
350
16CFB
  3
REALISTIC
350
167CF
  3
SHADED
350
16CF9
  3
SHADED_WITH_EDGES
350
16CF8
  3
SHADES_OF_GRAY
350
16CF5
  3
SKETCHY
350
16CF6
  3
THICKEN
350
167D2
  3
WIREFRAME
350
16CF3
  3
X-RAY
350
16CF7
1001
ACAD
1000
TREAT_AS_HARD
1070
     0
  0
DICTIONARY
  5
17E81
102
{ACAD_REACTORS
330
C
102
}
330
C
100
AcDbDictionary
  3
COLORDICT
350
17E82
  3
MATERIALDICT
350
17E83
1001
ACAD
1000
TREAT_AS_HARD
1070
     0
  0
DICTIONARY
  5
37
102
{ACAD_REACTORS
330
C
102
}
330
C
100
AcDbDictionary
  3
CANNOSCALE
350
17E85
  3
CMLEADERSTYLE
350
16CEE
  3
CTABLESTYLE
350
4F1
  3
CVIEWDETAILSTYLE
350
17D7B
  3
CVIEWSECTIONSTYLE
350
17D7C
  3
DIMADEC
350
38
  3
DIMASSOC
350
408
  3
HIDETEXT
350
1891
  3
INDEXCTL
350
16CF1
  3
INTERSECTIONCOLOR
350
1895
  3
INTERSECTIONDISPLAY
350
1894
  3
LAYEREVAL
350
17D7F
  3
LAYERNOTIFY
350
17D80
  3
LIGHTINGUNITS
350
17D7E
  3
MSLTSCALE
350
17D7D
  3
OBSCOLOR
350
1892
  3
OBSLTYPE
350
1893
  3
PROJECTNAME
350
409
  3
SOLIDHIST
350
17DA2
  3
SORTENTS
350
16CF0
  3
XCLIPFRAME
350
17DA3
1001
ACAD
1000
TREAT_AS_HARD
1070
     0
  0
DICTIONARY
  5
1709B
102
{ACAD_REACTORS
330
C
102
}
330
C
100
AcDbDictionary
1001
ACAD
1000
TREAT_AS_HARD
1070
     0
  0
DICTIONARY
  5
D8
102
{ACAD_REACTORS
330
C
102
}
330
C
100
AcDbDictionary
1001
CONTENTTABDATA
1070
    11
1000
Child
1000
D:\ACLT\TABset\CHILDREN.dwg
1070
     0
1070
     0
1070
     1
1000
PK
1000
D:\ACLT\TABset\PK.dwg
1070
     0
1070
     0
1070
     1
1000
Lev1
1000
D:\ACLT\TABset\Lever01.dwg
1070
     0
1070
     0
1070
     1
1000
Lev2
1000
D:\ACLT\TABset\Lever02.dwg
1070
     0
1070
     0
1070
     1
1000
L3
1000
D:\Aclt\TABset\Lever03.dwg
1070
     0
1070
     0
1070
     1
1000
Form
1000
D:\ACLT\FORMAT
1070
     1
1070
     0
1070
     1
1000
Jnt
1000
D:\ACLT\TABset\JOINTPARTS.dwg
1070
     0
1070
     0
1070
     1
1000
ISO
1000
D:\ACLT\TABset\Isome01.dwg
1070
     0
1070
     0
1070
     1
1000
R
1000
D:\ACLT\TABset\REGION.dwg
1070
     0
1070
     0
1070
     1
1000
std
1000
D:\ACLT\TABset\std_sym_all.dwg
1070
     0
1070
     0
1070
     1
1000
丸
1000
D:\Aclt\TABset\MARU.dwg
1070
     0
1070
     0
1070
     1
1001
CONTENTCURRENTTAB
1070
     0
1001
ACAD
1000
TREAT_AS_HARD
1070
     0
  0
DICTIONARY
  5
20
102
{ACAD_REACTORS
330
C
102
}
330
C
100
AcDbDictionary
1001
DRAWINGVARIABLESXDATA
1000
POLARANG
1000
0.261799387799149410000000
1000
POLARMODE
1000
1
1000
POLARSTYLE
1000
1
1001
ACAD
1000
TREAT_AS_HARD
1070
     0
  0
XRECORD
  5
17E84
102
{ACAD_REACTORS
330
C
102
}
330
C
100
AcDbXrecord
  1
DWGPROPS COOKIE
  2

  3

  4

  6

  7

  8
User
  9

300
=
301
=
302
=
303
=
304
=
305
=
306
=
307
=
308
=
309
=
 40
0.0
 41
2453033.357663484
 42
2458439.126790301
  1

 90
        0
  0
DICTIONARY
  5
15E1A
102
{ACAD_REACTORS
330
15E19
102
}
330
15E19
100
AcDbDictionary
1001
ACAD
1000
TREAT_AS_HARD
1070
     0
  0
ACAD_PROXY_OBJECT
  5
16B9B
102
{ACAD_REACTORS
330
16B9A
102
}
330
16B9A
100
AcDbZombieObject
 90
      499
 91
      521
 93
       34
310
40C8804040
  0
ACAD_PROXY_OBJECT
  5
16B9D
102
{ACAD_REACTORS
330
16B9C
102
}
330
16B9C
100
AcDbZombieObject
 90
      499
 91
      521
 93
       34
310
40C8804040
  0
ACAD_PROXY_OBJECT
  5
16B9F
102
{ACAD_REACTORS
330
16B9E
102
}
330
16B9E
100
AcDbZombieObject
 90
      499
 91
      521
 93
       34
310
40C8804040
  0
ACAD_PROXY_OBJECT
  5
16BA9
102
{ACAD_REACTORS
330
16BA8
102
}
330
16BA8
100
AcDbZombieObject
 90
      499
 91
      521
 93
       34
310
40C8804040
  0
ACAD_PROXY_OBJECT
  5
16BAD
102
{ACAD_REACTORS
330
16BAC
102
}
330
16BAC
100
AcDbZombieObject
 90
      499
 91
      521
 93
       34
310
40C8804040
  0
ACAD_PROXY_OBJECT
  5
16BB1
102
{ACAD_REACTORS
330
16BB0
102
}
330
16BB0
100
AcDbZombieObject
 90
      499
 91
      521
 93
       34
310
40C8804040
  0
ACAD_PROXY_OBJECT
  5
16BCD
102
{ACAD_REACTORS
330
16BCC
102
}
330
16BCC
100
AcDbZombieObject
 90
      499
 91
      521
 93
       34
310
40C8804040
  0
ACAD_PROXY_OBJECT
  5
16BE5
102
{ACAD_REACTORS
330
16BE4
102
}
330
16BE4
100
AcDbZombieObject
 90
      499
 91
      521
 93
       34
310
40C8804040
  0
ACAD_PROXY_OBJECT
  5
16BE7
102
{ACAD_REACTORS
330
16BE6
102
}
330
16BE6
100
AcDbZombieObject
 90
      499
 91
      521
 93
       34
310
40C8804040
  0
ACAD_PROXY_OBJECT
  5
16BE9
102
{ACAD_REACTORS
330
16BE8
102
}
330
16BE8
100
AcDbZombieObject
 90
      499
 91
      521
 93
       34
310
40C8804040
  0
ACAD_PROXY_OBJECT
  5
16BEB
102
{ACAD_REACTORS
330
16BEA
102
}
330
16BEA
100
AcDbZombieObject
 90
      499
 91
      521
 93
       34
310
40C8804040
  0
SORTENTSTABLE
  5
6EA
102
{ACAD_REACTORS
330
6E9
102
}
330
6E9
100
AcDbSortentsTable
330
18
331
0
  5
99AB
331
0
  5
AB53
331
0
  5
AB54
331
0
  5
ECB6
331
0
  5
16B34
331
0
  5
16B52
331
0
  5
16B68
331
0
  5
16B7F
331
0
  5
16E76
331
16E76
  5
17870
331
16E77
  5
17872
331
16E78
  5
178DB
331
16E79
  5
178E8
331
16E7A
  5
178E9
331
16E7B
  5
178EA
331
16E7C
  5
178EB
331
16E7D
  5
178EC
331
16E7E
  5
178ED
331
16E7F
  5
178EE
331
16E80
  5
178EF
331
16E81
  5
178F0
331
16E82
  5
178F1
331
16E83
  5
178F2
331
16E84
  5
178F3
331
16E85
  5
178F4
331
16E86
  5
178F5
331
174AA
  5
17904
331
174BD
  5
17905
331
174BE
  5
17907
331
0
  5
17575
331
0
  5
17576
331
0
  5
17577
331
17577
  5
1794A
331
17578
  5
17955
331
17579
  5
17956
331
1757A
  5
17957
331
1757B
  5
17958
331
1757C
  5
17959
331
1757D
  5
1795A
331
1757E
  5
1795B
331
1757F
  5
1795C
331
177E8
  5
1795D
331
177E9
  5
1795E
331
177EA
  5
1795F
331
177EB
  5
17960
331
177EE
  5
17961
331
177F7
  5
17962
331
1780C
  5
17963
331
1780E
  5
17964
331
1780F
  5
1796E
331
17815
  5
17970
331
17816
  5
1799B
331
17819
  5
1799C
331
1781A
  5
1799D
331
1781B
  5
1799E
331
1781C
  5
1799F
331
17827
  5
179A2
331
17828
  5
179A3
331
17829
  5
179A4
331
17831
  5
179A5
331
17832
  5
179A6
331
17833
  5
179F1
331
17835
  5
179F3
331
17836
  5
179F5
331
17837
  5
179F6
331
17838
  5
179F7
331
17839
  5
179F8
331
1783A
  5
179FB
331
1783B
  5
179FD
331
17840
  5
179FE
331
17841
  5
179FF
331
17858
  5
17A00
331
17859
  5
17A01
331
1785A
  5
17A02
331
1785B
  5
17A03
331
1785C
  5
17A04
331
1785D
  5
17A05
331
17860
  5
17A06
331
17861
  5
17A07
331
17862
  5
17A08
331
17870
  5
17A09
331
17872
  5
17A0A
331
178DB
  5
17A0B
331
178E8
  5
17A0D
331
178E9
  5
17A0E
331
178EA
  5
17A0F
331
178EB
  5
17A10
331
178EC
  5
17A11
331
178ED
  5
17A12
331
178EE
  5
17A13
331
178EF
  5
17A14
331
178F0
  5
17A15
331
178F1
  5
17A16
331
178F2
  5
17A17
331
178F3
  5
17A18
331
178F4
  5
17A19
331
178F5
  5
17A1A
331
17904
  5
17A1B
331
0
  5
17906
331
17906
  5
17A20
331
17907
  5
17A21
331
17908
  5
17A22
331
17909
  5
17A23
331
1790A
  5
17A24
331
1790B
  5
17A25
331
1790C
  5
17A2A
331
1790D
  5
17A2B
331
1790E
  5
17A2C
331
1790F
  5
17A2D
331
17910
  5
17A2E
331
17911
  5
17A2F
331
17912
  5
17A30
331
17913
  5
17A31
331
17914
  5
17A32
331
17915
  5
17A33
331
17916
  5
17A34
331
17948
  5
17A35
331
1794A
  5
17A36
331
17955
  5
17A37
331
17956
  5
17A38
331
17957
  5
17A39
331
17958
  5
17A4C
331
17959
  5
17A4D
331
1795A
  5
17A4E
331
1795B
  5
17A4F
331
1795C
  5
17A50
331
1795D
  5
17A51
331
1795E
  5
17A52
331
1795F
  5
17A53
331
17960
  5
17A54
331
17961
  5
17A55
331
17962
  5
17A56
331
17963
  5
17A5D
331
17964
  5
17A5E
331
1796E
  5
17DFE
331
1799A
  5
17DFF
331
1799B
  5
17E00
331
1799C
  5
17E01
331
1799D
  5
17E02
331
1799E
  5
17E03
331
1799F
  5
17E04
331
179A2
  5
17E05
331
179A3
  5
17E06
331
179A4
  5
17E07
331
179A5
  5
17E08
331
179A6
  5
16B1A
331
179F1
  5
17E12
331
179F3
  5
17E13
331
179F5
  5
17E14
331
179F6
  5
17E15
331
179F7
  5
17E16
331
179F8
  5
17E17
331
179FB
  5
17E18
331
179FD
  5
17E19
331
179FE
  5
17E1A
331
179FF
  5
17E1B
331
17A00
  5
17E1C
331
17A01
  5
17E1D
331
17A02
  5
17E1E
331
17A03
  5
17E1F
331
17A04
  5
17E20
331
17A05
  5
17E21
331
17A06
  5
17E22
331
17A07
  5
17E23
331
17A08
  5
17E24
331
17A09
  5
17E25
331
17A0A
  5
17E26
331
17A0B
  5
17E27
331
17A0D
  5
17E28
331
17A0E
  5
17E29
331
17A0F
  5
17E2A
331
17A10
  5
17E2B
331
17A11
  5
17E2C
331
17A12
  5
17E2D
331
17A13
  5
17E2E
331
17A14
  5
17E2F
331
17A15
  5
17E30
331
17A16
  5
17E31
331
17A17
  5
17E32
331
17A18
  5
17E33
331
17A19
  5
17E34
331
17A1A
  5
17E35
331
17A1B
  5
17E36
331
17A1C
  5
17E37
331
17A1D
  5
17E38
331
17A1E
  5
17E39
331
17A1F
  5
17E3A
331
17A20
  5
17E3B
331
17A21
  5
17E3C
331
17A22
  5
17E3D
331
17A23
  5
17E3E
331
17A24
  5
17E3F
331
17A25
  5
17E40
331
17A26
  5
17E44
331
17A27
  5
17E45
331
17A29
  5
17E4A
331
17A2A
  5
17E4B
331
17A2B
  5
17E4C
331
17A2C
  5
17E4D
331
17A2D
  5
17E4E
331
17A2E
  5
17E4F
331
17A2F
  5
17E50
331
17A30
  5
17E51
331
17A31
  5
17E52
331
17A32
  5
17E53
331
17A33
  5
17E54
331
17A34
  5
17E55
331
17A35
  5
17E56
331
17A36
  5
17E57
331
17A37
  5
17E58
331
17A38
  5
17E59
331
17A39
  5
17E5A
331
17A4C
  5
17E5B
331
17A4D
  5
17E5C
331
17A4E
  5
17E5D
331
17A4F
  5
17E5E
331
17A50
  5
17E5F
331
17A51
  5
17E60
331
17A52
  5
17E61
331
17A53
  5
17E62
331
17A54
  5
17E63
331
17A55
  5
17E64
331
17A56
  5
17E65
331
17A5D
  5
17E66
331
17A5E
  5
17E67
331
17DFE
  5
16E77
331
17DFF
  5
16E78
331
17E00
  5
16E79
331
0
  5
16E7A
331
0
  5
16E7B
331
0
  5
16E7C
331
17E04
  5
174C1
331
17E05
  5
1757B
331
0
  5
16E7F
331
0
  5
16E80
331
0
  5
16E81
331
17E09
  5
1780C
331
17E0A
  5
1780E
331
17E0B
  5
1780F
331
0
  5
16E85
331
0
  5
16E86
331
0
  5
170A3
331
17E0F
  5
17828
331
17E10
  5
17829
331
17E11
  5
17831
331
0
  5
17578
331
0
  5
17579
331
0
  5
1757A
331
17E15
  5
17841
331
17E16
  5
17852
331
17E17
  5
17859
331
0
  5
1757E
331
0
  5
1757F
331
0
  5
177BD
331
17E1B
  5
17908
331
17E1C
  5
17909
331
17E1D
  5
1790A
331
17E1E
  5
1790B
331
0
  5
17839
331
0
  5
1783A
331
0
  5
1783B
331
17E22
  5
17913
331
17E23
  5
17914
331
17E24
  5
17915
331
17E25
  5
17916
331
17E26
  5
17917
331
17E27
  5
17A1C
331
17E28
  5
17A1D
331
17E29
  5
17A1E
331
17E2A
  5
17A1F
331
17E2B
  5
17E09
331
17E2C
  5
17E0A
331
0
  5
17A26
331
0
  5
17A27
331
0
  5
17A29
331
17E30
  5
17E46
331
17E31
  5
17E47
331
17E32
  5
17E48
331
17E33
  5
17E49
331
17E34
  5
17E68
331
17E35
  5
17E69
331
17E36
  5
17E6A
331
17E37
  5
17E6B
331
17E38
  5
17E6C
331
17E39
  5
17E6D
331
17E3A
  5
17E6E
331
17E3B
  5
17E6F
331
17E3C
  5
17E70
331
17E3D
  5
17E71
331
17E3E
  5
17E72
331
17E3F
  5
17E73
331
17E40
  5
17E74
331
17E44
  5
17E7C
331
17E45
  5
17E7D
331
17E46
  5
17E7E
331
17E47
  5
17E7F
331
17E48
  5
17E80
331
17E49
  5
16E7D
331
17E4A
  5
16E7E
331
17E4B
  5
16E82
331
17E4C
  5
16E83
331
17E4D
  5
16E84
331
17E4E
  5
174BD
331
17E4F
  5
174BE
331
17E50
  5
1757C
331
17E51
  5
1757D
331
17E52
  5
177E9
331
17E53
  5
177EA
331
17E54
  5
177EB
331
17E55
  5
177EE
331
17E56
  5
177F7
331
17E57
  5
17815
331
17E58
  5
17816
331
17E59
  5
17819
331
17E5A
  5
1781A
331
17E5B
  5
1781B
331
17E5C
  5
1781C
331
17E5D
  5
17827
331
17E5E
  5
17832
331
17E5F
  5
17833
331
17E60
  5
17835
331
17E61
  5
17836
331
17E62
  5
17837
331
17E63
  5
17838
331
17E64
  5
17840
331
17E65
  5
1785A
331
17E66
  5
1785B
331
17E67
  5
1785C
331
17E68
  5
1785D
331
17E69
  5
17860
331
17E6A
  5
17861
331
17E6B
  5
17862
331
17E6C
  5
1790C
331
17E6D
  5
1790D
331
17E6E
  5
1790E
331
17E6F
  5
1790F
331
17E70
  5
17910
331
17E71
  5
17911
331
17E72
  5
17912
331
17E73
  5
17E0B
331
17E74
  5
17E0C
331
17E75
  5
17E0D
331
17E76
  5
17E0E
331
17E77
  5
17E0F
331
17E78
  5
17E10
331
17E79
  5
17E11
331
17E7A
  5
17E75
331
17E7B
  5
17E76
331
17E7C
  5
17E77
331
17E7D
  5
17E78
331
17E7E
  5
17E79
331
17E7F
  5
17E7A
331
17E80
  5
17E7B
  0
SORTENTSTABLE
  5
59C
102
{ACAD_REACTORS
330
59B
102
}
330
59B
100
AcDbSortentsTable
330
15
331
57
  5
57
331
0
  5
70
  0
ACAD_PROXY_OBJECT
  5
17D3C
102
{ACAD_REACTORS
330
17D3B
102
}
102
{ACAD_XDICTIONARY
360
17D79
102
}
330
17D3B
100
AcDbZombieObject
 90
      499
 91
      519
 93
      877
310
9084D65747269633530481E0000000000000A20500E0000000000000A20233E0000000000000A20400000000000017202029B929E2E20B1AB30B9102B34B2BBA232BA30B4B624B21F129014129E2E20B1AB30B9102B34B2BBA9B1B0B632902E33101112B9B7111F1294A33A33800
340
F
340
0
340
14
340
F
340
14
340
14
 94
        0
1001
ACAD
1000
AcRTDxfName
1000
ACDBDETAILVIEWSTYLE
  0
MATERIAL
  5
167B5
102
{ACAD_REACTORS
330
2CF
102
}
102
{ACAD_XDICTIONARY
360
17E86
102
}
330
2CF
100
AcDbMaterial
  1
BYBLOCK
 72
     0
 73
     2
 43
0.0208333333333333
 43
0.0
 43
0.0
 43
0.0
 43
0.0
 43
0.0208333333333333
 43
0.0
 43
0.0
 43
0.0
 43
0.0
 43
1.0
 43
0.0
 43
0.0
 43
0.0
 43
0.0
 43
1.0
 77
     0
 78
     2
 47
0.0208333333333333
 47
0.0
 47
0.0
 47
0.0
 47
0.0
 47
0.0208333333333333
 47
0.0
 47
0.0
 47
0.0
 47
0.0
 47
1.0
 47
0.0
 47
0.0
 47
0.0
 47
0.0
 47
1.0
171
     0
172
     2
 49
0.0208333333333333
 49
0.0
 49
0.0
 49
0.0
 49
0.0
 49
0.0208333333333333
 49
0.0
 49
0.0
 49
0.0
 49
0.0
 49
1.0
 49
0.0
 49
0.0
 49
0.0
 49
0.0
 49
1.0
175
     0
176
     2
142
0.0208333333333333
142
0.0
142
0.0
142
0.0
142
0.0
142
0.0208333333333333
142
0.0
142
0.0
142
0.0
142
0.0
142
1.0
142
0.0
142
0.0
142
0.0
142
0.0
142
1.0
179
     0
270
     2
144
0.0208333333333333
144
0.0
144
0.0
144
0.0
144
0.0
144
0.0208333333333333
144
0.0
144
0.0
144
0.0
144
0.0
144
1.0
144
0.0
144
0.0
144
0.0
144
0.0
144
1.0
274
     2
147
0.0208333333333333
147
0.0
147
0.0
147
0.0
147
0.0
147
0.0208333333333333
147
0.0
147
0.0
147
0.0
147
0.0
147
1.0
147
0.0
147
0.0
147
0.0
147
0.0
147
1.0
  0
MATERIAL
  5
167AD
102
{ACAD_REACTORS
330
2CF
102
}
102
{ACAD_XDICTIONARY
360
17E88
102
}
330
2CF
100
AcDbMaterial
  1
BYLAYER
 72
     0
 73
     2
 43
0.0208333333333333
 43
0.0
 43
0.0
 43
0.0
 43
0.0
 43
0.0208333333333333
 43
0.0
 43
0.0
 43
0.0
 43
0.0
 43
1.0
 43
0.0
 43
0.0
 43
0.0
 43
0.0
 43
1.0
 77
     0
 78
     2
 47
0.0208333333333333
 47
0.0
 47
0.0
 47
0.0
 47
0.0
 47
0.0208333333333333
 47
0.0
 47
0.0
 47
0.0
 47
0.0
 47
1.0
 47
0.0
 47
0.0
 47
0.0
 47
0.0
 47
1.0
171
     0
172
     2
 49
0.0208333333333333
 49
0.0
 49
0.0
 49
0.0
 49
0.0
 49
0.0208333333333333
 49
0.0
 49
0.0
 49
0.0
 49
0.0
 49
1.0
 49
0.0
 49
0.0
 49
0.0
 49
0.0
 49
1.0
175
     0
176
     2
142
0.0208333333333333
142
0.0
142
0.0
142
0.0
142
0.0
142
0.0208333333333333
142
0.0
142
0.0
142
0.0
142
0.0
142
1.0
142
0.0
142
0.0
142
0.0
142
0.0
142
1.0
179
     0
270
     2
144
0.0208333333333333
144
0.0
144
0.0
144
0.0
144
0.0
144
0.0208333333333333
144
0.0
144
0.0
144
0.0
144
0.0
144
1.0
144
0.0
144
0.0
144
0.0
144
0.0
144
1.0
274
     2
147
0.0208333333333333
147
0.0
147
0.0
147
0.0
147
0.0
147
0.0208333333333333
147
0.0
147
0.0
147
0.0
147
0.0
147
1.0
147
0.0
147
0.0
147
0.0
147
0.0
147
1.0
  0
MATERIAL
  5
167BD
102
{ACAD_REACTORS
330
2CF
102
}
102
{ACAD_XDICTIONARY
360
17E8A
102
}
330
2CF
100
AcDbMaterial
  1
GLOBAL
 72
     0
 73
     2
 43
0.0208333333333333
 43
0.0
 43
0.0
 43
0.0
 43
0.0
 43
0.0208333333333333
 43
0.0
 43
0.0
 43
0.0
 43
0.0
 43
1.0
 43
0.0
 43
0.0
 43
0.0
 43
0.0
 43
1.0
 77
     0
 78
     2
 47
0.0208333333333333
 47
0.0
 47
0.0
 47
0.0
 47
0.0
 47
0.0208333333333333
 47
0.0
 47
0.0
 47
0.0
 47
0.0
 47
1.0
 47
0.0
 47
0.0
 47
0.0
 47
0.0
 47
1.0
171
     0
172
     2
 49
0.0208333333333333
 49
0.0
 49
0.0
 49
0.0
 49
0.0
 49
0.0208333333333333
 49
0.0
 49
0.0
 49
0.0
 49
0.0
 49
1.0
 49
0.0
 49
0.0
 49
0.0
 49
0.0
 49
1.0
175
     0
176
     2
142
0.0208333333333333
142
0.0
142
0.0
142
0.0
142
0.0
142
0.0208333333333333
142
0.0
142
0.0
142
0.0
142
0.0
142
1.0
142
0.0
142
0.0
142
0.0
142
0.0
142
1.0
179
     0
270
     2
144
0.0208333333333333
144
0.0
144
0.0
144
0.0
144
0.0
144
0.0208333333333333
144
0.0
144
0.0
144
0.0
144
0.0
144
1.0
144
0.0
144
0.0
144
0.0
144
0.0
144
1.0
274
     2
147
0.0208333333333333
147
0.0
147
0.0
147
0.0
147
0.0
147
0.0208333333333333
147
0.0
147
0.0
147
0.0
147
0.0
147
1.0
147
0.0
147
0.0
147
0.0
147
0.0
147
1.0
  0
ACAD_PROXY_OBJECT
  5
167F9
102
{ACAD_REACTORS
330
167F8
102
}
330
167F8
100
AcDbZombieObject
 90
      499
 91
      512
 93
      610
310
40901902A4063FBFFFFFE000000000000002040AD7A3703D0AD73F4214DD185B99185C990000000000000104090141901A00000000000004100000000000000041025764000000000000300FC0
340
12
340
0
340
F
340
0
 94
        0
1001
ACAD_MLEADERVER
1070
     2
  0
MLINESTYLE
  5
1C
102
{ACAD_REACTORS
330
1B
102
}
330
1B
100
AcDbMlineStyle
  2
STANDARD
 70
     0
  3

 62
   256
 51
90.0
 52
90.0
 71
     2
 49
0.5
 62
   256
  6
BYLAYER
 49
-0.5
 62
   256
  6
BYLAYER
  0
ACAD_PROXY_OBJECT
  5
16866
102
{ACAD_REACTORS
330
167D6
102
}
330
167D6
100
AcDbZombieObject
 90
      499
 91
      511
 93
       49
310
904313A3231500
  0
ACAD_PROXY_OBJECT
  5
16867
102
{ACAD_REACTORS
330
167D6
102
}
330
167D6
100
AcDbZombieObject
 90
      499
 91
      511
 93
      201
310
90F313A3130305F585245465F585245464000000000000594000
1001
ACAD
1000
AcRTDxfName
1000
SCALE
1000
AcRTDxfName
1000
SCALE
1000
AcRTDxfName
1000
SCALE
1000
AcRTDxfName
1000
SCALE
1000
AcRTDxfName
1000
SCALE
1000
AcRTDxfName
1000
SCALE
1000
AcRTDxfName
1000
SCALE
1000
AcRTDxfName
1000
SCALE
1000
AcRTDxfName
1000
SCALE
  0
ACAD_PROXY_OBJECT
  5
16868
102
{ACAD_REACTORS
330
167D6
102
}
330
167D6
100
AcDbZombieObject
 90
      499
 91
      511
 93
      241
310
914313A3130305F585245465F585245465F585245464000000000000594000
1001
ACAD
1000
AcRTDxfName
1000
SCALE
1000
AcRTDxfName
1000
SCALE
1000
AcRTDxfName
1000
SCALE
1000
AcRTDxfName
1000
SCALE
1000
AcRTDxfName
1000
SCALE
1000
AcRTDxfName
1000
SCALE
1000
AcRTDxfName
1000
SCALE
1000
AcRTDxfName
1000
SCALE
  0
ACAD_PROXY_OBJECT
  5
167D7
102
{ACAD_REACTORS
330
167D6
102
}
330
167D6
100
AcDbZombieObject
 90
      499
 91
      511
 93
       41
310
903313A31580
  0
ACAD_PROXY_OBJECT
  5
167D8
102
{ACAD_REACTORS
330
167D6
102
}
330
167D6
100
AcDbZombieObject
 90
      499
 91
      511
 93
      105
310
903313A324000000000000004000
  0
ACAD_PROXY_OBJECT
  5
167D9
102
{ACAD_REACTORS
330
167D6
102
}
330
167D6
100
AcDbZombieObject
 90
      499
 91
      511
 93
      105
310
903313A344000000000000104000
  0
ACAD_PROXY_OBJECT
  5
167DA
102
{ACAD_REACTORS
330
167D6
102
}
330
167D6
100
AcDbZombieObject
 90
      499
 91
      511
 93
      105
310
903313A354000000000000144000
  0
ACAD_PROXY_OBJECT
  5
167DB
102
{ACAD_REACTORS
330
167D6
102
}
330
167D6
100
AcDbZombieObject
 90
      499
 91
      511
 93
      105
310
903313A384000000000000204000
  0
ACAD_PROXY_OBJECT
  5
167DC
102
{ACAD_REACTORS
330
167D6
102
}
330
167D6
100
AcDbZombieObject
 90
      499
 91
      511
 93
      113
310
904313A31304000000000000244000
  0
ACAD_PROXY_OBJECT
  5
167DD
102
{ACAD_REACTORS
330
167D6
102
}
330
167D6
100
AcDbZombieObject
 90
      499
 91
      511
 93
      113
310
904313A31364000000000000304000
  0
ACAD_PROXY_OBJECT
  5
167DE
102
{ACAD_REACTORS
330
167D6
102
}
330
167D6
100
AcDbZombieObject
 90
      499
 91
      511
 93
      113
310
904313A32304000000000000344000
  0
ACAD_PROXY_OBJECT
  5
167DF
102
{ACAD_REACTORS
330
167D6
102
}
330
167D6
100
AcDbZombieObject
 90
      499
 91
      511
 93
      113
310
904313A333040000000000003E4000
  0
ACAD_PROXY_OBJECT
  5
167E0
102
{ACAD_REACTORS
330
167D6
102
}
330
167D6
100
AcDbZombieObject
 90
      499
 91
      511
 93
      113
310
904313A34304000000000000444000
  0
ACAD_PROXY_OBJECT
  5
167E1
102
{ACAD_REACTORS
330
167D6
102
}
330
167D6
100
AcDbZombieObject
 90
      499
 91
      511
 93
      113
310
904313A35304000000000000494000
  0
ACAD_PROXY_OBJECT
  5
167E2
102
{ACAD_REACTORS
330
167D6
102
}
330
167D6
100
AcDbZombieObject
 90
      499
 91
      511
 93
      121
310
905313A3130304000000000000594000
  0
ACAD_PROXY_OBJECT
  5
167E3
102
{ACAD_REACTORS
330
167D6
102
}
330
167D6
100
AcDbZombieObject
 90
      499
 91
      511
 93
      105
310
903323A310000000000000010100
  0
ACAD_PROXY_OBJECT
  5
167E4
102
{ACAD_REACTORS
330
167D6
102
}
330
167D6
100
AcDbZombieObject
 90
      499
 91
      511
 93
      105
310
903343A310000000000000410100
  0
ACAD_PROXY_OBJECT
  5
167E5
102
{ACAD_REACTORS
330
167D6
102
}
330
167D6
100
AcDbZombieObject
 90
      499
 91
      511
 93
      105
310
903383A310000000000000810100
  0
ACAD_PROXY_OBJECT
  5
167E6
102
{ACAD_REACTORS
330
167D6
102
}
330
167D6
100
AcDbZombieObject
 90
      499
 91
      511
 93
      113
310
90431303A310000000000000910100
  0
ACAD_PROXY_OBJECT
  5
167E7
102
{ACAD_REACTORS
330
167D6
102
}
330
167D6
100
AcDbZombieObject
 90
      499
 91
      511
 93
      121
310
9053130303A310000000000001650100
  0
ACAD_PROXY_OBJECT
  5
167E8
102
{ACAD_REACTORS
330
167D6
102
}
330
167D6
100
AcDbZombieObject
 90
      499
 91
      511
 93
      257
310
90E312F31323822203D2031272D3022000000000000200FC000000000000284000
  0
ACAD_PROXY_OBJECT
  5
167E9
102
{ACAD_REACTORS
330
167D6
102
}
330
167D6
100
AcDbZombieObject
 90
      499
 91
      511
 93
      249
310
90D312F363422203D2031272D3022000000000000240FC000000000000284000
  0
ACAD_PROXY_OBJECT
  5
167EA
102
{ACAD_REACTORS
330
167D6
102
}
330
167D6
100
AcDbZombieObject
 90
      499
 91
      511
 93
      249
310
90D312F333222203D2031272D3022000000000000280FC000000000000284000
  0
ACAD_PROXY_OBJECT
  5
167EB
102
{ACAD_REACTORS
330
167D6
102
}
330
167D6
100
AcDbZombieObject
 90
      499
 91
      511
 93
      249
310
90D312F313622203D2031272D30220000000000002C0FC000000000000284000
  0
ACAD_PROXY_OBJECT
  5
167EC
102
{ACAD_REACTORS
330
167D6
102
}
330
167D6
100
AcDbZombieObject
 90
      499
 91
      511
 93
      249
310
90D332F333222203D2031272D30220000000000002E0FC000000000000284000
  0
ACAD_PROXY_OBJECT
  5
167ED
102
{ACAD_REACTORS
330
167D6
102
}
330
167D6
100
AcDbZombieObject
 90
      499
 91
      511
 93
      241
310
90C312F3822203D2031272D3022000000000000300FC000000000000284000
  0
ACAD_PROXY_OBJECT
  5
167EE
102
{ACAD_REACTORS
330
167D6
102
}
330
167D6
100
AcDbZombieObject
 90
      499
 91
      511
 93
      249
310
90D332F313622203D2031272D3022000000000000320FC000000000000284000
  0
ACAD_PROXY_OBJECT
  5
167EF
102
{ACAD_REACTORS
330
167D6
102
}
330
167D6
100
AcDbZombieObject
 90
      499
 91
      511
 93
      241
310
90C312F3422203D2031272D3022000000000000340FC000000000000284000
  0
ACAD_PROXY_OBJECT
  5
167F0
102
{ACAD_REACTORS
330
167D6
102
}
330
167D6
100
AcDbZombieObject
 90
      499
 91
      511
 93
      241
310
90C332F3822203D2031272D3022000000000000360FC000000000000284000
  0
ACAD_PROXY_OBJECT
  5
167F1
102
{ACAD_REACTORS
330
167D6
102
}
330
167D6
100
AcDbZombieObject
 90
      499
 91
      511
 93
      241
310
90C312F3222203D2031272D3022000000000000380FC000000000000284000
  0
ACAD_PROXY_OBJECT
  5
167F2
102
{ACAD_REACTORS
330
167D6
102
}
330
167D6
100
AcDbZombieObject
 90
      499
 91
      511
 93
      241
310
90C332F3422203D2031272D30220000000000003A0FC000000000000284000
  0
ACAD_PROXY_OBJECT
  5
167F3
102
{ACAD_REACTORS
330
167D6
102
}
330
167D6
100
AcDbZombieObject
 90
      499
 91
      511
 93
      161
310
90A3122203D2031272D30224000000000000284000
  0
ACAD_PROXY_OBJECT
  5
167F4
102
{ACAD_REACTORS
330
167D6
102
}
330
167D6
100
AcDbZombieObject
 90
      499
 91
      511
 93
      257
310
90E312D312F3222203D2031272D30220000000000003E0FC000000000000284000
  0
ACAD_PROXY_OBJECT
  5
167F5
102
{ACAD_REACTORS
330
167D6
102
}
330
167D6
100
AcDbZombieObject
 90
      499
 91
      511
 93
      225
310
90A3322203D2031272D302200000000000002100000000000000284000
  0
ACAD_PROXY_OBJECT
  5
167F6
102
{ACAD_REACTORS
330
167D6
102
}
330
167D6
100
AcDbZombieObject
 90
      499
 91
      511
 93
      225
310
90A3622203D2031272D302200000000000006100000000000000284000
  0
ACAD_PROXY_OBJECT
  5
167F7
102
{ACAD_REACTORS
330
167D6
102
}
330
167D6
100
AcDbZombieObject
 90
      499
 91
      511
 93
      249
310
90D31272D3022203D2031272D30220000000000000A100000000000000284000
  0
ACAD_PROXY_OBJECT
  5
17D3A
102
{ACAD_REACTORS
330
17D39
102
}
102
{ACAD_XDICTIONARY
360
17D77
102
}
330
17D39
100
AcDbZombieObject
 90
      499
 91
      518
 93
     2015
310
9084D657472696335304B360000000000000A2060000000000000A202209258409E5840A25840A65840B05840B40000000000001220233A65800000000000028800000000000000A2060000000000000A2040000000000001720202AC929E2E20B1AB30B9102B34B2BBA9B2B1BA34B7B729BA30B93A24B21F1296929E2E20B
310
1AB30B9102B34B2BBA9B2B1BA34B7B722B73224B21F129014129E2E20B1AB30B9102B34B2BBA9B1B0B632902E33101112B9B7111F1294E0080A0C829CA6926662C400000000000002204000000000000022020D0305A88A9F643F27E32B9969C2960E81F87FA0718D4DE3E87E32B9969C2960E85F9E5129FC49EA5FA7E
340
F
340
0
340
0
340
14
340
14
340
F
 94
        0
1001
ACAD
1000
AcRTDxfName
1000
ACDBSECTIONVIEWSTYLE
  0
ACAD_PROXY_OBJECT
  5
167CB
102
{ACAD_REACTORS
330
167C5
102
}
330
167C5
100
AcDbZombieObject
 90
      499
 91
      510
 93
      436
310
42CC9915DA5C99599C985B595049028333333333333E3BF0000000000000FB0107901411070040501600405405064090741402480A0340
1001
ACAD
1000
AcDbSavedByObjectVersion
1070
     0
  0
ACAD_PROXY_OBJECT
  5
167CD
102
{ACAD_REACTORS
330
167C5
102
}
330
167C5
100
AcDbZombieObject
 90
      499
 91
      510
 93
      500
310
424CD108121A5919195B90640502408333333333333E3BF0000000000000FB01079024090700405020000000000001110200405405064090740C02480A0340
1001
ACAD
1000
AcDbSavedByObjectVersion
1070
     0
  0
ACAD_PROXY_OBJECT
  5
167CC
102
{ACAD_REACTORS
330
167C5
102
}
330
167C5
100
AcDbZombieObject
 90
      499
 91
      510
 93
      436
310
42CCD915DA5C99599C985B595059028333333333333E3BF0000000000000FB0107901411070040501600405405064090741402480A0340
1001
ACAD
1000
AcDbSavedByObjectVersion
1070
     0
  0
ACAD_PROXY_OBJECT
  5
167CA
102
{ACAD_REACTORS
330
167C5
102
}
330
167C5
100
AcDbZombieObject
 90
      499
 91
      510
 93
      388
310
4150985CDA58D07406404333333333333E3BF0000000000000FB0107A41107004050150841D405064090741402480A0350
1001
ACAD
1000
AcDbSavedByObjectVersion
1070
     0
  0
ACAD_PROXY_OBJECT
  5
167D1
102
{ACAD_REACTORS
330
167C5
102
}
330
167C5
100
AcDbZombieObject
 90
      499
 91
      510
 93
      428
310
42109C9A59DA1D195B90C409028333333333333E3BF0000000000000FB010790141107004050150841D405064090741402480A029950
1001
ACAD
1000
AcDbSavedByObjectVersion
1070
     0
  0
ACAD_PROXY_OBJECT
  5
167D5
102
{ACAD_REACTORS
330
167C5
102
}
330
167C5
100
AcDbZombieObject
 90
      499
 91
      510
 93
      452
310
42D0DBDB1BDC90DA185B99D95104090240C333333333333E3BF0000000000000FB0108901411070040501508421405064090741402480A0350
1001
ACAD
1000
AcDbSavedByObjectVersion
1070
     0
  0
ACAD_PROXY_OBJECT
  5
167CE
102
{ACAD_REACTORS
330
167C5
102
}
330
167C5
100
AcDbZombieObject
 90
      499
 91
      510
 93
      500
310
4290DBDB98D95C1D1D585B10940D028333333333333E3BF0000000000000FB0107902409070040501000000000000111010841D405064090740C02480A0340
1001
ACAD
1000
AcDbSavedByObjectVersion
1070
     0
  0
ACAD_PROXY_OBJECT
  5
167D0
102
{ACAD_REACTORS
330
167C5
102
}
330
167C5
100
AcDbZombieObject
 90
      499
 91
      510
 93
      412
310
40D11A5B50B409028333333333333E3BF0000000000000FB010790141107004050150841D405064090741402480A02677FFFFFD0
1001
ACAD
1000
AcDbSavedByObjectVersion
1070
     0
  0
ACAD_PROXY_OBJECT
  5
16CFC
102
{ACAD_REACTORS
330
167C5
102
}
330
167C5
100
AcDbZombieObject
 90
      499
 91
      510
 93
      452
310
43115919D950DBDB1BDC93D999916409028333333333333E3BF0000000000000FB010790141107004050150841D405064090741402480A0350
1001
ACAD
1000
AcDbSavedByObjectVersion
1070
     0
  0
ACAD_PROXY_OBJECT
  5
167D4
102
{ACAD_REACTORS
330
167C5
102
}
330
167C5
100
AcDbZombieObject
 90
      499
 91
      510
 93
      444
310
42D19858D95C185D1D195C9B90F409028333333333333E3BF0000000000000FB010790141107004050150841D405064090741402480A0350
1001
ACAD
1000
AcDbSavedByObjectVersion
1070
     0
  0
ACAD_PROXY_OBJECT
  5
167C6
102
{ACAD_REACTORS
330
167C5
102
}
330
167C5
100
AcDbZombieObject
 90
      499
 91
      510
 93
      388
310
41119B185D240901404333333333333E3BF0000000000000F9010740A41107004050150841D405064090741402480A1B50
1001
ACAD
1000
AcDbSavedByObjectVersion
1070
     0
  0
ACAD_PROXY_OBJECT
  5
167C7
102
{ACAD_REACTORS
330
167C5
102
}
330
167C5
100
AcDbZombieObject
 90
      499
 91
      510
 93
      476
310
43519B185D15DA5D1A115919D95CD0140901404333333333333E3BF0000000000000F9010740901411070040501600405405064090741402480A1B50
1001
ACAD
1000
AcDbSavedByObjectVersion
1070
     0
  0
ACAD_PROXY_OBJECT
  5
167C8
102
{ACAD_REACTORS
330
167C5
102
}
330
167C5
100
AcDbZombieObject
 90
      499
 91
      510
 93
      412
310
41D1DBDD5C985D5910240902404333333333333E3BF0000000000000F9010740A411070040501641D405064090741402480A1B50
1001
ACAD
1000
AcDbSavedByObjectVersion
1070
     0
  0
ACAD_PROXY_OBJECT
  5
167C9
102
{ACAD_REACTORS
330
167C5
102
}
330
167C5
100
AcDbZombieObject
 90
      499
 91
      510
 93
      500
310
4411DBDD5C985D5915DA5D1A115919D95CD0340902404333333333333E3BF0000000000000F9010740901411070040501600405405064090741402480A1B50
1001
ACAD
1000
AcDbSavedByObjectVersion
1070
     0
  0
ACAD_PROXY_OBJECT
  5
16CF4
102
{ACAD_REACTORS
330
167C5
102
}
330
167C5
100
AcDbZombieObject
 90
      499
 91
      510
 93
      476
310
41921A5919195B90640502408333333333333E3BF0000000000000FB01079024090700405020000000000001110200405405064090740C02480A0340
1001
ACAD
1000
AcDbSavedByObjectVersion
1070
     0
  0
ACAD_PROXY_OBJECT
  5
16CFA
102
{ACAD_REACTORS
330
167C5
102
}
330
167C5
100
AcDbZombieObject
 90
      499
 91
      510
 93
      428
310
42529A5D1D195C93D999914409028333333333333E3BF0000000000000FB010790141107004050150A41D405064090741402480A0350
1001
ACAD
1000
AcDbSavedByObjectVersion
1070
     0
  0
ACAD_PROXY_OBJECT
  5
167D3
102
{ACAD_REACTORS
330
167C5
102
}
330
167C5
100
AcDbZombieObject
 90
      499
 91
      510
 93
      444
310
42D31A5B995C185D1D195C9B90E409028333333333333E3BF0000000000000FB010790141107004050750841D405064090741402483A0350
1001
ACAD
1000
AcDbSavedByObjectVersion
1070
     0
  0
ACAD_PROXY_OBJECT
  5
17DA4
102
{ACAD_REACTORS
330
167C5
102
}
330
167C5
100
AcDbZombieObject
 90
      499
 91
      510
 93
      484
310
42135BD9195B1A5B99D0A409038333333333333E33F0000000000000F901074090290700405010000000000201990108421405064090741402480A1B40
1001
ACAD
1000
AcDbSavedByObjectVersion
1070
     0
  0
ACAD_PROXY_OBJECT
  5
16CFB
102
{ACAD_REACTORS
330
167C5
102
}
330
167C5
100
AcDbZombieObject
 90
      499
 91
      510
 93
      444
310
42D3DD995C9A185B99D3D999915409028333333333333E3BF0000000000000FB010790141107004050150941D405064090741402480A0350
1001
ACAD
1000
AcDbSavedByObjectVersion
1070
     0
  0
ACAD_PROXY_OBJECT
  5
167CF
102
{ACAD_REACTORS
330
167C5
102
}
330
167C5
100
AcDbZombieObject
 90
      499
 91
      510
 93
      420
310
425499585B1A5CDD1A58D08409028333333333333E3BF0000000000000FB01079019070040501508421405064090741402480A1B40
1001
ACAD
1000
AcDbSavedByObjectVersion
1070
     0
  0
ACAD_PROXY_OBJECT
  5
16CF9
102
{ACAD_REACTORS
330
167C5
102
}
330
167C5
100
AcDbZombieObject
 90
      499
 91
      510
 93
      420
310
4194DA1859195911B40902404333333333333E3BF0000000000000F9010740A41107004050150800405405064090840C02480A0B40
1001
ACAD
1000
AcDbSavedByObjectVersion
1070
     0
  0
ACAD_PROXY_OBJECT
  5
16CF8
102
{ACAD_REACTORS
330
167C5
102
}
330
167C5
100
AcDbZombieObject
 90
      499
 91
      510
 93
      516
310
4454DA18591959081DDA5D1A08195919D95CD1A40902404333333333333E3BF0000000000000F901074090140907004050250800405405064090740C02480A0B40
1001
ACAD
1000
AcDbSavedByObjectVersion
1070
     0
  0
ACAD_PROXY_OBJECT
  5
16CF5
102
{ACAD_REACTORS
330
167C5
102
}
330
167C5
100
AcDbZombieObject
 90
      499
 91
      510
 93
      532
310
4394DA1859195CC81BD98811DC985E5174090240C333333333333E3BF0000000000000FB01079024090741D01000000000000111010841D405064090740C02480A0340
1001
ACAD
1000
AcDbSavedByObjectVersion
1070
     0
  0
ACAD_PROXY_OBJECT
  5
16CF6
102
{ACAD_REACTORS
330
167C5
102
}
330
167C5
100
AcDbZombieObject
 90
      499
 91
      510
 93
      476
310
41D4DAD95D18DA1E51840502408333333333333E3BF0000000000000FB01079024090741D01000000000000111010B41D405064090741802480A0340
1001
ACAD
1000
AcDbSavedByObjectVersion
1070
     0
  0
ACAD_PROXY_OBJECT
  5
167D2
102
{ACAD_REACTORS
330
167C5
102
}
330
167C5
100
AcDbZombieObject
 90
      499
 91
      510
 93
      412
310
41D51A1A58DAD95B90D409028333333333333E3BF0000000000000FB010790141107004050150C41D405064090741402480A0350
1001
ACAD
1000
AcDbSavedByObjectVersion
1070
     0
  0
ACAD_PROXY_OBJECT
  5
16CF3
102
{ACAD_REACTORS
330
167C5
102
}
330
167C5
100
AcDbZombieObject
 90
      499
 91
      510
 93
      420
310
4255DA5C99599C985B595059028333333333333E3BF0000000000000FB0107901411070040501600405405064090740C02480A0340
1001
ACAD
1000
AcDbSavedByObjectVersion
1070
     0
  0
ACAD_PROXY_OBJECT
  5
16CF7
102
{ACAD_REACTORS
330
167C5
102
}
330
167C5
100
AcDbZombieObject
 90
      499
 91
      510
 93
      404
310
41560B54985E51940902404000000000000E03F0000000000000FB010740501907004050150841D405064090740C02480A1B40
1001
ACAD
1000
AcDbSavedByObjectVersion
1070
     0
  0
XRECORD
  5
17E82
102
{ACAD_REACTORS
330
17E81
102
}
330
17E81
100
AcDbXrecord
340
2D0
  0
XRECORD
  5
17E83
102
{ACAD_REACTORS
330
17E81
102
}
330
17E81
100
AcDbXrecord
340
2CF
  0
DICTIONARYVAR
  5
17E85
102
{ACAD_REACTORS
330
37
102
}
330
37
100
DictionaryVariables
280
     0
  1
1:1
  0
DICTIONARYVAR
  5
16CEE
102
{ACAD_REACTORS
330
37
102
}
330
37
100
DictionaryVariables
280
     0
  1
Standard
  0
DICTIONARYVAR
  5
4F1
102
{ACAD_REACTORS
330
37
102
}
330
37
100
DictionaryVariables
280
     0
  1
Standard
  0
DICTIONARYVAR
  5
17D7B
102
{ACAD_REACTORS
330
37
102
}
330
37
100
DictionaryVariables
280
     0
  1
Metric50
  0
DICTIONARYVAR
  5
17D7C
102
{ACAD_REACTORS
330
37
102
}
330
37
100
DictionaryVariables
280
     0
  1
Metric50
  0
DICTIONARYVAR
  5
38
102
{ACAD_REACTORS
330
37
102
}
330
37
100
DictionaryVariables
280
     0
  1
-1
  0
DICTIONARYVAR
  5
408
102
{ACAD_REACTORS
330
37
102
}
330
37
100
DictionaryVariables
280
     0
  1
2
  0
DICTIONARYVAR
  5
1891
102
{ACAD_REACTORS
330
37
102
}
330
37
100
DictionaryVariables
280
     0
  1
1
  0
DICTIONARYVAR
  5
16CF1
102
{ACAD_REACTORS
330
37
102
}
330
37
100
DictionaryVariables
280
     0
  1
0
  0
DICTIONARYVAR
  5
1895
102
{ACAD_REACTORS
330
37
102
}
330
37
100
DictionaryVariables
280
     0
  1
8
  0
DICTIONARYVAR
  5
1894
102
{ACAD_REACTORS
330
37
102
}
330
37
100
DictionaryVariables
280
     0
  1
1
  0
DICTIONARYVAR
  5
17D7F
102
{ACAD_REACTORS
330
37
102
}
330
37
100
DictionaryVariables
280
     0
  1
1
  0
DICTIONARYVAR
  5
17D80
102
{ACAD_REACTORS
330
37
102
}
330
37
100
DictionaryVariables
280
     0
  1
15
  0
DICTIONARYVAR
  5
17D7E
102
{ACAD_REACTORS
330
37
102
}
330
37
100
DictionaryVariables
280
     0
  1
0
  0
DICTIONARYVAR
  5
17D7D
102
{ACAD_REACTORS
330
37
102
}
330
37
100
DictionaryVariables
280
     0
  1
0
  0
DICTIONARYVAR
  5
1892
102
{ACAD_REACTORS
330
37
102
}
330
37
100
DictionaryVariables
280
     0
  1
8
  0
DICTIONARYVAR
  5
1893
102
{ACAD_REACTORS
330
37
102
}
330
37
100
DictionaryVariables
280
     0
  1
2
  0
DICTIONARYVAR
  5
409
102
{ACAD_REACTORS
330
37
102
}
330
37
100
DictionaryVariables
280
     0
  1

  0
DICTIONARYVAR
  5
17DA2
102
{ACAD_REACTORS
330
37
102
}
330
37
100
DictionaryVariables
280
     0
  1
0
  0
DICTIONARYVAR
  5
16CF0
102
{ACAD_REACTORS
330
37
102
}
330
37
100
DictionaryVariables
280
     0
  1
127
  0
DICTIONARYVAR
  5
17DA3
102
{ACAD_REACTORS
330
37
102
}
330
37
100
DictionaryVariables
280
     0
  1
2
  0
DICTIONARY
  5
17D79
330
17D3C
100
AcDbDictionary
1001
ACAD
1000
TREAT_AS_HARD
1070
     1
  0
DICTIONARY
  5
17E86
330
167B5
100
AcDbDictionary
  3
ACAD_XREC_ROUNDTRIP
360
17E87
1001
ACAD
1000
TREAT_AS_HARD
1070
     1
  0
DICTIONARY
  5
17E88
330
167AD
100
AcDbDictionary
  3
ACAD_XREC_ROUNDTRIP
360
17E89
1001
ACAD
1000
TREAT_AS_HARD
1070
     1
  0
DICTIONARY
  5
17E8A
330
167BD
100
AcDbDictionary
  3
ACAD_XREC_ROUNDTRIP
360
17E8B
1001
ACAD
1000
TREAT_AS_HARD
1070
     1
  0
DICTIONARY
  5
17D77
330
17D3A
100
AcDbDictionary
1001
ACAD
1000
TREAT_AS_HARD
1070
     1
  0
XRECORD
  5
17E87
102
{ACAD_REACTORS
330
17E86
102
}
330
17E86
100
AcDbXrecord
102
MATERIAL
148
0.0
149
0.0
149
0.0
 93
        0
 94
      127
282
     0
 72
     0
 77
     0
171
     0
175
     0
179
     0
273
     0
  0
XRECORD
  5
17E89
102
{ACAD_REACTORS
330
17E88
102
}
330
17E88
100
AcDbXrecord
102
MATERIAL
148
0.0
149
0.0
149
0.0
 93
        0
 94
      127
282
     0
 72
     0
 77
     0
171
     0
175
     0
179
     0
273
     0
  0
XRECORD
  5
17E8B
102
{ACAD_REACTORS
330
17E8A
102
}
330
17E8A
100
AcDbXrecord
102
MATERIAL
148
0.0
149
0.0
149
0.0
 93
        0
 94
      127
282
     0
 72
     0
 77
     0
171
     0
175
     0
179
     0
273
     0
  0
ENDSEC
  0
EOF
