  0
SECTION
  2
HEADER
  9
$ACADVER
  1
AC1012
  9
$DWGCODEPAGE
  3
ansi_1252
  9
$INSBASE
 10
0.0
 20
0.0
 30
0.0
  9
$EXTMIN
 10
2056.23263801699
 20
-1005.707802979901
 30
0.0
  9
$EXTMAX
 10
2776.899710639057
 20
-569.4735360340352
 30
0.0000000000000003
  9
$LIMMIN
 10
0.0
 20
0.0
  9
$LIMMAX
 10
420.0
 20
297.0
  9
$ORTHOMODE
 70
     0
  9
$REGENMODE
 70
     1
  9
$FILLMODE
 70
     1
  9
$QTEXTMODE
 70
     0
  9
$MIRRTEXT
 70
     0
  9
$DRAGMODE
 70
     2
  9
$LTSCALE
 40
0.5
  9
$OSMODE
 70
 14429
  9
$ATTMODE
 70
     1
  9
$TEXTSIZE
 40
4.0
  9
$TRACEWID
 40
1.0
  9
$TEXTSTYLE
  7
STANDARD
  9
$CLAYER
  8
1TEXT
  9
$CELTYPE
  6
BYLAYER
  9
$CECOLOR
 62
   256
  9
$CELTSCALE
 40
1.0
  9
$DELOBJ
 70
     1
  9
$DISPSILH
 70
     0
  9
$DIMSCALE
 40
2.0
  9
$DIMASZ
 40
2.0
  9
$DIMEXO
 40
0.0
  9
$DIMDLI
 40
7.0
  9
$DIMRND
 40
0.0
  9
$DIMDLE
 40
0.0
  9
$DIMEXE
 40
1.0
  9
$DIMTP
 40
0.0
  9
$DIMTM
 40
0.0
  9
$DIMTXT
 40
3.5
  9
$DIMCEN
 40
0.0
  9
$DIMTSZ
 40
0.0
  9
$DIMTOL
 70
     0
  9
$DIMLIM
 70
     0
  9
$DIMTIH
 70
     0
  9
$DIMTOH
 70
     0
  9
$DIMSE1
 70
     0
  9
$DIMSE2
 70
     0
  9
$DIMTAD
 70
     1
  9
$DIMZIN
 70
     8
  9
$DIMBLK
  1

  9
$DIMASO
 70
     1
  9
$DIMSHO
 70
     1
  9
$DIMPOST
  1
 
  9
$DIMAPOST
  1

  9
$DIMALT
 70
     0
  9
$DIMALTD
 70
     2
  9
$DIMALTF
 40
25.4
  9
$DIMLFAC
 40
1.0
  9
$DIMTOFL
 70
     1
  9
$DIMTVP
 40
0.0
  9
$DIMTIX
 70
     0
  9
$DIMSOXD
 70
     0
  9
$DIMSAH
 70
     1
  9
$DIMBLK1
  1
OPEN30
  9
$DIMBLK2
  1
OPEN30
  9
$DIMSTYLE
  2
NEWX10
  9
$DIMCLRD
 70
   256
  9
$DIMCLRE
 70
   256
  9
$DIMCLRT
 70
   201
  9
$DIMTFAC
 40
0.7
  9
$DIMGAP
 40
0.7
  9
$DIMJUST
 70
     0
  9
$DIMSD1
 70
     0
  9
$DIMSD2
 70
     0
  9
$DIMTOLJ
 70
     1
  9
$DIMTZIN
 70
     8
  9
$DIMALTZ
 70
     0
  9
$DIMALTTZ
 70
     0
  9
$DIMFIT
 70
     2
  9
$DIMUPT
 70
     0
  9
$DIMUNIT
 70
     2
  9
$DIMDEC
 70
     2
  9
$DIMTDEC
 70
     4
  9
$DIMALTU
 70
     2
  9
$DIMALTTD
 70
     2
  9
$DIMTXSTY
  7
STANDARD
  9
$DIMAUNIT
 70
     0
  9
$LUNITS
 70
     2
  9
$LUPREC
 70
     4
  9
$SKETCHINC
 40
1.0
  9
$FILLETRAD
 40
0.0
  9
$AUNITS
 70
     0
  9
$AUPREC
 70
     2
  9
$MENU
  1
acad
  9
$ELEVATION
 40
0.0
  9
$PELEVATION
 40
0.0
  9
$THICKNESS
 40
0.0
  9
$LIMCHECK
 70
     0
  9
$CHAMFERA
 40
1.0
  9
$CHAMFERB
 40
1.0
  9
$CHAMFERC
 40
20.0
  9
$CHAMFERD
 40
0.0
  9
$SKPOLY
 70
     0
  9
$TDCREATE
 40
2453033.690996817
  9
$TDUPDATE
 40
2458439.459746551
  9
$TDINDWG
 40
2.8009100347
  9
$TDUSRTIMER
 40
2.8009100347
  9
$USRTIMER
 70
     1
  9
$ANGBASE
 50
0.0
  9
$ANGDIR
 70
     0
  9
$PDMODE
 70
     0
  9
$PDSIZE
 40
0.0
  9
$PLINEWID
 40
0.0
  9
$COORDS
 70
     2
  9
$SPLFRAME
 70
     0
  9
$SPLINETYPE
 70
     6
  9
$SPLINESEGS
 70
     8
  9
$ATTDIA
 70
     0
  9
$ATTREQ
 70
     1
  9
$HANDLING
 70
     1
  9
$HANDSEED
  5
2541C
  9
$SURFTAB1
 70
     6
  9
$SURFTAB2
 70
     6
  9
$SURFTYPE
 70
     6
  9
$SURFU
 70
     6
  9
$SURFV
 70
     6
  9
$UCSNAME
  2

  9
$UCSORG
 10
0.0
 20
0.0
 30
0.0
  9
$UCSXDIR
 10
1.0
 20
0.0
 30
0.0
  9
$UCSYDIR
 10
0.0
 20
1.0
 30
0.0
  9
$PUCSNAME
  2

  9
$PUCSORG
 10
0.0
 20
0.0
 30
0.0
  9
$PUCSXDIR
 10
1.0
 20
0.0
 30
0.0
  9
$PUCSYDIR
 10
0.0
 20
1.0
 30
0.0
  9
$USERI1
 70
     0
  9
$USERI2
 70
     0
  9
$USERI3
 70
     0
  9
$USERI4
 70
     0
  9
$USERI5
 70
     0
  9
$USERR1
 40
0.0
  9
$USERR2
 40
0.0
  9
$USERR3
 40
0.0
  9
$USERR4
 40
0.0
  9
$USERR5
 40
0.0
  9
$WORLDVIEW
 70
     1
  9
$SHADEDGE
 70
     3
  9
$SHADEDIF
 70
    70
  9
$TILEMODE
 70
     1
  9
$MAXACTVP
 70
    48
  9
$PINSBASE
 10
0.0
 20
0.0
 30
0.0
  9
$PLIMCHECK
 70
     0
  9
$PEXTMIN
 10
1.000000000000000E+20
 20
1.000000000000000E+20
 30
1.000000000000000E+20
  9
$PEXTMAX
 10
-1.000000000000000E+20
 20
-1.000000000000000E+20
 30
-1.000000000000000E+20
  9
$PLIMMIN
 10
0.0
 20
0.0
  9
$PLIMMAX
 10
420.0
 20
297.0
  9
$UNITMODE
 70
     0
  9
$VISRETAIN
 70
     1
  9
$PLINEGEN
 70
     0
  9
$PSLTSCALE
 70
     1
  9
$TREEDEPTH
 70
  3020
  9
$PICKSTYLE
 70
     1
  9
$CMLSTYLE
  2
STANDARD
  9
$CMLJUST
 70
     0
  9
$CMLSCALE
 40
20.0
  9
$SAVEIMAGES
 70
     1
  0
ENDSEC
  0
SECTION
  2
CLASSES
  0
CLASS
  1
DICTIONARYVAR
  2
AcDbDictionaryVar
  3
ObjectDBX Classes
 90
        0
280
     0
281
     0
  0
CLASS
  1
IDBUFFER
  2
AcDbIdBuffer
  3
ObjectDBX Classes
 90
    32768
280
     0
281
     0
  0
CLASS
  1
LWPOLYLINE
  2
AcDbPolyline
  3
ObjectDBX Classes
 90
    32768
280
     0
281
     1
  0
CLASS
  1
ACDBDICTIONARYWDFLT
  2
AcDbDictionaryWithDefault
  3
ObjectDBX Classes
 90
    32768
280
     0
281
     0
  0
CLASS
  1
ACDBPLACEHOLDER
  2
AcDbPlaceHolder
  3
ObjectDBX Classes
 90
        0
280
     0
281
     0
  0
CLASS
  1
LAYOUT
  2
AcDbLayout
  3
ObjectDBX Classes
 90
        0
280
     0
281
     0
  0
CLASS
  1
TABLESTYLE
  2
AcDbTableStyle
  3
ObjectDBX Classes
 90
     4095
280
     0
281
     0
  0
CLASS
  1
SORTENTSTABLE
  2
AcDbSortentsTable
  3
ObjectDBX Classes
 90
    32768
280
     0
281
     0
  0
CLASS
  1
DIMASSOC
  2
AcDbDimAssoc
  3
"AcDbDimAssoc|Product Desc:     AcDim ARX App For Dimension|Company:          Autodesk, Inc.|WEB Address:      www.autodesk.com"
 90
        0
280
     0
281
     0
  0
CLASS
  1
MATERIAL
  2
AcDbMaterial
  3
ObjectDBX Classes
 90
     1153
280
     0
281
     0
  0
CLASS
  1
VISUALSTYLE
  2
AcDbVisualStyle
  3
ObjectDBX Classes
 90
     4095
280
     0
281
     0
  0
CLASS
  1
SCALE
  2
AcDbScale
  3
ObjectDBX Classes
 90
     1153
280
     0
281
     0
  0
CLASS
  1
MLEADERSTYLE
  2
AcDbMLeaderStyle
  3
ACDB_MLEADERSTYLE_CLASS
 90
     4095
280
     0
281
     0
  0
CLASS
  1
CELLSTYLEMAP
  2
AcDbCellStyleMap
  3
ObjectDBX Classes
 90
     1152
280
     0
281
     0
  0
CLASS
  1
EXACXREFPANELOBJECT
  2
ExAcXREFPanelObject
  3
EXAC_ESW
 90
     1025
280
     1
281
     0
  0
CLASS
  1
NPOCOLLECTION
  2
AcDbImpNonPersistentObjectsCollection
  3
ObjectDBX Classes
 90
     1153
280
     1
281
     0
  0
CLASS
  1
AEC_REFEDIT_STATUS_TRACKER
  2
AecDbRefEditStatusTracker
  3
AecArchBase80|Product Desc: Autodesk Architectural Desktop 2007 |Company: Autodesk,Inc. |WEB Address: www.autodesk.com
 90
      129
280
     1
281
     0
  0
CLASS
  1
ACDBSECTIONVIEWSTYLE
  2
AcDbSectionViewStyle
  3
ObjectDBX Classes
 90
     1025
280
     0
281
     0
  0
CLASS
  1
ACDBDETAILVIEWSTYLE
  2
AcDbDetailViewStyle
  3
ObjectDBX Classes
 90
     1025
280
     0
281
     0
  0
CLASS
  1
SUN
  2
AcDbSun
  3
SCENEOE
 90
     1153
280
     0
281
     0
  0
CLASS
  1
XRECORD
  2
AcDbXrecord
  3
ObjectDBX Classes
 90
    32768
280
     0
281
     0
  0
CLASS
  1
HATCH
  2
AcDbHatch
  3
ObjectDBX Classes
 90
    32768
280
     0
281
     1
  0
ENDSEC
  0
SECTION
  2
TABLES
  0
TABLE
  2
VPORT
  5
8
330
0
100
AcDbSymbolTable
 70
     1
  0
VPORT
  5
19DC2
330
8
100
AcDbSymbolTableRecord
100
AcDbViewportTableRecord
  2
*ACTIVE
 70
     0
 10
0.0
 20
0.0
 11
1.0
 21
1.0
 12
2416.566174328023
 22
-787.590669506968
 13
0.0
 23
0.0
 14
10.0
 24
10.0
 15
10.0
 25
10.0
 16
0.0
 26
0.0
 36
1.0
 17
0.0
 27
0.0
 37
0.0
 40
468.3778445102978
 41
2.143386897404203
 42
50.0
 43
0.0
 44
0.0
 50
0.0
 51
0.0
 71
    16
 72
   100
 73
     1
 74
     1
 75
     0
 76
     0
 77
     0
 78
     0
  0
ENDTAB
  0
TABLE
  2
LTYPE
  5
5
330
0
100
AcDbSymbolTable
 70
     3
  0
LTYPE
  5
12
330
5
100
AcDbSymbolTableRecord
100
AcDbLinetypeTableRecord
  2
BYBLOCK
 70
     0
  3

 72
    65
 73
     0
 40
0.0
  0
LTYPE
  5
13
330
5
100
AcDbSymbolTableRecord
100
AcDbLinetypeTableRecord
  2
BYLAYER
 70
     0
  3

 72
    65
 73
     0
 40
0.0
  0
LTYPE
  5
14
330
5
100
AcDbSymbolTableRecord
100
AcDbLinetypeTableRecord
  2
CONTINUOUS
 70
     0
  3
Solid line
 72
    65
 73
     0
 40
0.0
  0
LTYPE
  5
26
330
5
100
AcDbSymbolTableRecord
100
AcDbLinetypeTableRecord
  2
CENTER2
 70
     0
  3
Center (.5x) ___ _ ___ _ ___ _ ___ _ ___ _ ___
 72
    65
 73
     4
 40
28.575
 49
19.05
 74
     0
 49
-3.175
 74
     0
 49
3.175
 74
     0
 49
-3.175
 74
     0
  0
LTYPE
  5
100
330
5
100
AcDbSymbolTableRecord
100
AcDbLinetypeTableRecord
  2
PHANTOM2
 70
     0
  3
Phantom (0.5x) ___ _ _ ___ _ _ ___ _ _ ___ _ _
 72
    65
 73
     6
 40
31.75
 49
15.875
 74
     0
 49
-3.175
 74
     0
 49
3.175
 74
     0
 49
-3.175
 74
     0
 49
3.175
 74
     0
 49
-3.175
 74
     0
  0
ENDTAB
  0
TABLE
  2
LAYER
  5
2
102
{ACAD_XDICTIONARY
360
18FE8
102
}
330
0
100
AcDbSymbolTable
 70
     7
  0
LAYER
  5
E
102
{ACAD_XDICTIONARY
360
1A20A
102
}
330
2
100
AcDbSymbolTableRecord
100
AcDbLayerTableRecord
  2
0
 70
     0
 62
     7
  6
CONTINUOUS
  0
LAYER
  5
29
102
{ACAD_XDICTIONARY
360
1A20C
102
}
330
2
100
AcDbSymbolTableRecord
100
AcDbLayerTableRecord
  2
1CENTER
 70
     0
 62
     7
  6
CENTER2
  0
LAYER
  5
31
102
{ACAD_XDICTIONARY
360
1A20E
102
}
330
2
100
AcDbSymbolTableRecord
100
AcDbLayerTableRecord
  2
1TEXT
 70
     0
 62
     7
  6
CONTINUOUS
  0
LAYER
  5
101
102
{ACAD_XDICTIONARY
360
1A218
102
}
330
2
100
AcDbSymbolTableRecord
100
AcDbLayerTableRecord
  2
1DIM
 70
     0
 62
     7
  6
CONTINUOUS
  0
LAYER
  5
103
102
{ACAD_XDICTIONARY
360
1A21C
102
}
330
2
100
AcDbSymbolTableRecord
100
AcDbLayerTableRecord
  2
1PHANTOM
 70
     0
 62
     7
  6
PHANTOM2
  0
LAYER
  5
25F
102
{ACAD_XDICTIONARY
360
1A220
102
}
330
2
100
AcDbSymbolTableRecord
100
AcDbLayerTableRecord
  2
01
 70
     0
 62
     1
  6
CONTINUOUS
  0
LAYER
  5
26D
102
{ACAD_XDICTIONARY
360
1A23C
102
}
330
2
100
AcDbSymbolTableRecord
100
AcDbLayerTableRecord
  2
1HATCH
 70
     0
 62
     7
  6
CONTINUOUS
  0
ENDTAB
  0
TABLE
  2
STYLE
  5
3
330
0
100
AcDbSymbolTable
 70
     1
  0
STYLE
  5
F
330
3
100
AcDbSymbolTableRecord
100
AcDbTextStyleTableRecord
  2
STANDARD
 70
     0
 40
0.0
 41
1.0
 50
0.0
 71
     0
 42
4.0
  3
txt.shx
  4
extfont.shx
  0
ENDTAB
  0
TABLE
  2
VIEW
  5
6
330
0
100
AcDbSymbolTable
 70
     0
  0
ENDTAB
  0
TABLE
  2
UCS
  5
7
330
0
100
AcDbSymbolTable
 70
     0
  0
ENDTAB
  0
TABLE
  2
APPID
  5
9
330
0
100
AcDbSymbolTable
 70
    20
  0
APPID
  5
10
330
9
100
AcDbSymbolTableRecord
100
AcDbRegAppTableRecord
  2
ACAD
 70
     0
  0
APPID
  5
21
330
9
100
AcDbSymbolTableRecord
100
AcDbRegAppTableRecord
  2
DRAWINGVARIABLESXDATA
 70
     0
  0
APPID
  5
64
330
9
100
AcDbSymbolTableRecord
100
AcDbRegAppTableRecord
  2
CONTENTTABDATA
 70
     0
  0
APPID
  5
65
330
9
100
AcDbSymbolTableRecord
100
AcDbRegAppTableRecord
  2
CONTENTCURRENTTAB
 70
     0
  0
APPID
  5
66
330
9
100
AcDbSymbolTableRecord
100
AcDbRegAppTableRecord
  2
CONTENTBLOCKDESCRIPTION
 70
     0
  0
APPID
  5
67
330
9
100
AcDbSymbolTableRecord
100
AcDbRegAppTableRecord
  2
CONTENTBLOCKICON
 70
     0
  0
APPID
  5
68
330
9
100
AcDbSymbolTableRecord
100
AcDbRegAppTableRecord
  2
CONTENTLONGBLOCKNAME
 70
     0
  0
APPID
  5
5A9
330
9
100
AcDbSymbolTableRecord
100
AcDbRegAppTableRecord
  2
ACAD_PSEXT
 70
     0
  0
APPID
  5
18AC
330
9
100
AcDbSymbolTableRecord
100
AcDbRegAppTableRecord
  2
ACAD_DSTYLE_DIMTEXT_FILL
 70
     0
  0
APPID
  5
19E1A
330
9
100
AcDbSymbolTableRecord
100
AcDbRegAppTableRecord
  2
ACAD_MLEADERVER
 70
     0
  0
APPID
  5
1A2FA
330
9
100
AcDbSymbolTableRecord
100
AcDbRegAppTableRecord
  2
ACAD_DSTYLE_DIMRADIAL_EXTE
 70
     0
  0
APPID
  5
1DBC1
330
9
100
AcDbSymbolTableRecord
100
AcDbRegAppTableRecord
  2
ACADANNOTATIVE
 70
     0
  0
APPID
  5
1E991
330
9
100
AcDbSymbolTableRecord
100
AcDbRegAppTableRecord
  2
ACAD_EXEMPT_FROM_CAD_STAND
 70
     0
  0
APPID
  5
22BFE
330
9
100
AcDbSymbolTableRecord
100
AcDbRegAppTableRecord
  2
ACAD_NAV_VCDISPLAY
 70
     0
  0
APPID
  5
22BFF
330
9
100
AcDbSymbolTableRecord
100
AcDbRegAppTableRecord
  2
ACLAYERTOOLS
 70
     0
  0
APPID
  5
22C00
330
9
100
AcDbSymbolTableRecord
100
AcDbRegAppTableRecord
  2
GRADIENTCOLOR1ACI
 70
     0
  0
APPID
  5
22C01
330
9
100
AcDbSymbolTableRecord
100
AcDbRegAppTableRecord
  2
GRADIENTCOLOR2ACI
 70
     0
  0
APPID
  5
22C02
330
9
100
AcDbSymbolTableRecord
100
AcDbRegAppTableRecord
  2
ACAD_SPLINE_DATA
 70
     0
  0
APPID
  5
24382
330
9
100
AcDbSymbolTableRecord
100
AcDbRegAppTableRecord
  2
ACADSTRINGINFO
 70
     0
  0
APPID
  5
24383
330
9
100
AcDbSymbolTableRecord
100
AcDbRegAppTableRecord
  2
ACAD_OBJECT_CHANGE_GUID
 70
     0
  0
ENDTAB
  0
TABLE
  2
DIMSTYLE
  5
A
330
0
100
AcDbSymbolTable
 70
     2
  0
DIMSTYLE
105
48
330
A
100
AcDbSymbolTableRecord
100
AcDbDimStyleTableRecord
  2
NEWX10
 70
     0
  3
 
  4

  5

  6
OPEN30
  7
OPEN30
 40
1.0
 41
2.0
 42
0.0
 43
7.0
 44
1.0
 45
0.0
 46
0.0
 47
0.0
 48
0.0
140
3.5
141
0.0
142
0.0
143
25.4
144
1.0
145
0.0
146
0.7
147
0.7
 71
     0
 72
     0
 73
     0
 74
     0
 75
     0
 76
     0
 77
     1
 78
     8
170
     0
171
     2
172
     1
173
     1
174
     0
175
     0
176
   256
177
   256
178
   201
179
     2
270
     2
271
     2
272
     4
273
     2
274
     2
340
F
275
     0
280
     0
281
     0
282
     0
283
     1
284
     8
285
     0
286
     0
287
     2
288
     0
  0
DIMSTYLE
105
24381
330
A
100
AcDbSymbolTableRecord
100
AcDbDimStyleTableRecord
  2
ISO-25
 70
     0
  3

  4

  5

  6

  7

 40
1.0
 41
2.5
 42
0.625
 43
3.75
 44
1.25
 45
0.0
 46
0.0
 47
0.0
 48
0.0
140
2.5
141
2.5
142
0.0
143
0.03937007874016
144
1.0
145
0.0
146
1.0
147
0.625
 71
     0
 72
     0
 73
     0
 74
     0
 75
     0
 76
     0
 77
     1
 78
     8
170
     0
171
     3
172
     1
173
     0
174
     0
175
     0
176
     0
177
     0
178
     0
270
     2
271
     2
272
     2
273
     2
274
     3
340
F
275
     0
280
     0
281
     0
282
     0
283
     0
284
     8
285
     0
286
     0
287
     3
288
     0
  0
ENDTAB
  0
TABLE
  2
BLOCK_RECORD
  5
1
330
0
100
AcDbSymbolTable
 70
     1
  0
BLOCK_RECORD
  5
18
102
{ACAD_XDICTIONARY
360
6E9
102
}
330
1
100
AcDbSymbolTableRecord
100
AcDbBlockTableRecord
  2
*MODEL_SPACE
  0
BLOCK_RECORD
  5
15
102
{ACAD_XDICTIONARY
360
59B
102
}
330
1
100
AcDbSymbolTableRecord
100
AcDbBlockTableRecord
  2
*PAPER_SPACE
  0
BLOCK_RECORD
  5
42
330
1
100
AcDbSymbolTableRecord
100
AcDbBlockTableRecord
  2
_OPEN30
  0
ENDTAB
  0
ENDSEC
  0
SECTION
  2
BLOCKS
  0
BLOCK
  5
19
330
18
100
AcDbEntity
  8
0
100
AcDbBlockBegin
  2
*MODEL_SPACE
 70
     0
 10
0.0
 20
0.0
 30
0.0
  3
*MODEL_SPACE
  1

  0
ENDBLK
  5
1A
330
18
100
AcDbEntity
  8
0
100
AcDbBlockEnd
  0
BLOCK
  5
16
330
15
100
AcDbEntity
 67
     1
  8
0
100
AcDbBlockBegin
  2
*PAPER_SPACE
 70
     0
 10
0.0
 20
0.0
 30
0.0
  3
*PAPER_SPACE
  1

  0
ENDBLK
  5
17
330
15
100
AcDbEntity
 67
     1
  8
0
100
AcDbBlockEnd
  0
BLOCK
  5
43
330
42
100
AcDbEntity
  8
0
100
AcDbBlockBegin
  2
_OPEN30
 70
     0
 10
0.0
 20
0.0
 30
0.0
  3
_OPEN30
  1

  0
LINE
  5
44
330
42
100
AcDbEntity
  8
0
  6
BYBLOCK
 62
     0
100
AcDbLine
 10
-1.0
 20
0.26794919
 30
0.0
 11
0.0
 21
0.0
 31
0.0
  0
LINE
  5
45
330
42
100
AcDbEntity
  8
0
  6
BYBLOCK
 62
     0
100
AcDbLine
 10
0.0
 20
0.0
 30
0.0
 11
-1.0
 21
-0.26794919
 31
0.0
  0
LINE
  5
46
330
42
100
AcDbEntity
  8
0
  6
BYBLOCK
 62
     0
100
AcDbLine
 10
0.0
 20
0.0
 30
0.0
 11
-1.0
 21
0.0
 31
0.0
  0
ENDBLK
  5
47
330
42
100
AcDbEntity
  8
0
100
AcDbBlockEnd
  0
ENDSEC
  0
SECTION
  2
ENTITIES
  0
TEXT
  5
22318
330
18
100
AcDbEntity
  8
1TEXT
100
AcDbText
 10
2578.692234796076
 20
-607.9601475872007
 30
0.0
 40
15.9999999984
  1
SH-024-XX-3
 41
0.8
100
AcDbText
  0
LINE
  5
22319
330
18
100
AcDbEntity
  8
1DIM
100
AcDbLine
 10
2578.692234796076
 20
-631.9601475848008
 30
0.0
 11
2648.692234789076
 21
-631.9601475848007
 31
0.0
  0
LINE
  5
2231A
330
18
100
AcDbEntity
  8
1DIM
100
AcDbLine
 10
2648.692234789077
 20
-631.9601475848008
 30
0.0
 11
2718.692234782077
 21
-631.9601475848008
 31
0.0
  0
TEXT
  5
2231B
330
18
100
AcDbEntity
  8
1TEXT
100
AcDbText
 10
2596.408901460972
 20
-628.9601475851007
 30
0.0
 40
7.9999999992
  1
Finish
 72
     1
 11
2613.692234792577
 21
-628.9601475851007
 31
0.0
100
AcDbText
  0
LINE
  5
2231C
330
18
100
AcDbEntity
  8
1DIM
100
AcDbLine
 10
2578.692234796076
 20
-617.9601475862007
 30
0.0
 11
2648.692234789077
 21
-617.9601475862007
 31
0.0
  0
LINE
  5
2231D
330
18
100
AcDbEntity
  8
1DIM
100
AcDbLine
 10
2648.692234789077
 20
-617.9601475862007
 30
0.0
 11
2718.692234782077
 21
-617.9601475862008
 31
0.0
  0
TEXT
  5
2231E
330
18
100
AcDbEntity
  8
1TEXT
100
AcDbText
 10
2669.758901453637
 20
-628.9601475851007
 30
0.0
 40
7.9999999992
  1
\U+30B3\U+30FC\U+30C9
 72
     1
 11
2683.492234785597
 21
-628.9601475851007
 31
0.0
100
AcDbText
  0
LINE
  5
2231F
330
18
100
AcDbEntity
  8
1DIM
100
AcDbLine
 10
2648.692234789077
 20
-645.9601475834016
 30
0.0
 11
2718.692234782077
 21
-645.9601475834007
 31
0.0
  0
TEXT
  5
22320
330
18
100
AcDbEntity
  8
1TEXT
100
AcDbText
 10
2593.7181607205
 20
-642.9159376236745
 30
0.0
 40
7.9999999992
  1
Mirror
 72
     1
 11
2613.692234792577
 21
-642.9159376236745
 31
0.0
100
AcDbText
  0
LINE
  5
22321
330
18
100
AcDbEntity
  8
1DIM
100
AcDbLine
 10
2648.692234789077
 20
-617.9601475862007
 30
0.0
 11
2648.692234789077
 21
-659.9601475820015
 31
0.0
  0
LINE
  5
22323
330
18
100
AcDbEntity
  8
1DIM
100
AcDbLine
 10
2578.692234796076
 20
-617.9601475862007
 30
0.0
 11
2578.692234796076
 21
-659.9601475820007
 31
0.0
  0
TEXT
  5
22324
330
18
100
AcDbEntity
  8
1TEXT
100
AcDbText
 10
2654.092234788538
 20
-643.3888615509567
 30
0.0
 40
7.9999999992
  1
SH-024-XP-3
 41
0.7
 72
     1
 11
2683.492234785599
 21
-643.3888615509567
 31
0.0
100
AcDbText
  0
LINE
  5
22325
330
18
100
AcDbEntity
  8
1DIM
100
AcDbLine
 10
2578.692234796074
 20
-645.9601475834016
 30
0.0
 11
2648.692234789075
 21
-645.9601475834025
 31
0.0
  0
LINE
  5
2233A
330
18
100
AcDbEntity
  8
1DIM
100
AcDbLine
 10
2718.692234782077
 20
-617.9601475862007
 30
0.0
 11
2718.692234782077
 21
-659.9601475820007
 31
0.0
  0
LINE
  5
24AAA
330
18
100
AcDbEntity
  8
1CENTER
 48
0.5
100
AcDbLine
 10
2531.14989421162
 20
-690.7084850500279
 30
0.0
 11
2531.14989421162
 21
-632.7406247233204
 31
0.0
  0
LINE
  5
24AB6
330
18
100
AcDbEntity
  8
1PHANTOM
100
AcDbLine
 10
2056.23263801699
 20
-672.1081327827488
 30
0.0
 11
2554.64758224596
 21
-672.1081511249664
 31
0.0
  0
LINE
  5
24AB7
330
18
100
AcDbEntity
  8
1PHANTOM
100
AcDbLine
 10
2056.23263867433
 20
-664.1081327827488
 30
0.0
 11
2554.6475829033
 21
-664.1081511249664
 31
0.0
  0
SPLINE
  5
24AB8
330
18
100
AcDbEntity
  8
01
  6
CONTINUOUS
100
AcDbSpline
210
0.0
220
0.0
230
1.0
 70
    24
 71
     1
 72
     4
 73
     2
 74
     0
 42
0.000000001
 43
0.0000000001
 40
0.0
 40
0.0
 40
1.0
 40
1.0
 10
2103.801197041557
 20
-621.9335727303697
 30
0.0
 10
2112.656473548511
 20
-621.8848227084746
 30
0.0
  0
SPLINE
  5
24AB9
330
18
100
AcDbEntity
  8
01
  6
CONTINUOUS
100
AcDbSpline
210
0.0
220
0.0
230
1.0
 70
     8
 71
     3
 72
     9
 73
     5
 74
     0
 42
0.000000001
 43
0.0000000001
 40
0.0
 40
0.0
 40
0.0
 40
0.0
 40
0.4841931922131515
 40
1.0
 40
1.0
 40
1.0
 40
1.0
 10
2063.578134788637
 20
-618.5685386025144
 30
0.0
 10
2063.531383029287
 20
-626.020605796126
 30
0.0
 10
2063.435848386372
 20
-641.1597465247834
 30
0.0
 10
2063.390951159147
 20
-656.2991217766177
 30
0.0
 10
2063.367792863693
 20
-664.1081145971549
 30
0.0
  0
SPLINE
  5
24ABA
330
18
100
AcDbEntity
  8
01
  6
CONTINUOUS
100
AcDbSpline
210
0.0
220
0.0
230
1.0
 70
     8
 71
     3
 72
     9
 73
     5
 74
     0
 42
0.000000001
 43
0.0000000001
 40
0.0
 40
0.0
 40
0.0
 40
0.0
 40
0.4552135490304429
 40
0.9999999999999999
 40
0.9999999999999999
 40
0.9999999999999999
 40
0.9999999999999999
 10
2098.932681444242
 20
-664.1088247898589
 30
0.0
 10
2098.936668996024
 20
-658.5201424814951
 30
0.0
 10
2098.945428734809
 20
-646.2430863168266
 30
0.0
 10
2098.957139928661
 20
-633.9660326705635
 30
0.0
 10
2098.963520028396
 20
-627.2776601862535
 30
0.0
  0
SPLINE
  5
24ABB
330
18
100
AcDbEntity
  8
01
  6
CONTINUOUS
100
AcDbSpline
210
0.0
220
0.0
230
1.0
 70
    24
 71
     1
 72
     4
 73
     2
 74
     0
 42
0.000000001
 43
0.0000000001
 40
0.0
 40
0.0
 40
1.0
 40
1.0
 10
2098.96324200147
 20
-627.2788775663868
 30
0.0
 10
2098.965389283109
 20
-627.1019615794868
 30
0.0
  0
SPLINE
  5
24ABC
330
18
100
AcDbEntity
  8
01
  6
CONTINUOUS
100
AcDbSpline
210
0.0
220
0.0
230
1.0
 70
     8
 71
     3
 72
     9
 73
     5
 74
     0
 42
0.000000001
 43
0.0000000001
 40
0.0
 40
0.0
 40
0.0
 40
0.0
 40
0.4576246984040178
 40
1.0
 40
1.0
 40
1.0
 40
1.0
 10
2112.653742896632
 20
-596.3337554065621
 30
0.0
 10
2108.610273231867
 20
-596.3346128620543
 30
0.0
 10
2099.774496494147
 20
-596.3058711288614
 30
0.0
 10
2090.938700424229
 20
-596.283772229399
 30
0.0
 10
2086.146382865966
 20
-596.2717863321415
 30
0.0
  0
ARC
  5
24ABD
330
18
100
AcDbEntity
  8
01
  6
CONTINUOUS
100
AcDbCircle
 10
2112.650427773823
 20
-620.8850310408671
 30
0.0
 40
0.9999999999760856
100
AcDbArc
 50
270.3120546860188
 51
359.9999905843108
  0
ARC
  5
24ABE
330
18
100
AcDbEntity
  8
01
  6
CONTINUOUS
100
AcDbCircle
 10
2112.650431644099
 20
-597.3337491866079
 30
0.0
 40
0.9999999999997559
100
AcDbArc
 50
0.5023821261413071
 51
89.79791622989777
  0
SPLINE
  5
24ABF
330
18
100
AcDbEntity
  8
01
  6
CONTINUOUS
100
AcDbSpline
210
0.0
220
0.0
230
1.0
 70
    24
 71
     1
 72
     4
 73
     2
 74
     0
 42
0.000000001
 43
0.0000000001
 40
0.0
 40
0.0
 40
1.0
 40
1.0
 10
2103.471581036954
 20
-621.9472245399448
 30
0.0
 10
2103.85435612881
 20
-621.9332359534311
 30
0.0
  0
SPLINE
  5
24AC0
330
18
100
AcDbEntity
  8
01
  6
CONTINUOUS
100
AcDbSpline
210
0.0
220
0.0
230
1.0
 70
     8
 71
     3
 72
    12
 73
     8
 74
     0
 42
0.000000001
 43
0.0000000001
 40
0.0
 40
0.0
 40
0.0
 40
0.0
 40
0.2580142154606545
 40
0.5067508859295483
 40
0.6304452242915123
 40
0.7530455485282398
 40
1.0
 40
1.0
 40
1.0
 40
1.0
 10
2098.965694625004
 20
-627.1021986481247
 30
0.0
 10
2099.028021818753
 20
-626.4516566125895
 30
0.0
 10
2099.150435076463
 20
-625.1739644038499
 30
0.0
 10
2099.96668936782
 20
-623.7501652776701
 30
0.0
 10
2100.86976779012
 20
-622.8910527218251
 30
0.0
 10
2101.92556358894
 20
-622.2108545002558
 30
0.0
 10
2102.852344450967
 20
-622.0528131047032
 30
0.0
 10
2103.471664439398
 20
-621.9472021676667
 30
0.0
  0
SPLINE
  5
24AC1
330
18
100
AcDbEntity
  8
01
  6
CONTINUOUS
100
AcDbSpline
210
0.0
220
0.0
230
1.0
 70
     8
 71
     3
 72
    21
 73
    17
 74
     0
 42
0.000000001
 43
0.0000000001
 40
0.0
 40
0.0
 40
0.0
 40
0.0
 40
0.0698340243963918
 40
0.146200098171428
 40
0.2143757570349723
 40
0.2752072299861936
 40
0.3444187813391095
 40
0.3993873705575786
 40
0.445174469488405
 40
0.5028916493129989
 40
0.5747077461730252
 40
0.6599411479836961
 40
0.7335735795095267
 40
0.8153454453790994
 40
0.9036162832584411
 40
1.0
 40
1.0
 40
1.0
 40
1.0
 10
2086.146382865966
 20
-596.2717863321415
 30
0.0
 10
2085.28334385854
 20
-596.291405970882
 30
0.0
 10
2083.569465596405
 20
-596.3214676001372
 30
0.0
 10
2081.090339761583
 20
-596.7767977888035
 30
0.0
 10
2078.778193797275
 20
-597.4477818408706
 30
0.0
 10
2076.624903276414
 20
-598.3241613889769
 30
0.0
 10
2074.706950592088
 20
-599.3402197686229
 30
0.0
 10
2073.043235768096
 20
-600.4365603945663
 30
0.0
 10
2071.57601679598
 20
-601.5748458941272
 30
0.0
 10
2070.058167640611
 20
-602.9610140228907
 30
0.0
 10
2068.376819169156
 20
-604.8378183308488
 30
0.0
 10
2066.826253066368
 20
-607.0591602447386
 30
0.0
 10
2065.505602453986
 20
-609.5556119423419
 30
0.0
 10
2064.494335591548
 20
-612.2298266792824
 30
0.0
 10
2063.752999440578
 20
-615.2761296394384
 30
0.0
 10
2063.638105642425
 20
-617.4393877172771
 30
0.0
 10
2063.578134788637
 20
-618.5685386025144
 30
0.0
  0
SPLINE
  5
24AC2
330
18
100
AcDbEntity
  8
01
  6
CONTINUOUS
100
AcDbSpline
210
0.0
220
0.0
230
1.0
 70
    24
 71
     1
 72
     4
 73
     2
 74
     0
 42
0.000000001
 43
0.0000000001
 40
0.0
 40
0.0
 40
1.0
 40
1.0
 10
2499.643297732835
 20
-621.8848410814004
 30
0.0
 10
2508.498574223756
 20
-621.9335940137659
 30
0.0
  0
SPLINE
  5
24AC3
330
18
100
AcDbEntity
  8
01
  6
CONTINUOUS
100
AcDbSpline
210
0.0
220
0.0
230
1.0
 70
     8
 71
     3
 72
     9
 73
     5
 74
     0
 42
0.000000001
 43
0.0000000001
 40
0.0
 40
0.0
 40
0.0
 40
0.0
 40
0.4841831663556311
 40
1.0
 40
1.0
 40
1.0
 40
1.0
 10
2548.931979067331
 20
-664.1081493830658
 30
0.0
 10
2548.910318678288
 20
-656.7779192231225
 30
0.0
 10
2548.865582738361
 20
-641.638544975323
 30
0.0
 10
2548.770931561011
 20
-626.4993983469591
 30
0.0
 10
2548.721637582661
 20
-618.5685731060272
 30
0.0
  0
SPLINE
  5
24AC4
330
18
100
AcDbEntity
  8
01
  6
CONTINUOUS
100
AcDbSpline
210
0.0
220
0.0
230
1.0
 70
     8
 71
     3
 72
     9
 73
     5
 74
     0
 42
0.000000001
 43
0.0000000001
 40
0.0
 40
0.0
 40
0.0
 40
0.0
 40
0.4491748305398598
 40
1.0
 40
1.0
 40
1.0
 40
1.0
 10
2513.33625310718
 20
-627.2776832716532
 30
0.0
 10
2513.341562518438
 20
-632.7922266754591
 30
0.0
 10
2513.353382885246
 20
-645.0692801274068
 30
0.0
 10
2513.362212426031
 20
-657.3463361882183
 30
0.0
 10
2513.367075959329
 20
-664.1088476733836
 30
0.0
  0
SPLINE
  5
24AC5
330
18
100
AcDbEntity
  8
01
  6
CONTINUOUS
100
AcDbSpline
210
0.0
220
0.0
230
1.0
 70
    24
 71
     1
 72
     4
 73
     2
 74
     0
 42
0.000000001
 43
0.0000000001
 40
0.0
 40
0.0
 40
1.0
 40
1.0
 10
2513.334380283517
 20
-627.1019844522649
 30
0.0
 10
2513.336527507001
 20
-627.2789004398707
 30
0.0
  0
SPLINE
  5
24AC6
330
18
100
AcDbEntity
  8
01
  6
CONTINUOUS
100
AcDbSpline
210
0.0
220
0.0
230
1.0
 70
     8
 71
     3
 72
     9
 73
     5
 74
     0
 42
0.000000001
 43
0.0000000001
 40
0.0
 40
0.0
 40
0.0
 40
0.0
 40
0.4462536176735426
 40
1.0
 40
1.0
 40
1.0
 40
1.0
 10
2526.153397501598
 20
-596.2718003140559
 30
0.0
 10
2522.210391301903
 20
-596.2815909403122
 30
0.0
 10
2513.374594697606
 20
-596.3035305411628
 30
0.0
 10
2504.538816815325
 20
-596.3320124235375
 30
0.0
 10
2499.645827857707
 20
-596.3337737562157
 30
0.0
  0
ARC
  5
24AC7
330
18
100
AcDbEntity
  8
01
  6
CONTINUOUS
100
AcDbCircle
 10
2499.649343836159
 20
-620.8850494157865
 30
0.0
 40
1.000000000016548
100
AcDbArc
 50
179.9999905843108
 51
269.6331421241339
  0
ARC
  5
24AC8
330
18
100
AcDbEntity
  8
01
  6
CONTINUOUS
100
AcDbCircle
 10
2499.649347706428
 20
-597.3337675615272
 30
0.0
 40
0.9999999999997742
100
AcDbArc
 50
90.20167289268433
 51
179.9999905843108
  0
SPLINE
  5
24AC9
330
18
100
AcDbEntity
  8
01
  6
CONTINUOUS
100
AcDbSpline
210
0.0
220
0.0
230
1.0
 70
    24
 71
     1
 72
     4
 73
     2
 74
     0
 42
0.000000001
 43
0.0000000001
 40
0.0
 40
0.0
 40
1.0
 40
1.0
 10
2508.445415136614
 20
-621.9332572193504
 30
0.0
 10
2508.828190223873
 20
-621.9472459316727
 30
0.0
  0
SPLINE
  5
24ACA
330
18
100
AcDbEntity
  8
01
  6
CONTINUOUS
100
AcDbSpline
210
0.0
220
0.0
230
1.0
 70
     8
 71
     3
 72
    12
 73
     8
 74
     0
 42
0.000000001
 43
0.0000000001
 40
0.0
 40
0.0
 40
0.0
 40
0.0
 40
0.2469544514712369
 40
0.3695547757085521
 40
0.4932491140704072
 40
0.7419857845392004
 40
1.0
 40
1.0
 40
1.0
 40
1.0
 10
2508.828106821442
 20
-621.9472235593654
 30
0.0
 10
2509.447426775159
 20
-622.0528346999541
 30
0.0
 10
2510.374207585241
 20
-622.2108764001183
 30
0.0
 10
2511.430003160502
 20
-622.8910749686889
 30
0.0
 10
2512.333081300435
 20
-623.7501878213494
 30
0.0
 10
2513.149335123829
 20
-625.173987215812
 30
0.0
 10
2513.271747961601
 20
-626.451679464784
 30
0.0
 10
2513.334074941537
 20
-627.102221520801
 30
0.0
  0
SPLINE
  5
24ACB
330
18
100
AcDbEntity
  8
01
  6
CONTINUOUS
100
AcDbSpline
210
0.0
220
0.0
230
1.0
 70
     8
 71
     3
 72
    21
 73
    17
 74
     0
 42
0.000000001
 43
0.0000000001
 40
0.0
 40
0.0
 40
0.0
 40
0.0
 40
0.0833191274716541
 40
0.1585125311863562
 40
0.2266663458365933
 40
0.2878490365495725
 40
0.356474596846618
 40
0.4110339111551861
 40
0.4568849176070843
 40
0.5149738198825276
 40
0.5867017258289238
 40
0.672199168437436
 40
0.7461714897657632
 40
0.827450454042694
 40
0.9167365434304097
 40
1.0
 40
1.0
 40
1.0
 40
1.0
 10
2548.721637582661
 20
-618.5685731060272
 30
0.0
 10
2548.675965281719
 20
-617.5926214832049
 30
0.0
 10
2548.589074885153
 20
-615.7358982223719
 30
0.0
 10
2548.040554836808
 20
-613.1292092804593
 30
0.0
 10
2547.309724133174
 20
-610.8452064369645
 30
0.0
 10
2546.375964023995
 20
-608.7194450203548
 30
0.0
 10
2545.309508147517
 20
-606.837686188797
 30
0.0
 10
2544.172834145105
 20
-605.2146018195068
 30
0.0
 10
2542.993087748383
 20
-603.7800859736541
 30
0.0
 10
2541.561074374055
 20
-602.2996804049741
 30
0.0
 10
2539.63158324186
 20
-600.669048071633
 30
0.0
 10
2537.361249186818
 20
-599.1802867631392
 30
0.0
 10
2534.82767051853
 20
-597.9291152004567
 30
0.0
 10
2532.117779828019
 20
-596.9890805900592
 30
0.0
 10
2529.197462786065
 20
-596.3533994086989
 30
0.0
 10
2527.17395528683
 20
-596.3054783320782
 30
0.0
 10
2526.197515575871
 20
-596.2823541073209
 30
0.0
  0
SPLINE
  5
24ACE
330
18
100
AcDbEntity
  8
01
  6
CONTINUOUS
100
AcDbSpline
210
0.0
220
0.0
230
1.0
 70
    24
 71
     1
 72
     4
 73
     2
 74
     0
 42
0.000000001
 43
0.0000000001
 40
0.9381567830554391
 40
0.9381567830554391
 40
1.0
 40
1.0
 10
2113.650427734143
 20
-621.1263399339056
 30
0.0
 10
2498.649343796487
 20
-621.1263438466791
 30
0.0
  0
SPLINE
  5
24ACF
330
18
100
AcDbEntity
  8
01
  6
CONTINUOUS
100
AcDbSpline
210
0.0
220
0.0
230
1.0
 70
    24
 71
     1
 72
     4
 73
     2
 74
     0
 42
0.000000001
 43
0.0000000001
 40
0.0
 40
0.0
 40
0.0717556229265075
 40
0.0717556229265075
 10
2498.649347746505
 20
-597.0899746513074
 30
0.0
 10
2113.650431684171
 20
-597.0899113824305
 30
0.0
  0
LINE
  5
24AD2
330
18
100
AcDbEntity
  8
01
  6
CONTINUOUS
100
AcDbLine
 10
2098.162418716744
 20
-664.1081386573497
 30
0.0
 11
2064.137865275867
 21
-664.1081330659255
 31
0.0
  0
SPLINE
  5
24AD4
330
18
100
AcDbEntity
  8
01
  6
CONTINUOUS
100
AcDbSpline
210
0.0
220
0.0
230
1.0
 70
    24
 71
     3
 72
    12
 73
     8
 74
     0
 42
0.000000001
 43
0.0000000001
 40
0.0
 40
0.0
 40
0.0
 40
0.0
 40
0.0280463366242472
 40
0.288604474197894
 40
0.5491634537879255
 40
0.809723666557834
 40
0.9999999999999999
 40
0.9999999999999999
 40
0.9999999999999999
 40
0.9999999999999999
 10
2063.373055187029
 20
-664.1081329402406
 30
0.0
 10
2063.371835867065
 20
-664.1081329400405
 30
0.0
 10
2063.359288731162
 20
-664.1081329379778
 30
0.0
 10
2063.442961512004
 20
-664.1081329517257
 30
0.0
 10
2063.623901813577
 20
-664.1081329814625
 30
0.0
 10
2063.874141242802
 20
-664.1081330225862
 30
0.0
 10
2064.059594401177
 20
-664.1081330530616
 30
0.0
 10
2064.137865223046
 20
-664.1081330659255
 30
0.0
  0
SPLINE
  5
24AD5
330
18
100
AcDbEntity
  8
01
  6
CONTINUOUS
100
AcDbSpline
210
0.0
220
0.0
230
1.0
 70
    24
 71
     3
 72
    11
 73
     7
 74
     0
 42
0.000000001
 43
0.0000000001
 40
0.0
 40
0.0
 40
0.0
 40
0.0
 40
0.2605609496253222
 40
0.5211218875328143
 40
0.7816830811829819
 40
1.0
 40
1.0
 40
1.0
 40
1.0
 10
2098.162418717215
 20
-664.1081386573497
 30
0.0
 10
2098.26952124458
 20
-664.1081386749503
 30
0.0
 10
2098.483726294493
 20
-664.1081387101514
 30
0.0
 10
2098.733234074499
 20
-664.108138751155
 30
0.0
 10
2098.896646310771
 20
-664.1081387780106
 30
0.0
 10
2098.916150504218
 20
-664.1081387812156
 30
0.0
 10
2098.925042318871
 20
-664.1081387826781
 30
0.0
  0
LINE
  5
24AD8
330
18
100
AcDbEntity
  8
01
  6
CONTINUOUS
100
AcDbLine
 10
2548.161892127928
 20
-664.1081673854657
 30
0.0
 11
2514.13733868705
 21
-664.1081617940414
 31
0.0
  0
SPLINE
  5
24ADA
330
18
100
AcDbEntity
  8
01
  6
CONTINUOUS
100
AcDbSpline
210
0.0
220
0.0
230
1.0
 70
    24
 71
     3
 72
    12
 73
     8
 74
     0
 42
0.000000001
 43
0.0000000001
 40
0.0
 40
0.0
 40
0.0
 40
0.0
 40
0.0280466804882793
 40
0.2886047271248542
 40
0.54916361432526
 40
0.8097237347048106
 40
0.9999999999999999
 40
0.9999999999999999
 40
0.9999999999999999
 40
0.9999999999999999
 10
2548.926702177366
 20
-664.1081675111506
 30
0.0
 10
2548.927921514731
 20
-664.1081675113506
 30
0.0
 10
2548.940468686848
 20
-664.1081675134134
 30
0.0
 10
2548.856795908939
 20
-664.1081674996655
 30
0.0
 10
2548.675855584935
 20
-664.1081674699286
 30
0.0
 10
2548.425616161204
 20
-664.1081674288049
 30
0.0
 10
2548.240163002535
 20
-664.1081673983296
 30
0.0
 10
2548.161892180703
 20
-664.1081673854657
 30
0.0
  0
SPLINE
  5
24ADB
330
18
100
AcDbEntity
  8
01
  6
CONTINUOUS
100
AcDbSpline
210
0.0
220
0.0
230
1.0
 70
    24
 71
     3
 72
    11
 73
     7
 74
     0
 42
0.000000001
 43
0.0000000001
 40
0.0
 40
0.0
 40
0.0
 40
0.0
 40
0.2605609487525692
 40
0.5211218857905141
 40
0.781683078543811
 40
1.0
 40
1.0
 40
1.0
 40
1.0
 10
2514.137338686637
 20
-664.1081617940414
 30
0.0
 10
2514.030236159263
 20
-664.1081617764409
 30
0.0
 10
2513.816031109333
 20
-664.1081617412398
 30
0.0
 10
2513.566523329243
 20
-664.1081617002361
 30
0.0
 10
2513.403111092454
 20
-664.1081616733806
 30
0.0
 10
2513.383606898974
 20
-664.1081616701755
 30
0.0
 10
2513.374715084232
 20
-664.108161668713
 30
0.0
  0
SPLINE
  5
24ADC
330
18
100
AcDbEntity
  8
01
  6
CONTINUOUS
100
AcDbSpline
210
0.0
220
0.0
230
1.0
 70
     8
 71
     3
 72
     9
 73
     5
 74
     0
 42
0.000000001
 43
0.0000000001
 40
0.0
 40
0.0
 40
0.0
 40
0.0
 40
0.9772827038292424
 40
0.9999999999999999
 40
0.9999999999999999
 40
0.9999999999999999
 40
0.9999999999999999
 10
2526.153401305625
 20
-596.2732788724076
 30
0.0
 10
2526.168238825312
 20
-596.2600567405294
 30
0.0
 10
2526.183421248605
 20
-596.2465272553287
 30
0.0
 10
2526.198661554195
 20
-596.2544122364794
 30
0.0
 10
2526.199007772731
 20
-596.2545913619339
 30
0.0
  0
LINE
  5
24ADE
330
18
100
AcDbEntity
  8
01
  6
CONTINUOUS
100
AcDbLine
 10
2498.649343914469
 20
-620.4084093722464
 30
0.0
 11
2498.649347628524
 21
-597.8079091256128
 31
0.0
  0
LINE
  5
24ADF
330
18
100
AcDbEntity
  8
01
  6
CONTINUOUS
100
AcDbLine
 10
2113.650431566181
 20
-597.8078910793703
 30
0.0
 11
2113.650427852127
 21
-620.4083913258693
 31
0.0
  0
LINE
  5
24AE0
330
18
100
AcDbEntity
  8
01
  6
CONTINUOUS
100
AcDbLine
 10
2498.649343914469
 20
-620.4084093722464
 30
0.0
 11
2498.649343796487
 21
-621.1263438466791
 31
0.0
  0
LINE
  5
24AE1
330
18
100
AcDbEntity
  8
01
  6
CONTINUOUS
100
AcDbLine
 10
2113.650427852127
 20
-620.4083913258693
 30
0.0
 11
2113.650427734146
 21
-621.126325800171
 31
0.0
  0
LINE
  5
24AE2
330
18
100
AcDbEntity
  8
01
  6
CONTINUOUS
100
AcDbLine
 10
2498.649347628524
 20
-597.8079091256128
 30
0.0
 11
2498.649347746505
 21
-597.0899746513074
 31
0.0
  0
LINE
  5
24AE3
330
18
100
AcDbEntity
  8
01
  6
CONTINUOUS
100
AcDbLine
 10
2113.650431684163
 20
-597.0899566050649
 30
0.0
 11
2113.650431566181
 21
-597.8078910793703
 31
0.0
  0
ELLIPSE
  5
24B5D
330
18
100
AcDbEntity
  8
01
100
AcDbEllipse
 10
2531.14989445799
 20
-674.1137648364507
 30
0.0
 11
-0.3240992769832602
 21
48.01060564448114
 31
0.0
210
0.0
220
0.0
230
-1.0
 40
0.3749012805722478
 41
1.573210154921999
 42
4.715036741168256
  0
SPLINE
  5
24B5E
330
18
100
AcDbEntity
  8
1HATCH
100
AcDbSpline
210
0.0
220
0.0
230
1.0
 70
     8
 71
     3
 72
    36
 73
    32
 74
     0
 42
0.000000001
 43
0.0000000001
 40
1.570796326794897
 40
1.570796326794897
 40
1.570796326794897
 40
1.570796326794897
 40
1.719991533436842
 40
1.719991533436842
 40
2.017182133930982
 40
2.017182133930982
 40
2.314372734425122
 40
2.314372734425122
 40
2.611563334919262
 40
2.611563334919262
 40
2.814673081607023
 40
2.814673081607023
 40
3.017782828294785
 40
3.017782828294785
 40
3.187839232009291
 40
3.187839232009291
 40
3.357895635723797
 40
3.357895635723797
 40
3.527952039438303
 40
3.527952039438303
 40
3.698008443152809
 40
3.698008443152809
 40
3.868064846867315
 40
3.868064846867315
 40
4.142388598795581
 40
4.142388598795581
 40
4.416712350723846
 40
4.416712350723846
 40
4.691036102652111
 40
4.691036102652111
 40
4.71238898038469
 40
4.71238898038469
 40
4.71238898038469
 40
4.71238898038469
 10
2548.37986191497
 20
-674.1083894193376
 30
0.0
 10
2548.380602258912
 20
-676.4814335522584
 30
0.0
 10
2548.314837942092
 20
-678.8544797505652
 30
0.0
 10
2547.921381962558
 20
-685.8745381706445
 30
0.0
 10
2547.397087387506
 20
-690.4410126947056
 30
0.0
 10
2545.872180859519
 20
-698.9536872017685
 30
0.0
 10
2544.871529027143
 20
-702.8988818956001
 30
0.0
 10
2542.490343930623
 20
-709.8111666501333
 30
0.0
 10
2541.109106328387
 20
-712.7771417393902
 30
0.0
 10
2538.59244551714
 20
-716.7127219823393
 30
0.0
 10
2537.51826418911
 20
-718.0172174113519
 30
0.0
 10
2535.33715624871
 20
-719.9909144981626
 30
0.0
 10
2534.233374036474
 20
-720.6588434371093
 30
0.0
 10
2532.233490859896
 20
-721.3232900753115
 30
0.0
 10
2531.332038670555
 20
-721.4155247070136
 30
0.0
 10
2529.521560473022
 20
-721.1926364852494
 30
0.0
 10
2528.608843305472
 20
-720.8753066442347
 30
0.0
 10
2526.772120212148
 20
-719.7996742332522
 30
0.0
 10
2525.850260913433
 20
-719.040127717593
 30
0.0
 10
2524.043870736597
 20
-717.0815229554042
 30
0.0
 10
2523.159955984579
 20
-715.883201980812
 30
0.0
 10
2521.470672405133
 20
-713.0830326682677
 30
0.0
 10
2520.665222672995
 20
-711.4814765869647
 30
0.0
 10
2518.702659902061
 20
-706.834565442308
 30
0.0
 10
2517.63353108496
 20
-703.5048813050613
 30
0.0
 10
2515.871299194385
 20
-696.1825341886266
 30
0.0
 10
2515.178070468936
 20
-692.1905024708846
 30
0.0
 10
2514.222719870403
 20
-683.8489820768133
 30
0.0
 10
2513.96061585301
 20
-679.5002251319362
 30
0.0
 10
2513.921498578979
 20
-674.798401881833
 30
0.0
 10
2513.920032959331
 20
-674.4587712803528
 30
0.0
 10
2513.91992700101
 20
-674.1191402535602
 30
0.0
  0
LINE
  5
24B5F
330
18
100
AcDbEntity
  8
01
 48
0.5
100
AcDbLine
 10
2549.149861877497
 20
-674.1081491942219
 30
0.0
 11
2513.149861877497
 21
-674.1081491942219
 31
0.0
  0
LINE
  5
24B60
330
18
100
AcDbEntity
  8
01
 48
0.5
100
AcDbLine
 10
2513.149861877497
 20
-674.1081491942219
 30
0.0
 11
2513.149861877497
 21
-672.1081491942219
 31
0.0
  0
LINE
  5
24B61
330
18
100
AcDbEntity
  8
1HATCH
 48
0.5
100
AcDbLine
 10
2513.919861877497
 20
-674.1081491942219
 30
0.0
 11
2513.919861877497
 21
-672.1081491942219
 31
0.0
  0
LINE
  5
24B62
330
18
100
AcDbEntity
  8
01
 48
0.5
100
AcDbLine
 10
2513.149861877497
 20
-672.1081491942219
 30
0.0
 11
2549.149861877497
 21
-672.1081491942219
 31
0.0
  0
LINE
  5
24B63
330
18
100
AcDbEntity
  8
01
 48
0.5
100
AcDbLine
 10
2549.149861877497
 20
-672.1081491942219
 30
0.0
 11
2549.149861877497
 21
-674.1081491942219
 31
0.0
  0
LINE
  5
24B64
330
18
100
AcDbEntity
  8
1HATCH
 48
0.5
100
AcDbLine
 10
2548.379861877497
 20
-672.1081491942219
 30
0.0
 11
2548.379861877497
 21
-674.1081491942219
 31
0.0
  0
LINE
  5
24B65
330
18
100
AcDbEntity
  8
01
100
AcDbLine
 10
2099.149859906526
 20
-686.6669476946555
 30
0.0
 11
2099.149861877497
 21
-674.1081320052327
 31
0.0
  0
LINE
  5
24B67
330
18
100
AcDbEntity
  8
01
100
AcDbLine
 10
2063.149926545742
 20
-674.1081320052327
 30
0.0
 11
2063.149926545741
 21
-686.6669476834578
 31
0.0
  0
ARC
  5
24B69
330
18
100
AcDbEntity
  8
01
100
AcDbCircle
 10
2081.149893321037
 20
-398.6015872056815
 30
0.0
 40
289.5665447995525
100
AcDbArc
 50
266.6226485494784
 51
273.3773514127282
  0
ARC
  5
24B6B
330
18
100
AcDbEntity
  8
01
100
AcDbCircle
 10
2064.149926545741
 20
-686.6669476834578
 30
0.0
 40
1.0
100
AcDbArc
 50
180.0
 51
266.6226485494784
  0
ARC
  5
24B6D
330
18
100
AcDbEntity
  8
01
100
AcDbCircle
 10
2098.149859906526
 20
-686.6669476946555
 30
0.0
 40
1.0
100
AcDbArc
 50
273.3773514127282
 51
0.0
  0
LINE
  5
24B6F
330
18
100
AcDbEntity
  8
1CENTER
100
AcDbLine
 10
2081.14989421162
 20
-637.1633555842783
 30
0.0
 11
2081.14989421162
 21
-690.5457119865824
 31
0.0
  0
LINE
  5
24B70
330
18
100
AcDbEntity
  8
01
100
AcDbLine
 10
2063.149926545742
 20
-674.1081320052327
 30
0.0
 11
2099.149861877497
 21
-674.1081320052327
 31
0.0
  0
LINE
  5
24B71
330
18
100
AcDbEntity
  8
1DIM
100
AcDbLine
 10
2063.149926545741
 20
-686.6669476834578
 30
0.0
 11
2099.149859906526
 21
-686.6669476946046
 31
0.0
  0
LINE
  5
24B72
330
18
100
AcDbEntity
  8
01
 48
0.5
100
AcDbLine
 10
2099.149861877496
 20
-674.1081348301342
 30
0.0
 11
2063.149861877496
 21
-674.1081348301342
 31
0.0
  0
LINE
  5
24B73
330
18
100
AcDbEntity
  8
01
 48
0.5
100
AcDbLine
 10
2063.149861877496
 20
-674.1081348301342
 30
0.0
 11
2063.149861877496
 21
-672.1081348301342
 31
0.0
  0
LINE
  5
24B75
330
18
100
AcDbEntity
  8
01
 48
0.5
100
AcDbLine
 10
2063.149861877496
 20
-672.1081348301342
 30
0.0
 11
2099.149861877496
 21
-672.1081348301342
 31
0.0
  0
LINE
  5
24B76
330
18
100
AcDbEntity
  8
01
 48
0.5
100
AcDbLine
 10
2099.149861877496
 20
-672.1081348301342
 30
0.0
 11
2099.149861877496
 21
-674.1081348301342
 31
0.0
  0
LINE
  5
24D6B
330
18
100
AcDbEntity
  8
1PHANTOM
100
AcDbLine
 10
2520.649894457991
 20
-674.1137648364489
 30
0.0
 11
2520.649894457991
 21
-684.1137648364489
 31
0.0
  0
LINE
  5
24D6C
330
18
100
AcDbEntity
  8
1PHANTOM
100
AcDbLine
 10
2521.649894457991
 20
-685.1137648364489
 30
0.0
 11
2540.649894457989
 21
-685.1137648364489
 31
0.0
  0
LINE
  5
24D6D
330
18
100
AcDbEntity
  8
1PHANTOM
100
AcDbLine
 10
2520.649894457991
 20
-684.1137648364489
 30
0.0
 11
2521.649894457991
 21
-685.1137648364489
 31
0.0
  0
LINE
  5
24D6E
330
18
100
AcDbEntity
  8
1PHANTOM
100
AcDbLine
 10
2541.649894457989
 20
-684.1137648364489
 30
0.0
 11
2541.649894457989
 21
-674.1137648364489
 31
0.0
  0
LINE
  5
24D6F
330
18
100
AcDbEntity
  8
1PHANTOM
100
AcDbLine
 10
2540.649894457989
 20
-685.1137648364489
 30
0.0
 11
2541.649894457989
 21
-684.1137648364489
 31
0.0
  0
LINE
  5
24D70
330
18
100
AcDbEntity
  8
1PHANTOM
100
AcDbLine
 10
2520.649894457991
 20
-684.1137648364489
 30
0.0
 11
2541.649894457989
 21
-684.1137648364489
 31
0.0
  0
LINE
  5
24D7D
330
18
100
AcDbEntity
  8
1PHANTOM
100
AcDbLine
 10
2070.64989421162
 20
-674.1081320052327
 30
0.0
 11
2070.64989421162
 21
-684.1081320052327
 31
0.0
  0
LINE
  5
24D7E
330
18
100
AcDbEntity
  8
1PHANTOM
100
AcDbLine
 10
2071.64989421162
 20
-685.1081320052327
 30
0.0
 11
2090.649894211619
 21
-685.1081320052327
 31
0.0
  0
LINE
  5
24D7F
330
18
100
AcDbEntity
  8
1PHANTOM
100
AcDbLine
 10
2070.64989421162
 20
-684.1081320052327
 30
0.0
 11
2071.64989421162
 21
-685.1081320052327
 31
0.0
  0
LINE
  5
24D80
330
18
100
AcDbEntity
  8
1PHANTOM
100
AcDbLine
 10
2091.649894211619
 20
-684.1081320052327
 30
0.0
 11
2091.649894211619
 21
-674.1081320052327
 31
0.0
  0
LINE
  5
24D81
330
18
100
AcDbEntity
  8
1PHANTOM
100
AcDbLine
 10
2090.649894211619
 20
-685.1081320052327
 30
0.0
 11
2091.649894211619
 21
-684.1081320052327
 31
0.0
  0
LINE
  5
24D82
330
18
100
AcDbEntity
  8
1PHANTOM
100
AcDbLine
 10
2070.64989421162
 20
-684.1081320052328
 30
0.0
 11
2091.649894211619
 21
-684.1081320052327
 31
0.0
  0
LINE
  5
24DAB
330
18
100
AcDbEntity
  8
1HATCH
100
AcDbLine
 10
2531.14989421162
 20
-917.4866667718472
 30
0.0
 11
2531.14989421162
 21
-917.4866667718472
 31
0.0
  0
ARC
  5
24DAC
330
18
100
AcDbEntity
  8
01
100
AcDbCircle
 10
2531.14989421162
 20
-963.6082433879676
 30
0.0
 40
74.0
100
AcDbArc
 50
76.70781415548049
 51
103.2921858445195
  0
ARC
  5
24DAD
330
18
100
AcDbEntity
  8
01
100
AcDbCircle
 10
2531.14989421162
 20
-907.3082433879674
 30
0.0
 40
10.0
100
AcDbArc
 50
270.0
 51
318.523145928333
  0
ARC
  5
24DAE
330
18
100
AcDbEntity
  8
01
100
AcDbCircle
 10
2490.847495051333
 20
-877.6592094060595
 30
0.0
 40
60.0
100
AcDbArc
 50
322.8044818669859
 51
345.367288421546
  0
ARC
  5
24DAF
330
18
100
AcDbEntity
  8
01
100
AcDbCircle
 10
2547.933835959605
 20
-892.5638959745368
 30
0.0
 40
1.0
100
AcDbArc
 50
345.367288421546
 51
76.70781415548049
  0
ARC
  5
24DB0
330
18
100
AcDbEntity
  8
01
100
AcDbCircle
 10
2531.14989421162
 20
-907.3082433879674
 30
0.0
 40
10.0
100
AcDbArc
 50
221.4768540717086
 51
270.0
  0
ARC
  5
24DB1
330
18
100
AcDbEntity
  8
01
100
AcDbCircle
 10
2571.452293371907
 20
-877.6592094060595
 30
0.0
 40
60.0
100
AcDbArc
 50
194.632711578454
 51
217.1955181330141
  0
ARC
  5
24DB2
330
18
100
AcDbEntity
  8
01
100
AcDbCircle
 10
2514.365952463635
 20
-892.5638959745368
 30
0.0
 40
1.0
100
AcDbArc
 50
103.2921858445195
 51
194.632711578454
  0
LINE
  5
24DBE
330
18
100
AcDbEntity
  8
1CENTER
100
AcDbLine
 10
2531.14989421162
 20
-919.1877852066028
 30
0.0
 11
2531.14989421162
 21
-885.3282259735826
 31
0.0
  0
SPLINE
  5
24DC0
330
18
100
AcDbEntity
  8
01
  6
CONTINUOUS
100
AcDbSpline
210
0.0
220
0.0
230
1.0
 70
     8
 71
     3
 72
    15
 73
    11
 74
     0
 42
0.000000001
 43
0.0000000001
 40
0.0
 40
0.0
 40
0.0
 40
0.0
 40
0.1756397337980675
 40
0.3264928794408056
 40
0.4500866319286478
 40
0.5460529581207823
 40
0.6256920363214763
 40
0.7262261501731234
 40
0.8512201514897646
 40
1.0
 40
1.0
 40
1.0
 40
1.0
 10
2535.827464767866
 20
-889.7403538580788
 30
0.0
 10
2535.092545011731
 20
-889.7049046326451
 30
0.0
 10
2533.726418668051
 20
-889.6390088388275
 30
0.0
 10
2531.184063016408
 20
-889.6050276377596
 30
0.0
 10
2528.91641905721
 20
-889.5944360371091
 30
0.0
 10
2527.017008353221
 20
-889.5939235497995
 30
0.0
 10
2525.399554033881
 20
-889.5938726931076
 30
0.0
 10
2523.342474152375
 20
-889.5937247791976
 30
0.0
 10
2520.586896167306
 20
-889.5936112951044
 30
0.0
 10
2518.44933444495
 20
-889.5936754636227
 30
0.0
 10
2517.287696438125
 20
-889.5937103354067
 30
0.0
  0
SPLINE
  5
24DC2
330
18
100
AcDbEntity
  8
01
  6
CONTINUOUS
100
AcDbSpline
210
0.0
220
0.0
230
1.0
 70
    24
 71
     1
 72
     4
 73
     2
 74
     0
 42
0.000000001
 43
0.0000000001
 40
0.0
 40
0.0
 40
1.0
 40
1.0
 10
2517.41746939217
 20
-889.5942586201368
 30
0.0
 10
2499.667466587511
 20
-889.5942586201331
 30
0.0
  0
ARC
  5
24DC3
330
18
100
AcDbEntity
  8
01
  6
CONTINUOUS
100
AcDbCircle
 10
2499.667466587511
 20
-890.5942586201331
 30
0.0
 40
1.000000000000028
100
AcDbArc
 50
90.0
 51
180.0
  0
SPLINE
  5
24DC4
330
18
100
AcDbEntity
  8
01
  6
CONTINUOUS
100
AcDbSpline
210
0.0
220
0.0
230
1.0
 70
    24
 71
     1
 72
     4
 73
     2
 74
     0
 42
0.000000001
 43
0.0000000001
 40
0.0
 40
0.0
 40
1.0
 40
1.0
 10
2499.642283797052
 20
-902.396083629194
 30
0.0
 10
2515.674896216148
 20
-902.5689320639708
 30
0.0
  0
SPLINE
  5
24DC5
330
18
100
AcDbEntity
  8
01
  6
CONTINUOUS
100
AcDbSpline
210
0.0
220
0.0
230
1.0
 70
     8
 71
     3
 72
    13
 73
     9
 74
     0
 42
0.000000001
 43
0.0000000001
 40
0.0
 40
0.0
 40
0.0
 40
0.0
 40
0.239410861623705
 40
0.3683315019501708
 40
0.5000028943229606
 40
0.6316738295704936
 40
0.7605931755614981
 40
1.0
 40
1.0
 40
1.0
 40
1.0
 10
2498.667466587511
 20
-901.3877549128251
 30
0.0
 10
2498.679825689931
 20
-901.5139621184157
 30
0.0
 10
2498.698840060149
 20
-901.7081307926151
 30
0.0
 10
2498.822138218488
 20
-901.9424777107292
 30
0.0
 10
2498.950461585975
 20
-902.1040147983354
 30
0.0
 10
2499.11030442477
 20
-902.2344402067488
 30
0.0
 10
2499.343012617157
 20
-902.3607917217182
 30
0.0
 10
2499.536908348326
 20
-902.3823451995072
 30
0.0
 10
2499.662937843372
 20
-902.3963546565778
 30
0.0
  0
SPLINE
  5
24DC6
330
18
100
AcDbEntity
  8
01
  6
CONTINUOUS
100
AcDbSpline
210
0.0
220
0.0
230
1.0
 70
    24
 71
     1
 72
     4
 73
     2
 74
     0
 42
0.000000001
 43
0.0000000001
 40
0.0
 40
0.0
 40
1.0
 40
1.0
 10
2515.674746500451
 20
-902.5689278695304
 30
0.0
 10
2516.697125795007
 20
-902.5839612318473
 30
0.0
  0
SPLINE
  5
24DCB
330
18
100
AcDbEntity
  8
01
  6
CONTINUOUS
100
AcDbSpline
210
0.0
220
0.0
230
1.0
 70
     8
 71
     3
 72
    15
 73
    11
 74
     0
 42
0.000000001
 43
0.0000000001
 40
0.0
 40
0.0
 40
0.0
 40
0.0
 40
0.1487798489527576
 40
0.2737738507404297
 40
0.3743079650839722
 40
0.4539470437052116
 40
0.5499133700313067
 40
0.673507122270317
 40
0.824360267238214
 40
1.0
 40
1.0
 40
1.0
 40
1.0
 10
2095.012097735597
 20
-889.5937103354067
 30
0.0
 10
2093.850459731579
 20
-889.5936754636227
 30
0.0
 10
2091.712898013611
 20
-889.5936112951044
 30
0.0
 10
2088.957320033783
 20
-889.5937247791976
 30
0.0
 10
2086.900240154375
 20
-889.593872693104
 30
0.0
 10
2085.282785832495
 20
-889.5939235498067
 30
0.0
 10
2083.383375149045
 20
-889.5944360370218
 30
0.0
 10
2081.115731230265
 20
-889.6050276365991
 30
0.0
 10
2078.573375644176
 20
-889.6390088343455
 30
0.0
 10
2077.207249357024
 20
-889.7049046218731
 30
0.0
 10
2076.472329631782
 20
-889.740353843898
 30
0.0
  0
SPLINE
  5
24DCC
330
18
100
AcDbEntity
  8
01
  6
CONTINUOUS
100
AcDbSpline
210
0.0
220
0.0
230
1.0
 70
    24
 71
     1
 72
     4
 73
     2
 74
     0
 42
0.000000001
 43
0.0000000001
 40
0.0
 40
0.0
 40
1.0
 40
1.0
 10
2112.632327586168
 20
-889.5942586201331
 30
0.0
 10
2094.882320656305
 20
-889.5942586201368
 30
0.0
  0
ARC
  5
24DCD
330
18
100
AcDbEntity
  8
01
  6
CONTINUOUS
100
AcDbCircle
 10
2112.632327586168
 20
-890.5942586201368
 30
0.0
 40
1.000000000000199
100
AcDbArc
 50
0.0
 51
90.0
  0
SPLINE
  5
24DCE
330
18
100
AcDbEntity
  8
01
  6
CONTINUOUS
100
AcDbSpline
210
0.0
220
0.0
230
1.0
 70
    24
 71
     1
 72
     4
 73
     2
 74
     0
 42
0.000000001
 43
0.0000000001
 40
0.0
 40
0.0
 40
1.0
 40
1.0
 10
2096.62481563121
 20
-902.568932714998
 30
0.0
 10
2112.657510376628
 20
-902.396083629194
 30
0.0
  0
SPLINE
  5
24DCF
330
18
100
AcDbEntity
  8
01
  6
CONTINUOUS
100
AcDbSpline
210
0.0
220
0.0
230
1.0
 70
     8
 71
     3
 72
    13
 73
     9
 74
     0
 42
0.000000001
 43
0.0000000001
 40
0.0
 40
0.0
 40
0.0
 40
0.0
 40
0.186698465849144
 40
0.3729774869710682
 40
0.4640670155014883
 40
0.555633046221609
 40
0.7461083977566896
 40
1.0
 40
1.0
 40
1.0
 40
1.0
 10
2112.636856129212
 20
-902.3963546610235
 30
0.0
 10
2112.728710022817
 20
-902.3887116846768
 30
0.0
 10
2112.912211447158
 20
-902.3734429030142
 30
0.0
 10
2113.127679083995
 20
-902.2727078517223
 30
0.0
 10
2113.269233090146
 20
-902.1708317368852
 30
0.0
 10
2113.3859678843
 20
-902.0592935135269
 30
0.0
 10
2113.514260605251
 20
-901.8953639881861
 30
0.0
 10
2113.521018857979
 20
-901.7687924289698
 30
0.0
 10
2113.524880224355
 20
-901.6964750442153
 30
0.0
  0
SPLINE
  5
24DD0
330
18
100
AcDbEntity
  8
01
  6
CONTINUOUS
100
AcDbSpline
210
0.0
220
0.0
230
1.0
 70
    24
 71
     1
 72
     4
 73
     2
 74
     0
 42
0.000000001
 43
0.0000000001
 40
0.0
 40
0.0
 40
1.0
 40
1.0
 10
2095.602668374316
 20
-902.5839612322548
 30
0.0
 10
2096.62504767394
 20
-902.5689278700361
 30
0.0
  0
SPLINE
  5
24DD6
330
18
100
AcDbEntity
  8
01
  6
CONTINUOUS
100
AcDbSpline
210
0.0
220
0.0
230
1.0
 70
    24
 71
     1
 72
     4
 73
     2
 74
     0
 42
0.000000001
 43
0.0000000001
 40
0.9365865514288363
 40
0.9365865514288363
 40
1.0
 40
1.0
 10
2498.667466587511
 20
-890.094258620144
 30
0.0
 10
2113.632327586168
 20
-890.094258620144
 30
0.0
  0
SPLINE
  5
24DD7
330
18
100
AcDbEntity
  8
01
  6
CONTINUOUS
100
AcDbSpline
210
0.0
220
0.0
230
1.0
 70
    24
 71
     1
 72
     4
 73
     2
 74
     0
 42
0.000000001
 43
0.0000000001
 40
0.0
 40
0.0
 40
0.0674925452741301
 40
0.0674925452741301
 10
2113.632327586168
 20
-901.85193379989
 30
0.0
 10
2498.667466587511
 20
-901.85193379989
 30
0.0
  0
SPLINE
  5
24DDB
330
18
100
AcDbEntity
  8
01
  6
CONTINUOUS
100
AcDbSpline
210
0.0
220
0.0
230
1.0
 70
     8
 71
     3
 72
    16
 73
    12
 74
     0
 42
0.000000001
 43
0.0000000001
 40
0.0
 40
0.0
 40
0.0
 40
0.0
 40
0.2499999999999989
 40
0.2499999999999989
 40
0.4999999999999978
 40
0.4999999999999978
 40
0.6249999999999983
 40
0.6249999999999983
 40
0.7499999999999989
 40
0.7499999999999989
 40
1.0
 40
1.0
 40
1.0
 40
1.0
 10
2498.667466596586
 20
-901.1751130409125
 30
0.0
 10
2498.667466594997
 20
-900.7885573264161
 30
0.0
 10
2498.667466593673
 20
-900.303361194327
 30
0.0
 10
2498.667466591422
 20
-899.1564961708013
 30
0.0
 10
2498.667466590497
 20
-898.4933138276269
 30
0.0
 10
2498.667466589385
 20
-897.3618530812405
 30
0.0
 10
2498.667466589059
 20
-896.9632365219827
 30
0.0
 10
2498.6674665885
 20
-896.136251353581
 30
0.0
 10
2498.667466588266
 20
-895.7061175624717
 30
0.0
 10
2498.667466587702
 20
-894.3670667787942
 30
0.0
 10
2498.667466587511
 20
-893.4103034256427
 30
0.0
 10
2498.667466587511
 20
-892.386994220908
 30
0.0
  0
SPLINE
  5
24DDC
330
18
100
AcDbEntity
  8
01
  6
CONTINUOUS
100
AcDbSpline
210
0.0
220
0.0
230
1.0
 70
     8
 71
     3
 72
    10
 73
     6
 74
     0
 42
0.000000001
 43
0.0000000001
 40
0.0
 40
0.0
 40
0.0
 40
0.0
 40
0.2156628512042391
 40
0.6421105985592642
 40
0.9999999999999999
 40
0.9999999999999999
 40
0.9999999999999999
 40
0.9999999999999999
 10
2542.949635890715
 20
-890.5537416892789
 30
0.0
 10
2542.434737778104
 20
-890.4666507650786
 30
0.0
 10
2540.901689627067
 20
-890.207347852413
 30
0.0
 10
2538.495179193069
 20
-889.9331368088956
 30
0.0
 10
2536.601763569154
 20
-889.8039076291702
 30
0.0
 10
2535.737806805966
 20
-889.7449409541246
 30
0.0
  0
SPLINE
  5
24DE5
330
18
100
AcDbEntity
  8
01
  6
CONTINUOUS
100
AcDbSpline
210
0.0
220
0.0
230
1.0
 70
     8
 71
     3
 72
    16
 73
    12
 74
     0
 42
0.000000001
 43
0.0000000001
 40
0.0
 40
0.0
 40
0.0
 40
0.0
 40
0.2500000000000011
 40
0.2500000000000011
 40
0.3750000000000017
 40
0.3750000000000017
 40
0.5000000000000022
 40
0.5000000000000022
 40
0.7500000000000012
 40
0.7500000000000012
 40
1.0
 40
1.0
 40
1.0
 40
1.0
 10
2113.632327586168
 20
-892.386994220908
 30
0.0
 10
2113.632327586168
 20
-893.4103034256427
 30
0.0
 10
2113.632327585977
 20
-894.3670667787942
 30
0.0
 10
2113.632327585413
 20
-895.7061175624717
 30
0.0
 10
2113.63232758518
 20
-896.136251353581
 30
0.0
 10
2113.632327584619
 20
-896.9632365219827
 30
0.0
 10
2113.632327584295
 20
-897.3618530812405
 30
0.0
 10
2113.632327583181
 20
-898.4933138276269
 30
0.0
 10
2113.632327582257
 20
-899.1564961708013
 30
0.0
 10
2113.632327580005
 20
-900.303361194327
 30
0.0
 10
2113.632327578681
 20
-900.7885573264161
 30
0.0
 10
2113.632327577092
 20
-901.1751130409125
 30
0.0
  0
SPLINE
  5
24DE6
330
18
100
AcDbEntity
  8
01
  6
CONTINUOUS
100
AcDbSpline
210
0.0
220
0.0
230
1.0
 70
     8
 71
     3
 72
    10
 73
     6
 74
     0
 42
0.000000001
 43
0.0000000001
 40
0.0
 40
0.0
 40
0.0
 40
0.0
 40
0.238409552992238
 40
0.5566180993207899
 40
1.0
 40
1.0
 40
1.0
 40
1.0
 10
2076.562090374414
 20
-889.7480682016853
 30
0.0
 10
2076.015453177936
 20
-889.7800342709838
 30
0.0
 10
2074.739211712344
 20
-889.8546658975924
 30
0.0
 10
2072.453001657296
 20
-890.0855923137301
 30
0.0
 10
2070.720438659671
 20
-890.3324289705583
 30
0.0
 10
2069.711777012256
 20
-890.4761320677922
 30
0.0
  0
LINE
  5
24DEE
330
18
100
AcDbEntity
  8
01
  6
CONTINUOUS
100
AcDbLine
 10
2498.667466587511
 20
-893.2013520632704
 30
0.0
 11
2498.667466587511
 21
-891.7209907287347
 31
0.0
  0
LINE
  5
24DEF
330
18
100
AcDbEntity
  8
01
  6
CONTINUOUS
100
AcDbLine
 10
2113.632327586168
 20
-891.7209907287347
 30
0.0
 11
2113.632327586168
 21
-893.2013520632704
 31
0.0
  0
LINE
  5
24DF0
330
18
100
AcDbEntity
  8
01
  6
CONTINUOUS
100
AcDbLine
 10
2498.667466587511
 20
-893.2013520632704
 30
0.0
 11
2498.667466587511
 21
-901.5419023265008
 31
0.0
  0
LINE
  5
24DF1
330
18
100
AcDbEntity
  8
01
  6
CONTINUOUS
100
AcDbLine
 10
2113.632327586168
 20
-901.5419023265008
 30
0.0
 11
2113.632327586168
 21
-893.2013520632704
 31
0.0
  0
LINE
  5
24DF2
330
18
100
AcDbEntity
  8
01
  6
CONTINUOUS
100
AcDbLine
 10
2498.667466587511
 20
-891.7209907287347
 30
0.0
 11
2498.667466587511
 21
-890.094258620144
 31
0.0
  0
LINE
  5
24DF3
330
18
100
AcDbEntity
  8
01
  6
CONTINUOUS
100
AcDbLine
 10
2113.632327586168
 20
-890.0942586199658
 30
0.0
 11
2113.632327586168
 21
-891.7209907287347
 31
0.0
  0
LINE
  5
24DF4
330
18
100
AcDbEntity
  8
01
  6
CONTINUOUS
100
AcDbLine
 10
2498.667466587511
 20
-901.5419023265008
 30
0.0
 11
2498.667466587511
 21
-901.8519337998937
 31
0.0
  0
LINE
  5
24DF5
330
18
100
AcDbEntity
  8
01
  6
CONTINUOUS
100
AcDbLine
 10
2113.632327586167
 20
-901.8519337998973
 30
0.0
 11
2113.632327586168
 21
-901.5419023265008
 31
0.0
  0
SPLINE
  5
24E04
330
18
100
AcDbEntity
  8
1DIM
100
AcDbSpline
210
0.0
220
0.0
230
1.0
 70
     8
 71
     3
 72
    15
 73
    11
 74
     0
 42
0.000000001
 43
0.0000000001
 40
0.0
 40
0.0
 40
0.0
 40
0.0
 40
0.2188014422969565
 40
0.5177650099684701
 40
0.6825457175223251
 40
0.7627970265937583
 40
0.8829761251319352
 40
0.94555040839378
 40
0.9846498811261156
 40
1.0
 40
1.0
 40
1.0
 40
1.0
 10
2515.66489041966
 20
-902.5106259026384
 30
0.0
 10
2515.745891520069
 20
-902.5123484251767
 30
0.0
 10
2515.937570035165
 20
-902.5164245495857
 30
0.0
 10
2516.188800877055
 20
-902.5238946556515
 30
0.0
 10
2516.387447288108
 20
-902.5307289477882
 30
0.0
 10
2516.519963637762
 20
-902.5357010735047
 30
0.0
 10
2516.615597236657
 20
-902.5391312542474
 30
0.0
 10
2516.695296163073
 20
-902.5423881250704
 30
0.0
 10
2516.737701407127
 20
-902.5440435075893
 30
0.0
 10
2516.756169057557
 20
-902.5452306014508
 30
0.0
 10
2516.761375352427
 20
-902.5455652601981
 30
0.0
  0
SPLINE
  5
24E05
330
18
100
AcDbEntity
  8
1DIM
100
AcDbSpline
210
0.0
220
0.0
230
1.0
 70
     8
 71
     3
 72
     8
 73
     4
 74
     0
 42
0.000000001
 43
0.0000000001
 40
0.0
 40
0.0
 40
0.0
 40
0.0
 40
1.0
 40
1.0
 40
1.0
 40
1.0
 10
2515.135268610911
 20
-902.500226727791
 30
0.0
 10
2515.311802418962
 20
-902.5037314915267
 30
0.0
 10
2515.488342976233
 20
-902.507198232483
 30
0.0
 10
2515.664890419657
 20
-902.5106259030604
 30
0.0
  0
SPLINE
  5
24E0D
330
18
100
AcDbEntity
  8
1DIM
100
AcDbSpline
210
0.0
220
0.0
230
1.0
 70
    24
 71
     1
 72
     4
 73
     2
 74
     0
 42
0.000000001
 43
0.0000000001
 40
0.0
 40
0.0
 40
1.0
 40
1.0
 10
2516.697006356951
 20
-902.5344293551229
 30
0.0
 10
2516.761375352427
 20
-902.5455652602018
 30
0.0
  0
SPLINE
  5
24E28
330
18
100
AcDbEntity
  8
1DIM
100
AcDbSpline
210
0.0
220
0.0
230
1.0
 70
     8
 71
     3
 72
     8
 73
     4
 74
     0
 42
0.000000001
 43
0.0000000001
 40
0.0
 40
0.0
 40
0.0
 40
0.0
 40
1.0
 40
1.0
 40
1.0
 40
1.0
 10
2097.164525235812
 20
-902.5001948138183
 30
0.0
 10
2096.987735016239
 20
-902.503744074626
 30
0.0
 10
2096.811194511757
 20
-902.5072212425534
 30
0.0
 10
2096.634903754019
 20
-902.5106259028385
 30
0.0
  0
SPLINE
  5
24E29
330
18
100
AcDbEntity
  8
1DIM
100
AcDbSpline
210
0.0
220
0.0
230
1.0
 70
     8
 71
     3
 72
    16
 73
    12
 74
     0
 42
0.000000001
 43
0.0000000001
 40
0.0
 40
0.0
 40
0.0
 40
0.0
 40
0.009309811707476
 40
0.031960520068121
 40
0.0679362591296296
 40
0.1170470709254517
 40
0.2372230117358969
 40
0.3174604050882619
 40
0.4822485879487658
 40
0.7811790401762196
 40
0.9999999999999999
 40
0.9999999999999999
 40
0.9999999999999999
 40
0.9999999999999999
 10
2095.538418821242
 20
-902.5455652601981
 30
0.0
 10
2095.541504642727
 20
-902.5453436728772
 30
0.0
 10
2095.552098246826
 20
-902.5445829651239
 30
0.0
 10
2095.576649843707
 20
-902.5435726014716
 30
0.0
 10
2095.615051896582
 20
-902.5418736481647
 30
0.0
 10
2095.689280307195
 20
-902.5390127525702
 30
0.0
 10
2095.779784229171
 20
-902.5356884900889
 30
0.0
 10
2095.912363272974
 20
-902.5307353792982
 30
0.0
 10
2096.110966192612
 20
-902.5238909950299
 30
0.0
 10
2096.362217702995
 20
-902.516425681601
 30
0.0
 10
2096.553894167324
 20
-902.5123489012863
 30
0.0
 10
2096.634903754018
 20
-902.5106259026384
 30
0.0
  0
SPLINE
  5
24E31
330
18
100
AcDbEntity
  8
1DIM
100
AcDbSpline
210
0.0
220
0.0
230
1.0
 70
    24
 71
     1
 72
     4
 73
     2
 74
     0
 42
0.000000001
 43
0.0000000001
 40
0.0
 40
0.0
 40
1.0
 40
1.0
 10
2096.634903754023
 20
-902.5106259030604
 30
0.0
 10
2096.624332149774
 20
-902.4949974348369
 30
0.0
  0
SPLINE
  5
24E32
330
18
100
AcDbEntity
  8
1DIM
100
AcDbSpline
210
0.0
220
0.0
230
1.0
 70
    24
 71
     1
 72
     4
 73
     2
 74
     0
 42
0.000000001
 43
0.0000000001
 40
0.0
 40
0.0
 40
1.0
 40
1.0
 10
2095.538418821243
 20
-902.5455652602018
 30
0.0
 10
2095.602787812446
 20
-902.5344293558614
 30
0.0
  0
LINE
  5
24E69
330
18
100
AcDbEntity
  8
1CENTER
100
AcDbLine
 10
2081.149861877496
 20
-922.8889843050468
 30
0.0
 11
2081.149861877496
 21
-884.8292435073994
 31
0.0
  0
ARC
  5
24E6F
330
18
100
AcDbEntity
  8
01
100
AcDbCircle
 10
2081.149884983085
 20
-963.6082433879676
 30
0.0
 40
74.0
100
AcDbArc
 50
76.70781415545522
 51
103.2921858445448
  0
ARC
  5
24E70
330
18
100
AcDbEntity
  8
01
100
AcDbCircle
 10
2081.149884983085
 20
-907.3082433879674
 30
0.0
 40
10.0
100
AcDbArc
 50
221.4768540716842
 51
270.0
  0
ARC
  5
24E71
330
18
100
AcDbEntity
  8
01
100
AcDbCircle
 10
2121.452284143371
 20
-877.6592094060595
 30
0.0
 40
60.0
100
AcDbArc
 50
194.6327115784607
 51
217.1955181330137
  0
ARC
  5
24E72
330
18
100
AcDbEntity
  8
01
100
AcDbCircle
 10
2064.365943235099
 20
-892.5638959745368
 30
0.0
 40
1.0
100
AcDbArc
 50
103.2921858445448
 51
194.6327115784607
  0
ARC
  5
24E73
330
18
100
AcDbEntity
  8
01
100
AcDbCircle
 10
2081.149884983085
 20
-907.3082433879674
 30
0.0
 40
10.0
100
AcDbArc
 50
270.0
 51
318.5231459282915
  0
ARC
  5
24E74
330
18
100
AcDbEntity
  8
01
100
AcDbCircle
 10
2040.847485822798
 20
-877.6592094060595
 30
0.0
 40
60.0
100
AcDbArc
 50
322.8044818669863
 51
345.3672884215393
  0
ARC
  5
24E75
330
18
100
AcDbEntity
  8
01
100
AcDbCircle
 10
2097.93382673107
 20
-892.5638959745368
 30
0.0
 40
1.0
100
AcDbArc
 50
345.3672884215393
 51
76.70781415545522
  0
SPLINE
  5
24E76
330
18
100
AcDbEntity
  8
01
  6
CONTINUOUS
100
AcDbSpline
210
0.0
220
0.0
230
1.0
 70
     8
 71
     3
 72
     8
 73
     4
 74
     0
 42
0.000000001
 43
0.0000000001
 40
0.9601836114623808
 40
0.9601836114623808
 40
0.9601836114623808
 40
0.9601836114623808
 40
1.0
 40
1.0
 40
1.0
 40
1.0
 10
2095.422962411894
 20
-902.5894592057191
 30
0.0
 10
2095.483243471117
 20
-902.5876142378409
 30
0.0
 10
2095.54353742851
 20
-902.5857848388001
 30
0.0
 10
2095.603831385903
 20
-902.5839554397594
 30
0.0
  0
CIRCLE
  5
24E77
330
18
100
AcDbEntity
  8
1PHANTOM
100
AcDbCircle
 10
2531.14989421162
 20
-902.1082433879676
 30
0.0
 40
4.25
  0
CIRCLE
  5
24E79
330
18
100
AcDbEntity
  8
1PHANTOM
100
AcDbCircle
 10
2081.149861877496
 20
-902.1082433879676
 30
0.0
 40
4.25
  0
LINE
  5
24E7A
330
18
100
AcDbEntity
  8
1CENTER
100
AcDbLine
 10
2524.534584672138
 20
-902.1082433879676
 30
0.0
 11
2537.765203751102
 21
-902.1082433879676
 31
0.0
  0
LINE
  5
24E7B
330
18
100
AcDbEntity
  8
1CENTER
100
AcDbLine
 10
2074.534552338015
 20
-902.1082433879676
 30
0.0
 11
2087.765171416978
 21
-902.1082433879676
 31
0.0
  0
LINE
  5
24F81
330
18
100
AcDbEntity
  8
1TEXT
 48
0.5
100
AcDbLine
 10
2701.14989421162
 20
-911.6014885803527
 30
0.0
 11
2701.14989421162
 21
-892.6014885803527
 31
0.0
  0
LINE
  5
24F82
330
18
100
AcDbEntity
  8
1PHANTOM
100
AcDbLine
 10
2694.599987904192
 20
-913.7366953273633
 30
0.0
 11
2694.949987904192
 21
-914.0866951532919
 31
0.0
  0
LINE
  5
24F83
330
18
100
AcDbEntity
  8
1PHANTOM
100
AcDbLine
 10
2690.949987904192
 20
-914.0866951532919
 30
0.0
 11
2691.299987904192
 21
-913.7366953273633
 31
0.0
  0
LINE
  5
24F84
330
18
100
AcDbEntity
  8
1PHANTOM
100
AcDbLine
 10
2695.949987904192
 20
-915.0866953173647
 30
0.0
 11
2689.949987904192
 21
-915.0866953173647
 31
0.0
  0
LINE
  5
24F85
330
18
100
AcDbEntity
  8
1PHANTOM
100
AcDbLine
 10
2694.949987904192
 20
-909.7366953273633
 30
0.0
 11
2690.949987904192
 21
-909.7366953273633
 31
0.0
  0
LINE
  5
24F86
330
18
100
AcDbEntity
  8
1PHANTOM
100
AcDbLine
 10
2694.949987904192
 20
-909.7366953273633
 30
0.0
 11
2694.949987904192
 21
-914.0866951532919
 31
0.0
  0
LINE
  5
24F87
330
18
100
AcDbEntity
  8
1PHANTOM
100
AcDbLine
 10
2694.949987904192
 20
-909.7366953273633
 30
0.0
 11
2694.599987904192
 21
-909.3866953273648
 31
0.0
  0
LINE
  5
24F88
330
18
100
AcDbEntity
  8
1PHANTOM
100
AcDbLine
 10
2694.949987904192
 20
-914.0866951532919
 30
0.0
 11
2695.949987904192
 21
-915.0866952273648
 31
0.0
  0
LINE
  5
24F89
330
18
100
AcDbEntity
  8
1PHANTOM
100
AcDbLine
 10
2694.599987904192
 20
-909.3866953273648
 30
0.0
 11
2691.299987904192
 21
-909.3866953273648
 31
0.0
  0
LINE
  5
24F8A
330
18
100
AcDbEntity
  8
1PHANTOM
100
AcDbLine
 10
2695.949987904192
 20
-915.0866952273648
 30
0.0
 11
2695.949987904192
 21
-915.3866953273648
 31
0.0
  0
LINE
  5
24F8B
330
18
100
AcDbEntity
  8
1PHANTOM
100
AcDbLine
 10
2691.299987904192
 20
-909.3866953273648
 30
0.0
 11
2690.949987904192
 21
-909.7366953273633
 31
0.0
  0
LINE
  5
24F8C
330
18
100
AcDbEntity
  8
1PHANTOM
100
AcDbLine
 10
2695.949987904192
 20
-915.3866953273648
 30
0.0
 11
2689.949987904192
 21
-915.3866953273648
 31
0.0
  0
LINE
  5
24F8D
330
18
100
AcDbEntity
  8
1PHANTOM
100
AcDbLine
 10
2690.949987904192
 20
-909.7366953273633
 30
0.0
 11
2690.949987904192
 21
-914.0866951532919
 31
0.0
  0
LINE
  5
24F8E
330
18
100
AcDbEntity
  8
1PHANTOM
100
AcDbLine
 10
2689.949987904192
 20
-915.0866953173647
 30
0.0
 11
2689.949987904192
 21
-915.3866953273648
 31
0.0
  0
LINE
  5
24F8F
330
18
100
AcDbEntity
  8
1PHANTOM
100
AcDbLine
 10
2690.949987904192
 20
-914.0866951532919
 30
0.0
 11
2689.949987904192
 21
-915.0866953173647
 31
0.0
  0
LINE
  5
24F90
330
18
100
AcDbEntity
  8
1PHANTOM
100
AcDbLine
 10
2691.299987904192
 20
-909.3866953273648
 30
0.0
 11
2691.299987904192
 21
-913.7366953273633
 31
0.0
  0
LINE
  5
24F91
330
18
100
AcDbEntity
  8
1PHANTOM
100
AcDbLine
 10
2694.599987904192
 20
-909.3866953273648
 30
0.0
 11
2694.599987904192
 21
-913.7366953273633
 31
0.0
  0
LINE
  5
24F92
330
18
100
AcDbEntity
  8
1CENTER
100
AcDbLine
 10
2692.949987904192
 20
-907.7850203273631
 30
0.0
 11
2692.949987904192
 21
-916.9454642273633
 31
0.0
  0
LINE
  5
24F93
330
18
100
AcDbEntity
  8
1CENTER
100
AcDbLine
 10
2674.556659166914
 20
-902.1082433898121
 30
0.0
 11
2728.541644641782
 21
-902.1082433898121
 31
0.0
  0
LINE
  5
24F94
330
18
100
AcDbEntity
  8
1PHANTOM
100
AcDbLine
 10
2729.519890767708
 20
-906.1085097389407
 30
0.0
 11
2695.149884904441
 21
-906.1082937373797
 31
0.0
  0
LINE
  5
24F95
330
18
100
AcDbEntity
  8
1PHANTOM
100
AcDbLine
 10
2730.149886370655
 20
-905.4782433898802
 30
0.0
 11
2729.519890768242
 21
-906.1082375264234
 31
0.0
  0
LINE
  5
24F96
330
18
100
AcDbEntity
  8
1PHANTOM
100
AcDbLine
 10
2695.149884904441
 20
-906.1082937373797
 30
0.0
 11
2695.149877924173
 21
-909.1082433898048
 31
0.0
  0
LINE
  5
24F97
330
18
100
AcDbEntity
  8
1PHANTOM
100
AcDbLine
 10
2730.149902053252
 20
-898.738243389733
 30
0.0
 11
2730.149886370655
 21
-905.4782433898802
 31
0.0
  0
LINE
  5
24F98
330
18
100
AcDbEntity
  8
1PHANTOM
100
AcDbLine
 10
2693.949887231349
 20
-909.1082433898048
 30
0.0
 11
2695.149877924173
 21
-909.1082433898048
 31
0.0
  0
LINE
  5
24F99
330
18
100
AcDbEntity
  8
1PHANTOM
100
AcDbLine
 10
2730.149902053252
 20
-898.738243389733
 30
0.0
 11
2729.519906450921
 21
-898.1082375262233
 31
0.0
  0
ARC
  5
24F9A
330
18
100
AcDbEntity
  8
1PHANTOM
100
AcDbCircle
 10
2693.949887231349
 20
-905.1082433898048
 30
0.0
 40
4.0
100
AcDbArc
 50
179.9998666843707
 51
270.0
  0
LINE
  5
24F9B
330
18
100
AcDbEntity
  8
1PHANTOM
100
AcDbLine
 10
2729.520178660709
 20
-898.1085097404432
 30
0.0
 11
2695.1499035188
 21
-898.1082937371759
 31
0.0
  0
LINE
  5
24F9C
330
18
100
AcDbEntity
  8
1PHANTOM
100
AcDbLine
 10
2689.949901192129
 20
-899.1082340826254
 30
0.0
 11
2689.94988723136
 21
-905.1082340826254
 31
0.0
  0
LINE
  5
24F9D
330
18
100
AcDbEntity
  8
1PHANTOM
100
AcDbLine
 10
2695.149910499302
 20
-895.1082433898048
 30
0.0
 11
2695.1499035188
 21
-898.1082937371759
 31
0.0
  0
ARC
  5
24F9E
330
18
100
AcDbEntity
  8
1PHANTOM
100
AcDbCircle
 10
2693.949901192119
 20
-899.1082433898048
 30
0.0
 40
4.0
100
AcDbArc
 50
90.0
 51
179.9998666843707
  0
LINE
  5
24F9F
330
18
100
AcDbEntity
  8
1PHANTOM
100
AcDbLine
 10
2693.949901192119
 20
-895.1082433898048
 30
0.0
 11
2695.149910499302
 21
-895.1082433898048
 31
0.0
  0
LINE
  5
24FA0
330
18
100
AcDbEntity
  8
1PHANTOM
100
AcDbLine
 10
2730.150173813699
 20
-898.7385151546043
 30
0.0
 11
2695.14990205292
 21
-898.7382936193064
 31
0.0
  0
LINE
  5
24FA1
330
18
100
AcDbEntity
  8
1PHANTOM
100
AcDbLine
 10
2730.149886370023
 20
-905.4785151530416
 30
0.0
 11
2695.149886370321
 21
-905.4782936194827
 31
0.0
  0
LINE
  5
24FA2
330
18
100
AcDbEntity
  8
1PHANTOM
100
AcDbLine
 10
2729.519890768242
 20
-906.1082375264234
 30
0.0
 11
2729.519906450921
 21
-898.1082375262233
 31
0.0
  0
LINE
  5
24FA3
330
18
100
AcDbEntity
  8
1PHANTOM
100
AcDbLine
 10
2695.149884904441
 20
-906.1082937373797
 30
0.0
 11
2695.1499035188
 21
-898.1082937371759
 31
0.0
  0
LINE
  5
24FA4
330
18
100
AcDbEntity
  8
1PHANTOM
100
AcDbLine
 10
2695.149910499302
 20
-895.1082433898048
 30
0.0
 11
2697.14989421162
 21
-895.1082433898048
 31
0.0
  0
LINE
  5
24FA5
330
18
100
AcDbEntity
  8
1PHANTOM
100
AcDbLine
 10
2697.14989421162
 20
-908.3582937372742
 30
0.0
 11
2697.14989421162
 21
-895.1082433898048
 31
0.0
  0
LINE
  5
24FA6
330
18
100
AcDbEntity
  8
1PHANTOM
100
AcDbLine
 10
2695.149877924173
 20
-909.1082433898048
 30
0.0
 11
2697.14989421162
 21
-909.1082433898084
 31
0.0
  0
LINE
  5
24FA7
330
18
100
AcDbEntity
  8
1PHANTOM
100
AcDbLine
 10
2697.14989421162
 20
-908.3582937372742
 30
0.0
 11
2697.14989421162
 21
-909.1082433898048
 31
0.0
  0
LINE
  5
24FA8
330
18
100
AcDbEntity
  8
1TEXT
 48
0.5
100
AcDbLine
 10
2709.14989421162
 20
-911.611484769852
 30
0.0
 11
2709.14989421162
 21
-892.611484769852
 31
0.0
  0
LINE
  5
24FA9
330
18
100
AcDbEntity
  8
1CENTER
 48
0.5
100
AcDbLine
 10
2733.264597978529
 20
-902.1082433898048
 30
0.0
 11
2686.744707064534
 21
-902.1082433898048
 31
0.0
  0
LINE
  5
24FAA
330
18
100
AcDbEntity
  8
1PHANTOM
100
AcDbLine
 10
2701.14989421162
 20
-852.9921751885049
 30
0.0
 11
2701.14989421162
 21
-953.5317969066377
 31
0.0
  0
LINE
  5
24FAB
330
18
100
AcDbEntity
  8
1PHANTOM
100
AcDbLine
 10
2709.14989421162
 20
-852.9921751885049
 30
0.0
 11
2709.14989421162
 21
-953.5317969066377
 31
0.0
  0
LINE
  5
24FAC
330
18
100
AcDbEntity
  8
1CENTER
100
AcDbLine
 10
2692.949987904192
 20
-917.5644457908531
 30
0.0
 11
2692.949987904192
 21
-908.8222022748926
 31
0.0
  0
SPLINE
  5
24FAF
330
18
100
AcDbEntity
  8
01
100
AcDbSpline
210
0.0
220
0.0
230
1.0
 70
    24
 71
     3
 72
     8
 73
     4
 74
     0
 42
0.000000001
 43
0.0000000001
 40
0.0
 40
0.0
 40
0.0
 40
0.0
 40
0.0000936925714541
 40
0.0000936925714541
 40
0.0000936925714541
 40
0.0000936925714541
 10
2698.649987904192
 20
-889.3514885803527
 30
0.0
 10
2698.649956673335
 20
-889.3514885803527
 30
0.0
 10
2698.649925442478
 20
-889.3514885803563
 30
0.0
 10
2698.64989421162
 20
-889.3514885803636
 30
0.0
  0
SPLINE
  5
24FB0
330
18
100
AcDbEntity
  8
01
100
AcDbSpline
210
0.0
220
0.0
230
1.0
 70
    24
 71
     3
 72
     8
 73
     4
 74
     0
 42
0.000000001
 43
0.0000000001
 40
0.0000936925714541
 40
0.0000936925714541
 40
0.0000936925714541
 40
0.0000936925714541
 40
0.0001735976065902
 40
0.0001735976065902
 40
0.0001735976065902
 40
0.0001735976065902
 10
2698.64989421162
 20
-889.3514885803636
 30
0.0
 10
2698.649867576608
 20
-889.3514885803672
 30
0.0
 10
2698.649840941597
 20
-889.3514885803745
 30
0.0
 10
2698.649814306585
 20
-889.3514885803818
 30
0.0
  0
SPLINE
  5
24FB1
330
18
100
AcDbEntity
  8
01
  6
CONTINUOUS
100
AcDbSpline
210
0.0
220
0.0
230
1.0
 70
     8
 71
     3
 72
    10
 73
     6
 74
     0
 42
0.000000001
 43
0.0000000001
 40
0.0
 40
0.0
 40
0.0
 40
0.0
 40
0.5
 40
0.5
 40
1.0
 40
1.0
 40
1.0
 40
1.0
 10
2750.641555926731
 20
-907.1365245144918
 30
0.0
 10
2751.551664534815
 20
-906.8528925326975
 30
0.0
 10
2752.45685857572
 20
-906.5541869459269
 30
0.0
 10
2754.263831944177
 20
-905.9463024105864
 30
0.0
 10
2755.166104820805
 20
-905.638853084238
 30
0.0
 10
2756.062359073506
 20
-905.3140475355106
 30
0.0
  0
SPLINE
  5
24FB2
330
18
100
AcDbEntity
  8
01
  6
CONTINUOUS
100
AcDbSpline
210
0.0
220
0.0
230
1.0
 70
     8
 71
     3
 72
    10
 73
     6
 74
     0
 42
0.000000001
 43
0.0000000001
 40
0.0
 40
0.0
 40
0.0
 40
0.0
 40
0.5
 40
0.5
 40
1.0
 40
1.0
 40
1.0
 40
1.0
 10
2724.049894199613
 20
-913.9534209787128
 30
0.0
 10
2728.264207435602
 20
-913.0027499497194
 30
0.0
 10
2732.471647798165
 20
-912.0198617677563
 30
0.0
 10
2740.854398521072
 20
-909.9245852426723
 30
0.0
 10
2745.030381762882
 20
-908.8160101361248
 30
0.0
 10
2749.172262381072
 20
-907.585444450415
 30
0.0
  0
SPLINE
  5
24FB3
330
18
100
AcDbEntity
  8
01
  6
CONTINUOUS
100
AcDbSpline
210
0.0
220
0.0
230
1.0
 70
     8
 71
     3
 72
     8
 73
     4
 74
     0
 42
0.000000001
 43
0.0000000001
 40
0.0
 40
0.0
 40
0.0
 40
0.0
 40
1.0
 40
1.0
 40
1.0
 40
1.0
 10
2709.599894211618
 20
-917.0882268804492
 30
0.0
 10
2712.251884946793
 20
-916.5319619303884
 30
0.0
 10
2714.902154432523
 20
-915.9678677052618
 30
0.0
 10
2717.549894223576
 20
-915.3922669111382
 30
0.0
  0
LINE
  5
24FB4
330
18
100
AcDbEntity
  8
01
  6
CONTINUOUS
100
AcDbLine
 10
2750.849947426964
 20
-889.3582433879676
 30
0.0
 11
2709.599894211618
 21
-889.3582433879676
 31
0.0
  0
SPLINE
  5
24FB5
330
18
100
AcDbEntity
  8
01
  6
CONTINUOUS
100
AcDbSpline
210
0.0
220
0.0
230
1.0
 70
     8
 71
     3
 72
    14
 73
    10
 74
     0
 42
0.000000001
 43
0.0000000001
 40
0.0000010122440989
 40
0.0000010122440989
 40
0.0000010122440989
 40
0.0000010122440989
 40
0.0004425793394267
 40
0.0004425793394267
 40
0.0004425793394267
 40
0.0008851581036885
 40
0.0008851581036885
 40
0.0008851581036885
 40
0.0015372183736533
 40
0.0015372183736533
 40
0.0015372183736533
 40
0.0015372183736533
 10
2749.172427727991
 20
-907.5853677034722
 30
0.0
 10
2749.3135092743
 20
-907.5434080994858
 30
0.0
 10
2749.454484869068
 20
-907.5010909417508
 30
0.0
 10
2749.595363698981
 20
-907.4584556704615
 30
0.0
 10
2749.736565372802
 20
-907.4157226943719
 30
0.0
 10
2749.877671064137
 20
-907.3726717361353
 30
0.0
 10
2750.018697515589
 20
-907.3293640009617
 30
0.0
 10
2750.226474499389
 20
-907.2655578816341
 30
0.0
 10
2750.434079922988
 20
-907.2011924309811
 30
0.0
 10
2750.641587240302
 20
-907.1365146981809
 30
0.0
  0
SPLINE
  5
24FB6
330
18
100
AcDbEntity
  8
01
  6
CONTINUOUS
100
AcDbSpline
210
0.0
220
0.0
230
1.0
 70
     8
 71
     3
 72
    16
 73
    12
 74
     0
 42
0.000000001
 43
0.0000000001
 40
0.0
 40
0.0
 40
0.0
 40
0.0
 40
0.1250000000000004
 40
0.1250000000000004
 40
0.2500000000000008
 40
0.2500000000000008
 40
0.5000000000000006
 40
0.5000000000000006
 40
0.7500000000000002
 40
0.7500000000000002
 40
1.0
 40
1.0
 40
1.0
 40
1.0
 10
2776.774006113385
 20
-892.6771718361999
 30
0.0
 10
2776.811653494112
 20
-892.6104072478231
 30
0.0
 10
2776.840940024203
 20
-892.5406311125191
 30
0.0
 10
2776.883191115904
 20
-892.3951997303013
 30
0.0
 10
2776.895989971629
 20
-892.3188847583008
 30
0.0
 10
2776.907151973913
 20
-892.0922865226205
 30
0.0
 10
2776.878575483938
 20
-891.9387237868289
 30
0.0
 10
2776.755917813291
 20
-891.6611704125064
 30
0.0
 10
2776.661845871459
 20
-891.5366048115286
 30
0.0
 10
2776.428647304446
 20
-891.3406689584883
 30
0.0
 10
2776.291199298205
 20
-891.2697802694277
 30
0.0
 10
2776.143027150957
 20
-891.2307469507616
 30
0.0
  0
SPLINE
  5
24FB7
330
18
100
AcDbEntity
  8
01
  6
CONTINUOUS
100
AcDbSpline
210
0.0
220
0.0
230
1.0
 70
     8
 71
     3
 72
    16
 73
    12
 74
     0
 42
0.000000001
 43
0.0000000001
 40
0.0
 40
0.0
 40
0.0
 40
0.0
 40
0.2499999999999996
 40
0.2499999999999996
 40
0.3750000000000002
 40
0.3750000000000002
 40
0.5000000000000008
 40
0.5000000000000008
 40
0.7500000000000003
 40
0.7500000000000003
 40
1.0
 40
1.0
 40
1.0
 40
1.0
 10
2776.142990961821
 20
-891.230801109785
 30
0.0
 10
2774.090057317343
 20
-890.689946664181
 30
0.0
 10
2772.008561558688
 20
-890.3104498916402
 30
0.0
 10
2768.857104121355
 20
-889.9062440102646
 30
0.0
 10
2767.800871102791
 20
-889.7989823827231
 30
0.0
 10
2765.687284355293
 20
-889.6279527584195
 30
0.0
 10
2764.629397619251
 20
-889.5640799549803
 30
0.0
 10
2761.45336286464
 20
-889.4194633081936
 30
0.0
 10
2759.332500290137
 20
-889.3848665651606
 30
0.0
 10
2755.091292827122
 20
-889.3550222046472
 30
0.0
 10
2752.970613715094
 20
-889.3582737953222
 30
0.0
 10
2750.849947992728
 20
-889.3582972223451
 30
0.0
  0
SPLINE
  5
24FB8
330
18
100
AcDbEntity
  8
01
  6
CONTINUOUS
100
AcDbSpline
210
0.0
220
0.0
230
1.0
 70
     8
 71
     3
 72
    24
 73
    20
 74
     0
 42
0.000000001
 43
0.0000000001
 40
0.0
 40
0.0
 40
0.0
 40
0.0
 40
0.1250000000000006
 40
0.1250000000000006
 40
0.2500000000000012
 40
0.2500000000000012
 40
0.5000000000000023
 40
0.5000000000000023
 40
0.5625000000000027
 40
0.5625000000000027
 40
0.6250000000000029
 40
0.6250000000000029
 40
0.7500000000000019
 40
0.7500000000000019
 40
0.8125000000000014
 40
0.8125000000000014
 40
0.875000000000001
 40
0.875000000000001
 40
1.0
 40
1.0
 40
1.0
 40
1.0
 10
2756.062537989755
 20
-905.3139618110438
 30
0.0
 10
2757.038715620595
 20
-904.9602855624692
 30
0.0
 10
2758.016924968343
 20
-904.6122017795644
 30
0.0
 10
2759.974218345721
 20
-903.918451175454
 30
0.0
 10
2760.953272326079
 20
-903.5727025916715
 30
0.0
 10
2763.879825242254
 20
-902.5061083829571
 30
0.0
 10
2765.818280722012
 20
-901.7582328421997
 30
0.0
 10
2768.144597121421
 20
-900.6072423759326
 30
0.0
 10
2768.605729975357
 20
-900.3655939319617
 30
0.0
 10
2769.50894849698
 20
-899.859656214587
 30
0.0
 10
2769.951716602948
 20
-899.5950685501232
 30
0.0
 10
2771.24972531659
 20
-898.7614918957518
 30
0.0
 10
2772.074674974462
 20
-898.1526953616124
 30
0.0
 10
2773.237251356813
 20
-897.1411372126897
 30
0.0
 10
2773.612256521818
 20
-896.787497330097
 30
0.0
 10
2774.335352638068
 20
-896.0448476355671
 30
0.0
 10
2774.684794588165
 20
-895.6540719493244
 30
0.0
 10
2775.674935578875
 20
-894.444547745072
 30
0.0
 10
2776.261148009792
 20
-893.5863956222495
 30
0.0
 10
2776.773980880102
 20
-892.6767928290612
 30
0.0
  0
LINE
  5
24FB9
330
18
100
AcDbEntity
  8
01
  6
CONTINUOUS
100
AcDbLine
 10
2709.599894211618
 20
-889.3582433879676
 30
0.0
 11
2709.599894211618
 21
-917.0882268804492
 31
0.0
  0
LINE
  5
24FBA
330
18
100
AcDbEntity
  8
1CENTER
100
AcDbLine
 10
2735.296947682874
 20
-902.1082433879676
 30
0.0
 11
2706.572337143521
 21
-902.1082433879676
 31
0.0
  0
LINE
  5
24FBB
330
18
100
AcDbEntity
  8
01
  6
CONTINUOUS
100
AcDbLine
 10
2724.049894199613
 20
-913.9534209787128
 30
0.0
 11
2717.549894223576
 21
-915.3922669111382
 31
0.0
  0
LINE
  5
24FBC
330
18
100
AcDbEntity
  8
1CENTER
100
AcDbLine
 10
2707.663673905344
 20
-902.1082433898121
 30
0.0
 11
2728.11287936341
 21
-902.1082433898121
 31
0.0
  0
LINE
  5
24FBD
330
18
100
AcDbEntity
  8
1CENTER
100
AcDbLine
 10
2707.713673905343
 20
-902.1082433879676
 30
0.0
 11
2728.162879363413
 21
-902.1082433879676
 31
0.0
  0
LINE
  5
24FBE
330
18
100
AcDbEntity
  8
01
100
AcDbLine
 10
2700.64989421162
 20
-892.6014885803418
 30
0.0
 11
2701.14989421162
 21
-892.6014885803418
 31
0.0
  0
LINE
  5
24FBF
330
18
100
AcDbEntity
  8
01
100
AcDbLine
 10
2700.64989421162
 20
-911.6014885803418
 30
0.0000000000000003
 11
2701.14989421162
 21
-911.6014885803418
 31
0.0000000000000003
  0
LINE
  5
24FC0
330
18
100
AcDbEntity
  8
01
100
AcDbLine
 10
2701.14989421162
 20
-911.6014885803418
 30
0.0
 11
2701.14989421162
 21
-892.6014885803418
 31
0.0
  0
LINE
  5
24FC1
330
18
100
AcDbEntity
  8
1PHANTOM
100
AcDbLine
 10
2688.64989421162
 20
-912.6082433898121
 30
0.0
 11
2698.64989421162
 21
-912.6082433898121
 31
0.0
  0
LINE
  5
24FC2
330
18
100
AcDbEntity
  8
01
100
AcDbLine
 10
2698.64989421162
 20
-912.6082433898121
 30
0.0
 11
2698.64989421162
 21
-917.0582433898091
 31
0.0
  0
LINE
  5
24FC3
330
18
100
AcDbEntity
  8
01
100
AcDbLine
 10
2698.64989421162
 20
-917.0582433898091
 30
0.0
 11
2700.64989421162
 21
-917.0582433898091
 31
0.0
  0
LINE
  5
24FC4
330
18
100
AcDbEntity
  8
01
100
AcDbLine
 10
2700.64989421162
 20
-917.0582433898091
 30
0.0
 11
2700.64989421162
 21
-889.3582433898121
 31
0.0
  0
LINE
  5
24FC5
330
18
100
AcDbEntity
  8
1PHANTOM
100
AcDbLine
 10
2700.64989421162
 20
-889.3582433898121
 30
0.0
 11
2698.64989421162
 21
-889.3582433898121
 31
0.0
  0
LINE
  5
24FC6
330
18
100
AcDbEntity
  8
1PHANTOM
100
AcDbLine
 10
2698.64989421162
 20
-889.3582433898121
 30
0.0
 11
2698.64989421162
 21
-891.6082433898121
 31
0.0
  0
LINE
  5
24FC7
330
18
100
AcDbEntity
  8
1PHANTOM
100
AcDbLine
 10
2698.64989421162
 20
-891.6082433898121
 30
0.0
 11
2688.64989421162
 21
-891.6082433898121
 31
0.0
  0
LINE
  5
24FC8
330
18
100
AcDbEntity
  8
1PHANTOM
100
AcDbLine
 10
2688.64989421162
 20
-912.6082433898121
 30
0.0
 11
2687.64989421162
 21
-911.6082433898121
 31
0.0
  0
LINE
  5
24FC9
330
18
100
AcDbEntity
  8
1PHANTOM
100
AcDbLine
 10
2687.64989421162
 20
-892.6082433898121
 30
0.0
 11
2688.64989421162
 21
-891.6082433898121
 31
0.0
  0
LINE
  5
24FCA
330
18
100
AcDbEntity
  8
01
100
AcDbLine
 10
2695.149720809904
 20
-912.6082433898121
 30
0.0
 11
2691.149720809904
 21
-912.6082433898121
 31
0.0
  0
LINE
  5
24FCB
330
18
100
AcDbEntity
  8
1CENTER
100
AcDbLine
 10
2702.622083890584
 20
-902.1082433898121
 30
0.0
 11
2685.573102465635
 21
-902.1082433898121
 31
0.0
  0
LINE
  5
24FCC
330
18
100
AcDbEntity
  8
01
100
AcDbLine
 10
2709.14989421162
 20
-911.6014885803418
 30
0.0000000000000003
 11
2709.599894211618
 21
-911.6014885803418
 31
0.0000000000000003
  0
LINE
  5
24FCD
330
18
100
AcDbEntity
  8
01
100
AcDbLine
 10
2709.14989421162
 20
-911.6014885803418
 30
0.0
 11
2709.14989421162
 21
-892.6014885803418
 31
0.0
  0
ARC
  5
24FCE
330
18
100
AcDbEntity
  8
01
100
AcDbCircle
 10
2733.875418564859
 20
-619.1334837036813
 30
0.0
 40
300.0
100
AcDbArc
 50
260.8673052280327
 51
263.256864755763
  0
ARC
  5
24FCF
330
18
100
AcDbEntity
  8
01
100
AcDbCircle
 10
2665.64989421162
 20
-895.8468332673149
 30
0.0
 40
15.0
100
AcDbArc
 50
180.0
 51
256.1495890689386
  0
ARC
  5
24FD0
330
18
100
AcDbEntity
  8
01
100
AcDbCircle
 10
2666.00807191482
 20
-909.8159105180387
 30
0.0
 40
1.5
100
AcDbArc
 50
256.8582302187522
 51
309.524468616422
  0
ARC
  5
24FD1
330
18
100
AcDbEntity
  8
01
100
AcDbCircle
 10
2674.599575738636
 20
-920.2291742737182
 30
0.0
 40
11.99999999999999
100
AcDbArc
 50
28.20106683032112
 51
129.524468616422
  0
ARC
  5
24FD2
330
18
100
AcDbEntity
  8
01
100
AcDbCircle
 10
2686.497053556262
 20
-913.8495174193779
 30
0.0
 40
1.5
100
AcDbArc
 50
208.2010668303211
 51
260.8673052280327
  0
SPLINE
  5
24FD3
330
18
100
AcDbEntity
  8
01
100
AcDbSpline
210
0.0
220
0.0
230
1.0
 70
     8
 71
     3
 72
     8
 73
     4
 74
     0
 42
0.000000001
 43
0.0000000001
 40
0.0
 40
0.0
 40
0.0
 40
0.0
 40
48.05142830720888
 40
48.05142830720888
 40
48.05142830720888
 40
48.05142830720888
 10
2698.64989421162
 20
-889.3582433898157
 30
0.0
 10
2682.632751442551
 20
-889.3582433898157
 30
0.0
 10
2666.606086916746
 20
-890.1848150325206
 30
0.0
 10
2651.564106206883
 20
-891.5014492828925
 30
0.0
  0
LINE
  5
24FD4
330
18
100
AcDbEntity
  8
1CENTER
100
AcDbLine
 10
2692.949894211621
 20
-917.5712006003162
 30
0.0
 11
2692.949894211621
 21
-908.8289570843556
 31
0.0
  0
ARC
  5
24FD5
330
18
100
AcDbEntity
  8
01
100
AcDbCircle
 10
2651.64989421162
 20
-892.4977626965558
 30
0.0
 40
1.0
100
AcDbArc
 50
94.92133973992969
 51
180.0
  0
LINE
  5
24FD6
330
18
100
AcDbEntity
  8
01
100
AcDbLine
 10
2698.649720614014
 20
-889.3582433898157
 30
0.0
 11
2698.64989421162
 21
-917.0582433898128
 31
0.0
  0
LINE
  5
24FD7
330
18
100
AcDbEntity
  8
01
100
AcDbLine
 10
2650.64989421162
 20
-892.4977626965558
 30
0.0
 11
2650.64989421162
 21
-895.8468332673149
 31
0.0
  0
ARC
  5
24FD8
330
18
100
AcDbEntity
  8
01
100
AcDbCircle
 10
2733.875418564859
 20
-619.1334837036813
 30
0.0
 40
300.0
100
AcDbArc
 50
256.1495890689386
 51
256.8582302187522
  0
LINE
  5
24FD9
330
18
100
AcDbEntity
  8
01
100
AcDbLine
 10
2709.14989421162
 20
-892.611484769852
 30
0.0
 11
2709.599894211617
 21
-892.611484769852
 31
0.0
  0
LINE
  5
24FDA
330
18
100
AcDbEntity
  8
1PHANTOM
100
AcDbLine
 10
2687.64989421162
 20
-911.6082433898121
 30
0.0
 11
2687.64989421162
 21
-892.6082433898121
 31
0.0
  0
LINE
  5
24FDB
330
18
100
AcDbEntity
  8
1PHANTOM
100
AcDbLine
 10
2688.64989421162
 20
-891.6082433898121
 30
0.0
 11
2688.649894211621
 21
-912.6082433898121
 31
0.0
  0
LINE
  5
250F4
330
18
100
AcDbEntity
  8
1PHANTOM
100
AcDbLine
 10
2535.150160560754
 20
-643.2381526381331
 30
0.0
 11
2535.149944559193
 21
-677.6081585014007
 31
0.0
  0
LINE
  5
250F5
330
18
100
AcDbEntity
  8
1PHANTOM
100
AcDbLine
 10
2534.519894211693
 20
-642.6081570351861
 30
0.0
 11
2535.149888348236
 21
-643.2381526375997
 31
0.0
  0
LINE
  5
250F7
330
18
100
AcDbEntity
  8
1PHANTOM
100
AcDbLine
 10
2527.779894211546
 20
-642.6081413525889
 30
0.0
 11
2534.519894211693
 21
-642.6081570351861
 31
0.0
  0
LINE
  5
250F8
330
18
100
AcDbEntity
  8
1PHANTOM
100
AcDbLine
 10
2538.149894211618
 20
-678.808156174492
 30
0.0
 11
2538.149894211618
 21
-677.6081654816679
 31
0.0
  0
LINE
  5
250F9
330
18
100
AcDbEntity
  8
1PHANTOM
100
AcDbLine
 10
2527.779894211546
 20
-642.6081413525889
 30
0.0
 11
2527.149888348036
 21
-643.2381369549202
 31
0.0
  0
ARC
  5
250FA
330
18
100
AcDbEntity
  8
1PHANTOM
100
AcDbCircle
 10
2534.149894211618
 20
-678.808156174492
 30
0.0
 40
4.0
100
AcDbArc
 50
269.9998666843707
 51
0.0
  0
LINE
  5
250FB
330
18
100
AcDbEntity
  8
1PHANTOM
100
AcDbLine
 10
2527.150160562256
 20
-643.2378647451318
 30
0.0
 11
2527.149944558989
 21
-677.6081398870409
 31
0.0
  0
LINE
  5
250FC
330
18
100
AcDbEntity
  8
1PHANTOM
100
AcDbLine
 10
2528.149884904438
 20
-682.8081422137119
 30
0.0
 11
2534.149884904438
 21
-682.808156174481
 31
0.0
  0
ARC
  5
250FE
330
18
100
AcDbEntity
  8
1PHANTOM
100
AcDbCircle
 10
2528.149894211618
 20
-678.8081422137224
 30
0.0
 40
4.0
100
AcDbArc
 50
180.0
 51
269.9998666843707
  0
LINE
  5
250FF
330
18
100
AcDbEntity
  8
1PHANTOM
100
AcDbLine
 10
2524.149894211618
 20
-678.8081422137224
 30
0.0
 11
2524.149894211618
 21
-677.6081329065395
 31
0.0
  0
LINE
  5
25100
330
18
100
AcDbEntity
  8
1PHANTOM
100
AcDbLine
 10
2527.780165976417
 20
-642.6078695921423
 30
0.0
 11
2527.779944441119
 21
-677.6081413529217
 31
0.0
  0
LINE
  5
25101
330
18
100
AcDbEntity
  8
1PHANTOM
100
AcDbLine
 10
2534.520165974855
 20
-642.6081570358186
 30
0.0
 11
2534.519944441296
 21
-677.6081570355199
 31
0.0
  0
LINE
  5
25102
330
18
100
AcDbEntity
  8
1PHANTOM
100
AcDbLine
 10
2535.149888348236
 20
-643.2381526375997
 30
0.0
 11
2527.149888348036
 21
-643.2381369549202
 31
0.0
  0
LINE
  5
25103
330
18
100
AcDbEntity
  8
1PHANTOM
100
AcDbLine
 10
2538.149894211618
 20
-677.6081654816685
 30
0.0
 11
2524.149894211618
 21
-677.6081329065389
 31
0.0
  0
LINE
  5
25104
330
18
100
AcDbEntity
  8
1PHANTOM
100
AcDbLine
 10
2524.149894211618
 20
-677.6081329065395
 30
0.0
 11
2524.149894211618
 21
-675.6081491942213
 31
0.0
  0
LINE
  5
25105
330
18
100
AcDbEntity
  8
1PHANTOM
100
AcDbLine
 10
2538.149894211621
 20
-675.6081491942226
 30
0.0
 11
2524.149894211618
 21
-675.6081491942213
 31
0.0
  0
LINE
  5
25106
330
18
100
AcDbEntity
  8
1PHANTOM
100
AcDbLine
 10
2538.149894211618
 20
-677.6081654816679
 30
0.0
 11
2538.149894211621
 21
-675.6081491942213
 31
0.0
  0
LINE
  5
2511A
330
18
100
AcDbEntity
  8
1PHANTOM
100
AcDbLine
 10
2085.150160560754
 20
-643.2381526381331
 30
0.0
 11
2085.149944559193
 21
-677.6081585014007
 31
0.0
  0
LINE
  5
2511B
330
18
100
AcDbEntity
  8
1PHANTOM
100
AcDbLine
 10
2084.519894211693
 20
-642.6081570351861
 30
0.0
 11
2085.149888348236
 21
-643.2381526375997
 31
0.0
  0
LINE
  5
2511C
330
18
100
AcDbEntity
  8
1PHANTOM
100
AcDbLine
 10
2077.779894211546
 20
-642.6081413525889
 30
0.0
 11
2084.519894211693
 21
-642.6081570351861
 31
0.0
  0
LINE
  5
2511D
330
18
100
AcDbEntity
  8
1PHANTOM
100
AcDbLine
 10
2088.149894211618
 20
-678.808156174492
 30
0.0
 11
2088.149894211618
 21
-677.6081654816679
 31
0.0
  0
LINE
  5
2511E
330
18
100
AcDbEntity
  8
1PHANTOM
100
AcDbLine
 10
2077.779894211546
 20
-642.6081413525889
 30
0.0
 11
2077.149888348036
 21
-643.2381369549202
 31
0.0
  0
ARC
  5
2511F
330
18
100
AcDbEntity
  8
1PHANTOM
100
AcDbCircle
 10
2084.149894211618
 20
-678.808156174492
 30
0.0
 40
4.0
100
AcDbArc
 50
269.9998666843707
 51
0.0
  0
LINE
  5
25120
330
18
100
AcDbEntity
  8
1PHANTOM
100
AcDbLine
 10
2077.150160562256
 20
-643.2378647451318
 30
0.0
 11
2077.149944558989
 21
-677.6081398870409
 31
0.0
  0
LINE
  5
25121
330
18
100
AcDbEntity
  8
1PHANTOM
100
AcDbLine
 10
2078.149884904438
 20
-682.8081422137119
 30
0.0
 11
2084.149884904438
 21
-682.808156174481
 31
0.0
  0
ARC
  5
25122
330
18
100
AcDbEntity
  8
1PHANTOM
100
AcDbCircle
 10
2078.149894211618
 20
-678.8081422137224
 30
0.0
 40
4.0
100
AcDbArc
 50
180.0
 51
269.9998666843707
  0
LINE
  5
25123
330
18
100
AcDbEntity
  8
1PHANTOM
100
AcDbLine
 10
2074.149894211618
 20
-678.8081422137224
 30
0.0
 11
2074.149894211618
 21
-677.6081329065395
 31
0.0
  0
LINE
  5
25124
330
18
100
AcDbEntity
  8
1PHANTOM
100
AcDbLine
 10
2077.780165976417
 20
-642.6078695921423
 30
0.0
 11
2077.779944441119
 21
-677.6081413529217
 31
0.0
  0
LINE
  5
25125
330
18
100
AcDbEntity
  8
1PHANTOM
100
AcDbLine
 10
2084.520165974855
 20
-642.6081570358186
 30
0.0
 11
2084.519944441296
 21
-677.6081570355199
 31
0.0
  0
LINE
  5
25126
330
18
100
AcDbEntity
  8
1PHANTOM
100
AcDbLine
 10
2085.149888348236
 20
-643.2381526375997
 30
0.0
 11
2077.149888348036
 21
-643.2381369549202
 31
0.0
  0
LINE
  5
25127
330
18
100
AcDbEntity
  8
1PHANTOM
100
AcDbLine
 10
2088.149894211618
 20
-677.6081654816685
 30
0.0
 11
2074.149894211618
 21
-677.6081329065389
 31
0.0
  0
LINE
  5
25128
330
18
100
AcDbEntity
  8
1PHANTOM
100
AcDbLine
 10
2074.149894211618
 20
-677.6081329065395
 30
0.0
 11
2074.149894211618
 21
-675.6081491942213
 31
0.0
  0
LINE
  5
25129
330
18
100
AcDbEntity
  8
1PHANTOM
100
AcDbLine
 10
2088.149894211621
 20
-675.6081491942226
 30
0.0
 11
2074.149894211618
 21
-675.6081491942213
 31
0.0
  0
LINE
  5
2512A
330
18
100
AcDbEntity
  8
1PHANTOM
100
AcDbLine
 10
2088.149894211618
 20
-677.6081654816679
 30
0.0
 11
2088.149894211621
 21
-675.6081491942213
 31
0.0
  0
LINE
  5
25189
330
18
100
AcDbEntity
  8
01
100
AcDbLine
 10
2538.899897170385
 20
-664.1081491942218
 30
0.0
 11
2538.899897170385
 21
-672.1081491942219
 31
0.0
  0
LINE
  5
2518A
330
18
100
AcDbEntity
  8
01
100
AcDbLine
 10
2539.149897170385
 20
-664.1081491942218
 30
0.0
 11
2539.149897170385
 21
-672.1081491942219
 31
0.0
  0
LINE
  5
2518B
330
18
100
AcDbEntity
  8
01
100
AcDbLine
 10
2523.399897170385
 20
-664.1081491942218
 30
0.0
 11
2523.399897170385
 21
-672.1081491942219
 31
0.0
  0
LINE
  5
2518C
330
18
100
AcDbEntity
  8
01
100
AcDbLine
 10
2523.149897170385
 20
-664.1081491942218
 30
0.0
 11
2523.149897170385
 21
-672.1081491942219
 31
0.0
  0
LINE
  5
2518D
330
18
100
AcDbEntity
  8
01
100
AcDbLine
 10
2088.899897170384
 20
-664.1081348301341
 30
0.0
 11
2088.899897170384
 21
-672.1081348301342
 31
0.0
  0
LINE
  5
2518E
330
18
100
AcDbEntity
  8
01
100
AcDbLine
 10
2089.149897170384
 20
-664.1081348301341
 30
0.0
 11
2089.149897170384
 21
-672.1081348301342
 31
0.0
  0
LINE
  5
2518F
330
18
100
AcDbEntity
  8
01
100
AcDbLine
 10
2073.399897170384
 20
-664.1081348301341
 30
0.0
 11
2073.399897170384
 21
-672.1081348301342
 31
0.0
  0
LINE
  5
25190
330
18
100
AcDbEntity
  8
01
100
AcDbLine
 10
2073.149897170384
 20
-664.1081348301341
 30
0.0
 11
2073.149897170384
 21
-672.1081348301342
 31
0.0
  0
LINE
  5
2525B
330
18
100
AcDbEntity
  8
1DIM
100
AcDbLine
 10
2648.692234789077
 20
-659.9601475820016
 30
0.0
 11
2718.692234782077
 21
-659.9601475820007
 31
0.0
  0
TEXT
  5
2525C
330
18
100
AcDbEntity
  8
1TEXT
100
AcDbText
 10
2587.023716276725
 20
-656.9159376222744
 30
0.0
 40
7.9999999992
  1
Brushed
 72
     1
 11
2613.692234792577
 21
-656.9159376222744
 31
0.0
100
AcDbText
  0
TEXT
  5
2525D
330
18
100
AcDbEntity
  8
1TEXT
100
AcDbText
 10
2654.092234788538
 20
-657.3888615495566
 30
0.0
 40
7.9999999992
  1
SH-024-XT-3
 41
0.7
 72
     1
 11
2683.492234785599
 21
-657.3888615495566
 31
0.0
100
AcDbText
  0
LINE
  5
2525E
330
18
100
AcDbEntity
  8
1DIM
100
AcDbLine
 10
2578.692234796074
 20
-659.9601475820007
 30
0.0
 11
2648.692234789075
 21
-659.9601475820016
 31
0.0
  0
LINE
  5
25362
330
18
100
AcDbEntity
  8
01
  6
CONTINUOUS
100
AcDbLine
 10
2709.14989421162
 20
-898.1083817214496
 30
0.0
 11
2701.14989421162
 21
-898.1083817214496
 31
0.0
  0
LINE
  5
25363
330
18
100
AcDbEntity
  8
01
  6
CONTINUOUS
100
AcDbLine
 10
2701.14989421162
 20
-898.1083817214496
 30
0.0
 11
2701.14989421162
 21
-894.6083817214496
 31
0.0
  0
LINE
  5
25364
330
18
100
AcDbEntity
  8
01
  6
CONTINUOUS
100
AcDbLine
 10
2701.14989421162
 20
-894.6083817214496
 30
0.0
 11
2709.14989421162
 21
-894.6083817214496
 31
0.0
  0
LINE
  5
25365
330
18
100
AcDbEntity
  8
01
  6
CONTINUOUS
100
AcDbLine
 10
2709.14989421162
 20
-894.6083817214496
 30
0.0
 11
2709.14989421162
 21
-898.1083817214496
 31
0.0
  0
LINE
  5
25366
330
18
100
AcDbEntity
  8
01
  6
CONTINUOUS
100
AcDbLine
 10
2709.14989421162
 20
-906.1083817217661
 30
0.0
 11
2701.14989421162
 21
-906.1083817217661
 31
0.0
  0
LINE
  5
25367
330
18
100
AcDbEntity
  8
01
  6
CONTINUOUS
100
AcDbLine
 10
2701.14989421162
 20
-906.1083817217661
 30
0.0
 11
2701.14989421162
 21
-909.6083817217661
 31
0.0
  0
LINE
  5
25368
330
18
100
AcDbEntity
  8
01
  6
CONTINUOUS
100
AcDbLine
 10
2701.14989421162
 20
-909.6083817217661
 30
0.0
 11
2709.14989421162
 21
-909.6083817217661
 31
0.0
  0
LINE
  5
25369
330
18
100
AcDbEntity
  8
01
  6
CONTINUOUS
100
AcDbLine
 10
2709.14989421162
 20
-909.6083817217661
 30
0.0
 11
2709.14989421162
 21
-906.1083817217661
 31
0.0
  0
LINE
  5
2536A
330
18
100
AcDbEntity
  8
1DIM
100
AcDbLine
 10
2709.14989421162
 20
-953.5317969066377
 30
0.0
 11
2709.14989421162
 21
-971.152709173115
 31
0.0
1001
ACAD
1000
DSTYLE
1002
{
1070
    40
1040
2.0
1070
    45
1040
0.5
1002
}
  0
LINE
  5
2536B
330
18
100
AcDbEntity
  8
1DIM
100
AcDbLine
 10
2776.897024798749
 20
-892.1099895897448
 30
0.0
 11
2776.897024798749
 21
-971.152709173115
 31
0.0
1001
ACAD
1000
DSTYLE
1002
{
1070
    40
1040
2.0
1070
    45
1040
0.5
1002
}
  0
LINE
  5
2536C
330
18
100
AcDbEntity
  8
1DIM
100
AcDbLine
 10
2713.14989421162
 20
-969.152709173115
 30
0.0
 11
2772.897024798749
 21
-969.152709173115
 31
0.0
1001
ACAD
1000
DSTYLE
1002
{
1070
    40
1040
2.0
1070
    45
1040
0.5
1002
}
  0
LINE
  5
25370
330
18
100
AcDbEntity
  8
1DIM
100
AcDbLine
 10
2701.149894211621
 20
-952.1082014724278
 30
0.0
 11
2701.149894211621
 21
-970.1821076679835
 31
0.0
1001
ACAD
1000
DSTYLE
1002
{
1070
    40
1040
2.0
1070
    45
1040
0.5
1002
}
  0
LINE
  5
25371
330
18
100
AcDbEntity
  8
1DIM
100
AcDbLine
 10
2650.64989421162
 20
-894.1722979819353
 30
0.0
 11
2650.64989421162
 21
-970.1821076679835
 31
0.0
1001
ACAD
1000
DSTYLE
1002
{
1070
    40
1040
2.0
1070
    45
1040
0.5
1002
}
  0
LINE
  5
25372
330
18
100
AcDbEntity
  8
1DIM
100
AcDbLine
 10
2697.149894211621
 20
-968.1821076679835
 30
0.0
 11
2654.64989421162
 21
-968.1821076679835
 31
0.0
1001
ACAD
1000
DSTYLE
1002
{
1070
    40
1040
2.0
1070
    45
1040
0.5
1002
}
  0
LINE
  5
25376
330
18
100
AcDbEntity
  8
1DIM
100
AcDbLine
 10
2701.149894211621
 20
-916.6099887615261
 30
0.0
 11
2701.149894211621
 21
-941.7546931612096
 31
0.0
1001
ACAD
1000
DSTYLE
1002
{
1070
    40
1040
2.0
1070
    45
1040
0.5
1002
}
  0
LINE
  5
25377
330
18
100
AcDbEntity
  8
1DIM
100
AcDbLine
 10
2692.949894211621
 20
-917.5712006003162
 30
0.0
 11
2692.949894211621
 21
-941.7546931612096
 31
0.0
1001
ACAD
1000
DSTYLE
1002
{
1070
    40
1040
2.0
1070
    45
1040
0.5
1002
}
  0
LINE
  5
25378
330
18
100
AcDbEntity
  8
1DIM
100
AcDbLine
 10
2705.149894211621
 20
-939.7546931612096
 30
0.0
 11
2709.149894211621
 21
-939.7546931612096
 31
0.0
1001
ACAD
1000
DSTYLE
1002
{
1070
    40
1040
2.0
1070
    45
1040
0.5
1002
}
  0
LINE
  5
25379
330
18
100
AcDbEntity
  8
1DIM
100
AcDbLine
 10
2688.949894211621
 20
-939.7546931612096
 30
0.0
 11
2677.483227544954
 21
-939.7546931612096
 31
0.0
1001
ACAD
1000
DSTYLE
1002
{
1070
    40
1040
2.0
1070
    45
1040
0.5
1002
}
  0
LINE
  5
2537A
330
18
100
AcDbEntity
  8
1DIM
100
AcDbLine
 10
2701.149894211621
 20
-939.7546931612096
 30
0.0
 11
2692.949894211621
 21
-939.7546931612096
 31
0.0
1001
ACAD
1000
DSTYLE
1002
{
1070
    40
1040
2.0
1070
    45
1040
0.5
1002
}
  0
LINE
  5
2537E
330
18
100
AcDbEntity
  8
1DIM
100
AcDbLine
 10
2698.649987904192
 20
-889.3514885803527
 30
0.0
 11
2631.190020374385
 21
-889.3514885803527
 31
0.0
1001
ACAD
1000
DSTYLE
1002
{
1070
    40
1040
2.0
1070
    45
1040
0.5
1002
}
  0
LINE
  5
2537F
330
18
100
AcDbEntity
  8
1DIM
100
AcDbLine
 10
2698.64989421162
 20
-917.0582435349357
 30
0.0
 11
2631.190020374385
 21
-917.0582435349357
 31
0.0
1001
ACAD
1000
DSTYLE
1002
{
1070
    40
1040
2.0
1070
    45
1040
0.5
1002
}
  0
LINE
  5
25380
330
18
100
AcDbEntity
  8
1DIM
100
AcDbLine
 10
2633.190020374385
 20
-893.3514885803527
 30
0.0
 11
2633.190020374385
 21
-913.0582435349357
 31
0.0
1001
ACAD
1000
DSTYLE
1002
{
1070
    40
1040
2.0
1070
    45
1040
0.5
1002
}
  0
LINE
  5
25384
330
18
100
AcDbEntity
  8
1DIM
100
AcDbLine
 10
2063.365943235099
 20
-892.5638959745368
 30
0.0
 11
2063.365943235099
 21
-1005.707802979901
 31
0.0
1001
ACAD
1000
DSTYLE
1002
{
1070
    40
1040
2.0
1070
    45
1040
0.5
1002
}
  0
LINE
  5
25385
330
18
100
AcDbEntity
  8
1DIM
100
AcDbLine
 10
2548.93350389587
 20
-892.5896645058245
 30
0.0
 11
2548.93350389587
 21
-1005.707802979901
 31
0.0
1001
ACAD
1000
DSTYLE
1002
{
1070
    40
1040
2.0
1070
    45
1040
0.5
1002
}
  0
LINE
  5
25386
330
18
100
AcDbEntity
  8
1DIM
100
AcDbLine
 10
2067.365943235099
 20
-1003.707802979901
 30
0.0
 11
2544.93350389587
 21
-1003.707802979901
 31
0.0
1001
ACAD
1000
DSTYLE
1002
{
1070
    40
1040
2.0
1070
    45
1040
0.5
1002
}
  0
LINE
  5
2538A
330
18
100
AcDbEntity
  8
1DIM
100
AcDbLine
 10
2306.155146517103
 20
-890.094258620144
 30
0.0
 11
2277.97003493237
 21
-890.0942586201439
 31
0.0
1001
ACAD
1000
DSTYLE
1002
{
1070
    40
1040
2.0
1070
    45
1040
0.5
1002
}
  0
LINE
  5
2538B
330
18
100
AcDbEntity
  8
1DIM
100
AcDbLine
 10
2306.149889597352
 20
-901.85193379989
 30
0.0
 11
2277.97003493237
 21
-901.8519337998899
 31
0.0
1001
ACAD
1000
DSTYLE
1002
{
1070
    40
1040
2.0
1070
    45
1040
0.5
1002
}
  0
LINE
  5
2538C
330
18
100
AcDbEntity
  8
1DIM
100
AcDbLine
 10
2279.97003493237
 20
-897.8519337998899
 30
0.0
 11
2279.97003493237
 21
-894.0942586201439
 31
0.0
1001
ACAD
1000
DSTYLE
1002
{
1070
    40
1040
2.0
1070
    45
1040
0.5
1002
}
  0
LINE
  5
2538D
330
18
100
AcDbEntity
  8
1DIM
100
AcDbLine
 10
2279.97003493237
 20
-890.0942586201439
 30
0.0
 11
2279.97003493237
 21
-856.9275919534794
 31
0.0
1001
ACAD
1000
DSTYLE
1002
{
1070
    40
1040
2.0
1070
    45
1040
0.5
1002
}
  0
LINE
  5
25391
330
18
100
AcDbEntity
  8
1DIM
100
AcDbLine
 10
2081.149861877496
 20
-922.8889843050468
 30
0.0
 11
2081.149861877496
 21
-984.1082433879676
 31
0.0
1001
ACAD
1000
DSTYLE
1002
{
1070
    40
1040
2.0
1070
    45
1040
0.5
1002
}
  0
LINE
  5
25392
330
18
100
AcDbEntity
  8
1DIM
100
AcDbLine
 10
2531.14989421162
 20
-919.1877852066028
 30
0.0
 11
2531.14989421162
 21
-984.1082433879676
 31
0.0
1001
ACAD
1000
DSTYLE
1002
{
1070
    40
1040
2.0
1070
    45
1040
0.5
1002
}
  0
LINE
  5
25393
330
18
100
AcDbEntity
  8
1DIM
100
AcDbLine
 10
2085.149861877496
 20
-982.1082433879676
 30
0.0
 11
2527.14989421162
 21
-982.1082433879676
 31
0.0
1001
ACAD
1000
DSTYLE
1002
{
1070
    40
1040
2.0
1070
    45
1040
0.5
1002
}
  0
LINE
  5
25397
330
18
100
AcDbEntity
  8
1DIM
100
AcDbLine
 10
2089.149965222553
 20
-672.1081386839611
 30
0.0
 11
2106.355254494953
 21
-701.9085738626783
 31
0.0
1001
ACAD
1000
DSTYLE
1002
{
1070
     3
1000
\U+03C6<>
1070
    40
1040
2.0
1070
    45
1040
0.5
1002
}
1001
ACADSTRINGINFO
1000
MIFCodePage
1070
     1
  0
LINE
  5
25398
330
18
100
AcDbEntity
  8
1DIM
100
AcDbLine
 10
2073.149965222553
 20
-672.108138683963
 30
0.0
 11
2090.355254494952
 21
-701.9085738626783
 31
0.0
1001
ACAD
1000
DSTYLE
1002
{
1070
     3
1000
\U+03C6<>
1070
    40
1040
2.0
1070
    45
1040
0.5
1002
}
1001
ACADSTRINGINFO
1000
MIFCodePage
1070
     1
  0
LINE
  5
25399
330
18
100
AcDbEntity
  8
1DIM
100
AcDbLine
 10
2093.200553956573
 20
-699.9085738626783
 30
0.0
 11
2101.200553956574
 21
-699.9085738626783
 31
0.0
1001
ACAD
1000
DSTYLE
1002
{
1070
     3
1000
\U+03C6<>
1070
    40
1040
2.0
1070
    45
1040
0.5
1002
}
1001
ACADSTRINGINFO
1000
MIFCodePage
1070
     1
  0
LINE
  5
2539A
330
18
100
AcDbEntity
  8
1DIM
100
AcDbLine
 10
2105.200553956574
 20
-699.9085738626783
 30
0.0
 11
2220.650419651826
 21
-699.9085738626783
 31
0.0
1001
ACAD
1000
DSTYLE
1002
{
1070
     3
1000
\U+03C6<>
1070
    40
1040
2.0
1070
    45
1040
0.5
1002
}
1001
ACADSTRINGINFO
1000
MIFCodePage
1070
     1
  0
SOLID
  5
2539E
330
18
100
AcDbEntity
  8
1DIM
100
AcDbTrace
 10
2531.404495211827
 20
-599.7913640129975
 30
0.0
 11
2533.423589156673
 21
-603.3081386839611
 31
0.0
 12
2530.373059856101
 22
-600.6363012205672
 32
0.0
 13
2530.373059856101
 23
-600.6363012205672
 33
0.0
1001
ACAD
1000
DSTYLE
1002
{
1070
    40
1040
2.0
1070
    45
1040
0.5
1002
}
  0
LINE
  5
2539F
330
18
100
AcDbEntity
  8
1DIM
100
AcDbLine
 10
2530.888777533964
 20
-600.2138326167824
 30
0.0
 11
2522.145091363176
 21
-589.5402027007018
 31
0.0
1001
ACAD
1000
DSTYLE
1002
{
1070
    40
1040
2.0
1070
    45
1040
0.5
1002
}
  0
LINE
  5
253A0
330
18
100
AcDbEntity
  8
1DIM
100
AcDbLine
 10
2522.145091363176
 20
-589.5402027007018
 30
0.0
 11
2395.145091363176
 21
-589.5402027007018
 31
0.0
1001
ACAD
1000
DSTYLE
1002
{
1070
    40
1040
2.0
1070
    45
1040
0.5
1002
}
  0
TEXT
  5
253A1
330
18
100
AcDbEntity
  8
1DIM
  6
CONTINUOUS
100
AcDbText
 10
2371.346017289102
 20
-576.4735360340352
 30
0.0
 40
7.0
  1
Material\U+FF1AStainless Steel
100
AcDbText
  0
TEXT
  5
253A2
330
18
100
AcDbEntity
  8
1DIM
  6
CONTINUOUS
100
AcDbText
 10
2386.755739511324
 20
-588.1402027007018
 30
0.0
 40
7.0
  1
Finish:Various Finishes
100
AcDbText
  0
TEXT
  5
253A3
330
18
100
AcDbEntity
  8
1DIM
  6
CONTINUOUS
100
AcDbText
 10
2265.684913907602
 20
-639.4409235968473
 30
0.0
 40
7.0
  1
Glass Door
100
AcDbText
  0
TEXT
  5
253A4
330
18
100
AcDbEntity
  8
1DIM
  6
CONTINUOUS
100
AcDbText
 10
2288.383062055751
 20
-651.1075902635139
 30
0.0
 40
7.0
  1
8\U+FF5E12mm
100
AcDbText
  0
LINE
  5
253A5
330
18
100
AcDbEntity
  8
1DIM
100
AcDbLine
 10
2253.222570513195
 20
-621.126341352388
 30
0.0
 11
2240.108978702984
 21
-621.126341352388
 31
0.0
1001
ACAD
1000
DSTYLE
1002
{
1070
    40
1040
2.0
1070
    45
1040
0.5
1002
}
  0
LINE
  5
253A6
330
18
100
AcDbEntity
  8
1DIM
100
AcDbLine
 10
2252.394179213366
 20
-597.0899331734676
 30
0.0
 11
2240.108978702984
 21
-597.0899331734676
 31
0.0
1001
ACAD
1000
DSTYLE
1002
{
1070
    40
1040
2.0
1070
    45
1040
0.5
1002
}
  0
LINE
  5
253A7
330
18
100
AcDbEntity
  8
1DIM
100
AcDbLine
 10
2242.108978702984
 20
-601.0899331734676
 30
0.0
 11
2242.108978702984
 21
-617.126341352388
 31
0.0
1001
ACAD
1000
DSTYLE
1002
{
1070
    40
1040
2.0
1070
    45
1040
0.5
1002
}
  0
LINE
  5
253A8
330
18
100
AcDbEntity
  8
1DIM
100
AcDbLine
 10
2242.108978702984
 20
-621.126341352388
 30
0.0
 11
2242.108978702984
 21
-641.0160171492657
 31
0.0
1001
ACAD
1000
DSTYLE
1002
{
1070
    40
1040
2.0
1070
    45
1040
0.5
1002
}
  0
SOLID
  5
253AC
330
18
100
AcDbEntity
  8
1DIM
100
AcDbTrace
 10
2518.116090503248
 20
-675.5765087860372
 30
0.0
 11
2520.974347458025
 21
-672.6999115558165
 31
0.0
 12
2519.203541332227
 22
-676.3480192994664
 32
0.0
 13
2519.203541332227
 23
-676.3480192994664
 33
0.0
1001
ACAD
1000
DSTYLE
1002
{
1070
    40
1040
2.0
1070
    45
1040
0.5
1002
}
  0
LINE
  5
253AD
330
18
100
AcDbEntity
  8
1DIM
100
AcDbLine
 10
2518.659815917738
 20
-675.9622640427518
 30
0.0
 11
2473.911500196081
 21
-739.0354071560055
 31
0.0
1001
ACAD
1000
DSTYLE
1002
{
1070
    40
1040
2.0
1070
    45
1040
0.5
1002
}
  0
LINE
  5
253AE
330
18
100
AcDbEntity
  8
1DIM
100
AcDbLine
 10
2473.911500196081
 20
-739.0354071560055
 30
0.0
 11
2400.111500196081
 21
-739.0354071560055
 31
0.0
1001
ACAD
1000
DSTYLE
1002
{
1070
    40
1040
2.0
1070
    45
1040
0.5
1002
}
  0
TEXT
  5
253AF
330
18
100
AcDbEntity
  8
1DIM
  6
CONTINUOUS
100
AcDbText
 10
2393.598537233118
 20
-723.6354071560055
 30
0.0
 40
7.0
  1
Material\U+FF1AGOM
100
AcDbText
  0
TEXT
  5
253B0
330
18
100
AcDbEntity
  8
1DIM
  6
CONTINUOUS
100
AcDbText
 10
2401.817055751637
 20
-735.3020738226721
 30
0.0
 40
7.0
  1
Finish\U+FF1AGrey
100
AcDbText
  0
SOLID
  5
253B1
330
18
100
AcDbEntity
  8
1DIM
100
AcDbTrace
 10
2518.785094539025
 20
-670.3321678865306
 30
0.0
 11
2522.091716392216
 21
-667.984680641742
 31
0.0
 12
2519.72517806994
 22
-671.2776945824418
 32
0.0
 13
2519.72517806994
 23
-671.2776945824418
 33
0.0
1001
ACAD
1000
DSTYLE
1002
{
1070
    40
1040
2.0
1070
    45
1040
0.5
1002
}
  0
LINE
  5
253B2
330
18
100
AcDbEntity
  8
1DIM
100
AcDbLine
 10
2519.255136304482
 20
-670.8049312344862
 30
0.0
 11
2487.276264510429
 21
-702.5997085166373
 31
0.0
1001
ACAD
1000
DSTYLE
1002
{
1070
    40
1040
2.0
1070
    45
1040
0.5
1002
}
  0
LINE
  5
253B3
330
18
100
AcDbEntity
  8
1DIM
100
AcDbLine
 10
2487.276264510429
 20
-702.5997085166373
 30
0.0
 11
2413.476264510428
 21
-702.5997085166373
 31
0.0
1001
ACAD
1000
DSTYLE
1002
{
1070
    40
1040
2.0
1070
    45
1040
0.5
1002
}
  0
TEXT
  5
253B4
330
18
100
AcDbEntity
  8
1DIM
  6
CONTINUOUS
100
AcDbText
 10
2406.963301547466
 20
-689.5330418499707
 30
0.0
 40
7.0
  1
Material\U+FF1AGOM
100
AcDbText
  0
TEXT
  5
253B5
330
18
100
AcDbEntity
  8
1DIM
  6
CONTINUOUS
100
AcDbText
 10
2411.720708954873
 20
-701.1997085166373
 30
0.0
 40
7.0
  1
Finish\U+FF1ABlack
100
AcDbText
  0
SOLID
  5
253B6
330
18
100
AcDbEntity
  8
1DIM
100
AcDbTrace
 10
2278.866507524535
 20
-599.7913640129975
 30
0.0
 11
2280.885601469381
 21
-603.3081386839611
 31
0.0
 12
2277.835072168809
 22
-600.6363012205672
 32
0.0
 13
2277.835072168809
 23
-600.6363012205672
 33
0.0
1001
ACAD
1000
DSTYLE
1002
{
1070
    40
1040
2.0
1070
    45
1040
0.5
1002
}
  0
LINE
  5
253B7
330
18
100
AcDbEntity
  8
1DIM
100
AcDbLine
 10
2278.350789846672
 20
-600.2138326167824
 30
0.0
 11
2269.607103675884
 21
-589.5402027007018
 31
0.0
1001
ACAD
1000
DSTYLE
1002
{
1070
    40
1040
2.0
1070
    45
1040
0.5
1002
}
  0
LINE
  5
253B8
330
18
100
AcDbEntity
  8
1DIM
100
AcDbLine
 10
2269.607103675884
 20
-589.5402027007018
 30
0.0
 11
2142.607103675884
 21
-589.5402027007018
 31
0.0
1001
ACAD
1000
DSTYLE
1002
{
1070
    40
1040
2.0
1070
    45
1040
0.5
1002
}
  0
TEXT
  5
253B9
330
18
100
AcDbEntity
  8
1DIM
  6
CONTINUOUS
100
AcDbText
 10
2118.80802960181
 20
-576.4735360340352
 30
0.0
 40
7.0
  1
Material\U+FF1AStainless Steel
100
AcDbText
  0
TEXT
  5
253BA
330
18
100
AcDbEntity
  8
1DIM
  6
CONTINUOUS
100
AcDbText
 10
2134.217751824032
 20
-588.1402027007018
 30
0.0
 40
7.0
  1
Finish:Various Finishes
100
AcDbText
  0
SOLID
  5
253BB
330
18
100
AcDbEntity
  8
1DIM
100
AcDbTrace
 10
2522.014138261208
 20
-705.332199299317
 30
0.0
 11
2524.194338098267
 21
-701.9129635491919
 31
0.0
 12
2523.240928225414
 22
-705.8544675843023
 32
0.0
 13
2523.240928225414
 23
-705.8544675843023
 33
0.0
1001
ACAD
1000
DSTYLE
1002
{
1070
    40
1040
2.0
1070
    45
1040
0.5
1002
}
  0
LINE
  5
253BC
330
18
100
AcDbEntity
  8
1DIM
100
AcDbLine
 10
2522.627533243311
 20
-705.5933334418096
 30
0.0
 11
2493.936709716651
 21
-772.9870760434738
 31
0.0
1001
ACAD
1000
DSTYLE
1002
{
1070
    40
1040
2.0
1070
    45
1040
0.5
1002
}
  0
LINE
  5
253BD
330
18
100
AcDbEntity
  8
1DIM
100
AcDbLine
 10
2493.936709716651
 20
-772.9870760434738
 30
0.0
 11
2366.936709716651
 21
-772.9870760434738
 31
0.0
1001
ACAD
1000
DSTYLE
1002
{
1070
    40
1040
2.0
1070
    45
1040
0.5
1002
}
  0
TEXT
  5
253BE
330
18
100
AcDbEntity
  8
1DIM
  6
CONTINUOUS
100
AcDbText
 10
2343.137635642577
 20
-759.9204093768072
 30
0.0
 40
7.0
  1
Material\U+FF1AStainless Steel
100
AcDbText
  0
TEXT
  5
253BF
330
18
100
AcDbEntity
  8
1DIM
  6
CONTINUOUS
100
AcDbText
 10
2358.547357864799
 20
-771.5870760434739
 30
0.0
 40
7.0
  1
Finish:Various Finishes
100
AcDbText
  0
SOLID
  5
253C0
330
18
100
AcDbEntity
  8
1DIM
100
AcDbTrace
 10
2076.704077712458
 20
-691.845302334589
 30
0.0
 11
2075.135767454861
 21
-688.1056703499734
 31
0.0
 12
2077.832157801653
 22
-691.1345189005241
 32
0.0
 13
2077.832157801653
 23
-691.1345189005241
 33
0.0
1001
ACAD
1000
DSTYLE
1002
{
1070
    40
1040
2.0
1070
    45
1040
0.5
1002
}
  0
LINE
  5
253C1
330
18
100
AcDbEntity
  8
1DIM
100
AcDbLine
 10
2077.268117757056
 20
-691.4899106175566
 30
0.0
 11
2102.046987315325
 21
-730.8163046242013
 31
0.0
1001
ACAD
1000
DSTYLE
1002
{
1070
    40
1040
2.0
1070
    45
1040
0.5
1002
}
  0
LINE
  5
253C2
330
18
100
AcDbEntity
  8
1DIM
100
AcDbLine
 10
2102.046987315325
 20
-730.8163046242013
 30
0.0
 11
2229.046987315325
 21
-730.8163046242013
 31
0.0
1001
ACAD
1000
DSTYLE
1002
{
1070
    40
1040
2.0
1070
    45
1040
0.5
1002
}
  0
TEXT
  5
253C3
330
18
100
AcDbEntity
  8
1DIM
  6
CONTINUOUS
100
AcDbText
 10
2086.447913241251
 20
-717.7496379575347
 30
0.0
 40
7.0
  1
Material\U+FF1AStainless Steel
100
AcDbText
  0
TEXT
  5
253C4
330
18
100
AcDbEntity
  8
1DIM
  6
CONTINUOUS
100
AcDbText
 10
2101.857635463473
 20
-729.4163046242013
 30
0.0
 40
7.0
  1
Finish:Various Finishes
100
AcDbText
  0
LINE
  5
253C5
330
18
100
AcDbEntity
  8
1DIM
100
AcDbLine
 10
2513.149861877497
 20
-674.1081491942214
 30
0.0
 11
2513.149861877497
 21
-747.3397903030835
 31
0.0
1001
ACAD
1000
DSTYLE
1002
{
1070
    40
1040
2.0
1002
}
  0
LINE
  5
253C6
330
18
100
AcDbEntity
  8
1DIM
100
AcDbLine
 10
2549.149861877497
 20
-674.1081491942219
 30
0.0
 11
2549.149861877497
 21
-747.3397903030835
 31
0.0
1001
ACAD
1000
DSTYLE
1002
{
1070
    40
1040
2.0
1002
}
  0
LINE
  5
253C7
330
18
100
AcDbEntity
  8
1DIM
100
AcDbLine
 10
2517.149861877497
 20
-745.3397903030835
 30
0.0
 11
2545.149861877497
 21
-745.3397903030835
 31
0.0
1001
ACAD
1000
DSTYLE
1002
{
1070
    40
1040
2.0
1002
}
  0
LINE
  5
253CB
330
18
100
AcDbEntity
  8
0
  6
BYBLOCK
100
AcDbLine
 10
2713.14989421162
 20
-970.224505933115
 30
0.0
 11
2709.14989421162
 21
-969.152709173115
 31
0.0
  0
LINE
  5
253CC
330
18
100
AcDbEntity
  8
0
  6
BYBLOCK
100
AcDbLine
 10
2709.14989421162
 20
-969.152709173115
 30
0.0
 11
2713.14989421162
 21
-968.080912413115
 31
0.0
  0
LINE
  5
253CD
330
18
100
AcDbEntity
  8
0
  6
BYBLOCK
100
AcDbLine
 10
2709.14989421162
 20
-969.152709173115
 30
0.0
 11
2713.14989421162
 21
-969.152709173115
 31
0.0
  0
LINE
  5
253CE
330
18
100
AcDbEntity
  8
0
  6
BYBLOCK
100
AcDbLine
 10
2772.897024798749
 20
-968.080912413115
 30
0.0
 11
2776.897024798749
 21
-969.152709173115
 31
0.0
  0
LINE
  5
253CF
330
18
100
AcDbEntity
  8
0
  6
BYBLOCK
100
AcDbLine
 10
2776.897024798749
 20
-969.152709173115
 30
0.0
 11
2772.897024798749
 21
-970.224505933115
 31
0.0
  0
LINE
  5
253D0
330
18
100
AcDbEntity
  8
0
  6
BYBLOCK
100
AcDbLine
 10
2776.897024798749
 20
-969.152709173115
 30
0.0
 11
2772.897024798749
 21
-969.152709173115
 31
0.0
  0
TEXT
  5
253D1
330
18
100
AcDbEntity
  8
1DIM
  6
CONTINUOUS
100
AcDbText
 10
2729.125588656064
 20
-967.7527091731149
 30
0.0
 40
7.0
  1
67.5
100
AcDbText
1001
ACAD
1000
DSTYLE
1002
{
1070
    40
1040
2.0
1070
    45
1040
0.5
1002
}
  0
LINE
  5
253D2
330
18
100
AcDbEntity
  8
0
  6
BYBLOCK
100
AcDbLine
 10
2697.149894211621
 20
-967.1103109079835
 30
0.0
 11
2701.149894211621
 21
-968.1821076679835
 31
0.0
  0
LINE
  5
253D3
330
18
100
AcDbEntity
  8
0
  6
BYBLOCK
100
AcDbLine
 10
2701.149894211621
 20
-968.1821076679835
 30
0.0
 11
2697.149894211621
 21
-969.2539044279835
 31
0.0
  0
LINE
  5
253D4
330
18
100
AcDbEntity
  8
0
  6
BYBLOCK
100
AcDbLine
 10
2701.149894211621
 20
-968.1821076679835
 30
0.0
 11
2697.149894211621
 21
-968.1821076679835
 31
0.0
  0
LINE
  5
253D5
330
18
100
AcDbEntity
  8
0
  6
BYBLOCK
100
AcDbLine
 10
2654.64989421162
 20
-969.2539044279835
 30
0.0
 11
2650.64989421162
 21
-968.1821076679835
 31
0.0
  0
LINE
  5
253D6
330
18
100
AcDbEntity
  8
0
  6
BYBLOCK
100
AcDbLine
 10
2650.64989421162
 20
-968.1821076679835
 30
0.0
 11
2654.64989421162
 21
-967.1103109079835
 31
0.0
  0
LINE
  5
253D7
330
18
100
AcDbEntity
  8
0
  6
BYBLOCK
100
AcDbLine
 10
2650.64989421162
 20
-968.1821076679835
 30
0.0
 11
2654.64989421162
 21
-968.1821076679835
 31
0.0
  0
TEXT
  5
253D8
330
18
100
AcDbEntity
  8
1DIM
  6
CONTINUOUS
100
AcDbText
 10
2666.058921989398
 20
-966.7821076679835
 30
0.0
 40
7.0
  1
50.5
100
AcDbText
1001
ACAD
1000
DSTYLE
1002
{
1070
    40
1040
2.0
1070
    45
1040
0.5
1002
}
  0
LINE
  5
253D9
330
18
100
AcDbEntity
  8
0
  6
BYBLOCK
100
AcDbLine
 10
2705.149894211621
 20
-940.8264899212096
 30
0.0
 11
2701.149894211621
 21
-939.7546931612096
 31
0.0
  0
LINE
  5
253DA
330
18
100
AcDbEntity
  8
0
  6
BYBLOCK
100
AcDbLine
 10
2701.149894211621
 20
-939.7546931612096
 30
0.0
 11
2705.149894211621
 21
-938.6828964012096
 31
0.0
  0
LINE
  5
253DB
330
18
100
AcDbEntity
  8
0
  6
BYBLOCK
100
AcDbLine
 10
2701.149894211621
 20
-939.7546931612096
 30
0.0
 11
2705.149894211621
 21
-939.7546931612096
 31
0.0
  0
LINE
  5
253DC
330
18
100
AcDbEntity
  8
0
  6
BYBLOCK
100
AcDbLine
 10
2688.949894211621
 20
-938.6828964012096
 30
0.0
 11
2692.949894211621
 21
-939.7546931612096
 31
0.0
  0
LINE
  5
253DD
330
18
100
AcDbEntity
  8
0
  6
BYBLOCK
100
AcDbLine
 10
2692.949894211621
 20
-939.7546931612096
 30
0.0
 11
2688.949894211621
 21
-940.8264899212096
 31
0.0
  0
LINE
  5
253DE
330
18
100
AcDbEntity
  8
0
  6
BYBLOCK
100
AcDbLine
 10
2692.949894211621
 20
-939.7546931612096
 30
0.0
 11
2688.949894211621
 21
-939.7546931612096
 31
0.0
  0
TEXT
  5
253DF
330
18
100
AcDbEntity
  8
1DIM
  6
CONTINUOUS
100
AcDbText
 10
2678.883227544954
 20
-938.3546931612096
 30
0.0
 40
7.0
  1
8
100
AcDbText
1001
ACAD
1000
DSTYLE
1002
{
1070
    40
1040
2.0
1070
    45
1040
0.5
1002
}
  0
LINE
  5
253E0
330
18
100
AcDbEntity
  8
0
  6
BYBLOCK
100
AcDbLine
 10
2632.118223614385
 20
-893.3514885803527
 30
0.0
 11
2633.190020374385
 21
-889.3514885803527
 31
0.0
  0
LINE
  5
253E1
330
18
100
AcDbEntity
  8
0
  6
BYBLOCK
100
AcDbLine
 10
2633.190020374385
 20
-889.3514885803527
 30
0.0
 11
2634.261817134385
 21
-893.3514885803527
 31
0.0
  0
LINE
  5
253E2
330
18
100
AcDbEntity
  8
0
  6
BYBLOCK
100
AcDbLine
 10
2633.190020374385
 20
-889.3514885803527
 30
0.0
 11
2633.190020374385
 21
-893.3514885803527
 31
0.0
  0
LINE
  5
253E3
330
18
100
AcDbEntity
  8
0
  6
BYBLOCK
100
AcDbLine
 10
2634.261817134385
 20
-913.0582435349357
 30
0.0
 11
2633.190020374385
 21
-917.0582435349357
 31
0.0
  0
LINE
  5
253E4
330
18
100
AcDbEntity
  8
0
  6
BYBLOCK
100
AcDbLine
 10
2633.190020374385
 20
-917.0582435349357
 30
0.0
 11
2632.118223614385
 21
-913.0582435349357
 31
0.0
  0
LINE
  5
253E5
330
18
100
AcDbEntity
  8
0
  6
BYBLOCK
100
AcDbLine
 10
2633.190020374385
 20
-917.0582435349357
 30
0.0
 11
2633.190020374385
 21
-913.0582435349357
 31
0.0
  0
TEXT
  5
253E6
330
18
100
AcDbEntity
  8
1DIM
  6
CONTINUOUS
100
AcDbText
 10
2631.790020374385
 20
-911.9869024968525
 30
0.0
 40
7.0
  1
27.5
 50
90.0
100
AcDbText
1001
ACAD
1000
DSTYLE
1002
{
1070
    40
1040
2.0
1070
    45
1040
0.5
1002
}
  0
LINE
  5
253E7
330
18
100
AcDbEntity
  8
0
  6
BYBLOCK
100
AcDbLine
 10
2067.365943235099
 20
-1004.779599739901
 30
0.0
 11
2063.365943235099
 21
-1003.707802979901
 31
0.0
  0
LINE
  5
253E8
330
18
100
AcDbEntity
  8
0
  6
BYBLOCK
100
AcDbLine
 10
2063.365943235099
 20
-1003.707802979901
 30
0.0
 11
2067.365943235099
 21
-1002.636006219901
 31
0.0
  0
LINE
  5
253E9
330
18
100
AcDbEntity
  8
0
  6
BYBLOCK
100
AcDbLine
 10
2063.365943235099
 20
-1003.707802979901
 30
0.0
 11
2067.365943235099
 21
-1003.707802979901
 31
0.0
  0
LINE
  5
253EA
330
18
100
AcDbEntity
  8
0
  6
BYBLOCK
100
AcDbLine
 10
2544.93350389587
 20
-1002.636006219901
 30
0.0
 11
2548.93350389587
 21
-1003.707802979901
 31
0.0
  0
LINE
  5
253EB
330
18
100
AcDbEntity
  8
0
  6
BYBLOCK
100
AcDbLine
 10
2548.93350389587
 20
-1003.707802979901
 30
0.0
 11
2544.93350389587
 21
-1004.779599739901
 31
0.0
  0
LINE
  5
253EC
330
18
100
AcDbEntity
  8
0
  6
BYBLOCK
100
AcDbLine
 10
2548.93350389587
 20
-1003.707802979901
 30
0.0
 11
2544.93350389587
 21
-1003.707802979901
 31
0.0
  0
TEXT
  5
253ED
330
18
100
AcDbEntity
  8
1DIM
  6
CONTINUOUS
100
AcDbText
 10
2292.125418009929
 20
-1002.307802979901
 30
0.0
 40
7.0
  1
485.5
100
AcDbText
1001
ACAD
1000
DSTYLE
1002
{
1070
    40
1040
2.0
1070
    45
1040
0.5
1002
}
  0
LINE
  5
253EE
330
18
100
AcDbEntity
  8
0
  6
BYBLOCK
100
AcDbLine
 10
2281.04183169237
 20
-897.8519337998899
 30
0.0
 11
2279.97003493237
 21
-901.8519337998899
 31
0.0
  0
LINE
  5
253EF
330
18
100
AcDbEntity
  8
0
  6
BYBLOCK
100
AcDbLine
 10
2279.97003493237
 20
-901.8519337998899
 30
0.0
 11
2278.89823817237
 21
-897.8519337998899
 31
0.0
  0
LINE
  5
253F0
330
18
100
AcDbEntity
  8
0
  6
BYBLOCK
100
AcDbLine
 10
2279.97003493237
 20
-901.8519337998899
 30
0.0
 11
2279.97003493237
 21
-897.8519337998899
 31
0.0
  0
LINE
  5
253F1
330
18
100
AcDbEntity
  8
0
  6
BYBLOCK
100
AcDbLine
 10
2278.89823817237
 20
-894.0942586201439
 30
0.0
 11
2279.97003493237
 21
-890.0942586201439
 31
0.0
  0
LINE
  5
253F2
330
18
100
AcDbEntity
  8
0
  6
BYBLOCK
100
AcDbLine
 10
2279.97003493237
 20
-890.0942586201439
 30
0.0
 11
2281.04183169237
 21
-894.0942586201439
 31
0.0
  0
LINE
  5
253F3
330
18
100
AcDbEntity
  8
0
  6
BYBLOCK
100
AcDbLine
 10
2279.97003493237
 20
-890.0942586201439
 30
0.0
 11
2279.97003493237
 21
-894.0942586201439
 31
0.0
  0
TEXT
  5
253F4
330
18
100
AcDbEntity
  8
1DIM
  6
CONTINUOUS
100
AcDbText
 10
2278.57003493237
 20
-868.160925286812
 30
0.0
 40
7.0
  1
12
 50
90.0
100
AcDbText
1001
ACAD
1000
DSTYLE
1002
{
1070
    40
1040
2.0
1070
    45
1040
0.5
1002
}
  0
LINE
  5
253F5
330
18
100
AcDbEntity
  8
0
  6
BYBLOCK
100
AcDbLine
 10
2085.149861877496
 20
-983.1800401479676
 30
0.0
 11
2081.149861877496
 21
-982.1082433879676
 31
0.0
  0
LINE
  5
253F6
330
18
100
AcDbEntity
  8
0
  6
BYBLOCK
100
AcDbLine
 10
2081.149861877496
 20
-982.1082433879676
 30
0.0
 11
2085.149861877496
 21
-981.0364466279676
 31
0.0
  0
LINE
  5
253F7
330
18
100
AcDbEntity
  8
0
  6
BYBLOCK
100
AcDbLine
 10
2081.149861877496
 20
-982.1082433879676
 30
0.0
 11
2085.149861877496
 21
-982.1082433879676
 31
0.0
  0
LINE
  5
253F8
330
18
100
AcDbEntity
  8
0
  6
BYBLOCK
100
AcDbLine
 10
2527.14989421162
 20
-981.0364466279676
 30
0.0
 11
2531.14989421162
 21
-982.1082433879676
 31
0.0
  0
LINE
  5
253F9
330
18
100
AcDbEntity
  8
0
  6
BYBLOCK
100
AcDbLine
 10
2531.14989421162
 20
-982.1082433879676
 30
0.0
 11
2527.14989421162
 21
-983.1800401479676
 31
0.0
  0
LINE
  5
253FA
330
18
100
AcDbEntity
  8
0
  6
BYBLOCK
100
AcDbLine
 10
2531.14989421162
 20
-982.1082433879676
 30
0.0
 11
2527.14989421162
 21
-982.1082433879676
 31
0.0
  0
TEXT
  5
253FB
330
18
100
AcDbEntity
  8
1DIM
  6
CONTINUOUS
100
AcDbText
 10
2293.729739155669
 20
-980.7082433879675
 30
0.0
 40
7.0
  1
P450
100
AcDbText
1001
ACAD
1000
DSTYLE
1002
{
1070
    40
1040
2.0
1070
    45
1040
0.5
1002
}
  0
LINE
  5
253FC
330
18
100
AcDbEntity
  8
0
  6
BYBLOCK
100
AcDbLine
 10
2093.200553956573
 20
-700.9803706226783
 30
0.0
 11
2089.200553956573
 21
-699.9085738626783
 31
0.0
  0
LINE
  5
253FD
330
18
100
AcDbEntity
  8
0
  6
BYBLOCK
100
AcDbLine
 10
2089.200553956573
 20
-699.9085738626783
 30
0.0
 11
2093.200553956573
 21
-698.8367771026783
 31
0.0
  0
LINE
  5
253FE
330
18
100
AcDbEntity
  8
0
  6
BYBLOCK
100
AcDbLine
 10
2089.200553956573
 20
-699.9085738626783
 30
0.0
 11
2093.200553956573
 21
-699.9085738626783
 31
0.0
  0
LINE
  5
253FF
330
18
100
AcDbEntity
  8
0
  6
BYBLOCK
100
AcDbLine
 10
2101.200553956574
 20
-698.8367771026783
 30
0.0
 11
2105.200553956574
 21
-699.9085738626783
 31
0.0
  0
LINE
  5
25400
330
18
100
AcDbEntity
  8
0
  6
BYBLOCK
100
AcDbLine
 10
2105.200553956574
 20
-699.9085738626783
 30
0.0
 11
2101.200553956574
 21
-700.9803706226783
 31
0.0
  0
LINE
  5
25401
330
18
100
AcDbEntity
  8
0
  6
BYBLOCK
100
AcDbLine
 10
2105.200553956574
 20
-699.9085738626783
 30
0.0
 11
2101.200553956574
 21
-699.9085738626783
 31
0.0
  0
TEXT
  5
25402
330
18
100
AcDbEntity
  8
1DIM
  6
CONTINUOUS
100
AcDbText
 10
2133.646484466641
 20
-698.5085738626783
 30
0.0
 40
7.0
  1
Glass Hole\U+FF1A\U+03C616
100
AcDbText
1001
ACAD
1000
DSTYLE
1002
{
1070
     3
1000
\U+03C6<>
1070
    40
1040
2.0
1070
    45
1040
0.5
1002
}
1001
ACADSTRINGINFO
1000
MIFCodePage
1070
     1
  0
LINE
  5
25403
330
18
100
AcDbEntity
  8
0
  6
BYBLOCK
100
AcDbLine
 10
2241.037181942984
 20
-601.0899331734676
 30
0.0
 11
2242.108978702984
 21
-597.0899331734676
 31
0.0
  0
LINE
  5
25404
330
18
100
AcDbEntity
  8
0
  6
BYBLOCK
100
AcDbLine
 10
2242.108978702984
 20
-597.0899331734676
 30
0.0
 11
2243.180775462984
 21
-601.0899331734676
 31
0.0
  0
LINE
  5
25405
330
18
100
AcDbEntity
  8
0
  6
BYBLOCK
100
AcDbLine
 10
2242.108978702984
 20
-597.0899331734676
 30
0.0
 11
2242.108978702984
 21
-601.0899331734676
 31
0.0
  0
LINE
  5
25406
330
18
100
AcDbEntity
  8
0
  6
BYBLOCK
100
AcDbLine
 10
2243.180775462984
 20
-617.126341352388
 30
0.0
 11
2242.108978702984
 21
-621.126341352388
 31
0.0
  0
LINE
  5
25407
330
18
100
AcDbEntity
  8
0
  6
BYBLOCK
100
AcDbLine
 10
2242.108978702984
 20
-621.126341352388
 30
0.0
 11
2241.037181942984
 21
-617.126341352388
 31
0.0
  0
LINE
  5
25408
330
18
100
AcDbEntity
  8
0
  6
BYBLOCK
100
AcDbLine
 10
2242.108978702984
 20
-621.126341352388
 30
0.0
 11
2242.108978702984
 21
-617.126341352388
 31
0.0
  0
TEXT
  5
25409
330
18
100
AcDbEntity
  8
1DIM
  6
CONTINUOUS
100
AcDbText
 10
2240.708978702984
 20
-639.6160171492656
 30
0.0
 40
7.0
  1
24
 50
90.0
100
AcDbText
1001
ACAD
1000
DSTYLE
1002
{
1070
    40
1040
2.0
1070
    45
1040
0.5
1002
}
  0
LINE
  5
2540A
330
18
100
AcDbEntity
  8
0
  6
BYBLOCK
100
AcDbLine
 10
2517.149861877497
 20
-746.4115870630835
 30
0.0
 11
2513.149861877497
 21
-745.3397903030835
 31
0.0
  0
LINE
  5
2540B
330
18
100
AcDbEntity
  8
0
  6
BYBLOCK
100
AcDbLine
 10
2513.149861877497
 20
-745.3397903030835
 30
0.0
 11
2517.149861877497
 21
-744.2679935430835
 31
0.0
  0
LINE
  5
2540C
330
18
100
AcDbEntity
  8
0
  6
BYBLOCK
100
AcDbLine
 10
2513.149861877497
 20
-745.3397903030835
 30
0.0
 11
2517.149861877497
 21
-745.3397903030835
 31
0.0
  0
LINE
  5
2540D
330
18
100
AcDbEntity
  8
0
  6
BYBLOCK
100
AcDbLine
 10
2545.149861877497
 20
-744.2679935430835
 30
0.0
 11
2549.149861877497
 21
-745.3397903030835
 31
0.0
  0
LINE
  5
2540E
330
18
100
AcDbEntity
  8
0
  6
BYBLOCK
100
AcDbLine
 10
2549.149861877497
 20
-745.3397903030835
 30
0.0
 11
2545.149861877497
 21
-746.4115870630835
 31
0.0
  0
LINE
  5
2540F
330
18
100
AcDbEntity
  8
0
  6
BYBLOCK
100
AcDbLine
 10
2549.149861877497
 20
-745.3397903030835
 30
0.0
 11
2545.149861877497
 21
-745.3397903030835
 31
0.0
  0
TEXT
  5
25410
330
18
100
AcDbEntity
  8
1DIM
  6
CONTINUOUS
100
AcDbText
 10
2526.123478389069
 20
-743.9397903030836
 30
0.0
 40
7.0
  1
36
100
AcDbText
1001
ACAD
1000
DSTYLE
1002
{
1070
    40
1040
2.0
1002
}
  0
VIEWPORT
  5
57
330
15
100
AcDbEntity
 67
     1
  8
0
100
AcDbViewport
 68
     1
 10
0.0
 20
0.0
 30
0.0
 40
613.2444252161359
 41
286.1099999999158
 68
     1
 69
     1
1001
ACAD
1000
MVIEW
1002
{
1070
    16
1010
0.0
1020
0.0
1030
0.0
1010
0.0
1020
0.0
1030
1.0
1040
0.0
1040
286.1099999999158
1040
-12.72202443129225
1040
10.08904653602718
1040
50.0
1040
0.0
1040
0.0
1070
    16
1070
   100
1070
     0
1070
     1
1070
     0
1070
     0
1070
     0
1070
     0
1040
0.0
1040
0.0
1040
0.0
1040
10.0
1040
10.0
1040
10.0
1040
10.0
1070
     0
1002
{
1002
}
1002
}
  0
ENDSEC
  0
SECTION
  2
OBJECTS
  0
DICTIONARY
  5
C
330
0
100
AcDbDictionary
  3
ACAD_CIP_PREVIOUS_PRODUCT_INFO
350
252FD
  3
ACAD_COLOR
350
2D0
  3
ACAD_DETAILVIEWSTYLE
350
252EB
  3
ACAD_GROUP
350
D
  3
ACAD_LAYOUT
350
2D1
  3
ACAD_MATERIAL
350
2CF
  3
ACAD_MLEADERSTYLE
350
19E18
  3
ACAD_MLINESTYLE
350
1B
  3
ACAD_PLOTSETTINGS
350
2D2
  3
ACAD_SCALELIST
350
19DF6
  3
ACAD_SECTIONVIEWSTYLE
350
252E9
  3
ACAD_VISUALSTYLE
350
19DE5
  3
ACDBHEADERROUNDTRIPXREC
350
25412
  3
ACDBVARIABLEDICTIONARY
350
37
  3
AEC_PROPERTY_SET_DEFS
350
22E8F
  3
CONTENTDICTIONARY
350
D8
  3
DRAWINGVARIABLESDICT
350
20
  3
DWGPROPS
350
25415
1001
ACAD
1000
TREAT_AS_HARD
1070
     0
  0
DICTIONARY
  5
18FE8
330
2
100
AcDbDictionary
  3
ACAD_LAYERSTATES
360
18FE9
1001
ACAD
1000
TREAT_AS_HARD
1070
     1
  0
DICTIONARY
  5
1A20A
330
E
100
AcDbDictionary
  3
ADSK_XREC_LAYER_RECONCILED
360
1A20B
1001
ACAD
1000
TREAT_AS_HARD
1070
     1
  0
DICTIONARY
  5
1A20C
330
29
100
AcDbDictionary
  3
ADSK_XREC_LAYER_RECONCILED
360
1A20D
1001
ACAD
1000
TREAT_AS_HARD
1070
     1
  0
DICTIONARY
  5
1A20E
330
31
100
AcDbDictionary
  3
ADSK_XREC_LAYER_RECONCILED
360
1A20F
1001
ACAD
1000
TREAT_AS_HARD
1070
     1
  0
DICTIONARY
  5
1A218
330
101
100
AcDbDictionary
  3
ADSK_XREC_LAYER_RECONCILED
360
1A219
1001
ACAD
1000
TREAT_AS_HARD
1070
     1
  0
DICTIONARY
  5
1A21C
330
103
100
AcDbDictionary
  3
ADSK_XREC_LAYER_RECONCILED
360
1A21D
1001
ACAD
1000
TREAT_AS_HARD
1070
     1
  0
DICTIONARY
  5
1A220
330
25F
100
AcDbDictionary
  3
ADSK_XREC_LAYER_RECONCILED
360
1A221
1001
ACAD
1000
TREAT_AS_HARD
1070
     1
  0
DICTIONARY
  5
1A23C
330
26D
100
AcDbDictionary
  3
ADSK_XREC_LAYER_RECONCILED
360
1A23D
1001
ACAD
1000
TREAT_AS_HARD
1070
     1
  0
DICTIONARY
  5
6E9
330
18
100
AcDbDictionary
  3
ACAD_SORTENTS
360
6EA
1001
ACAD
1000
TREAT_AS_HARD
1070
     1
  0
DICTIONARY
  5
59B
330
15
100
AcDbDictionary
  3
ACAD_SORTENTS
360
59C
1001
ACAD
1000
TREAT_AS_HARD
1070
     1
  0
XRECORD
  5
252FD
102
{ACAD_REACTORS
330
C
102
}
330
C
100
AcDbXrecord
300
ACDLT
300
2019
300
ACDLT_F_S
  0
DICTIONARY
  5
2D0
102
{ACAD_REACTORS
330
C
102
}
330
C
100
AcDbDictionary
1001
ACAD
1000
TREAT_AS_HARD
1070
     0
  0
DICTIONARY
  5
252EB
102
{ACAD_REACTORS
330
C
102
}
330
C
100
AcDbDictionary
  3
METRIC50
350
252EC
1001
ACAD
1000
TREAT_AS_HARD
1070
     0
  0
DICTIONARY
  5
D
102
{ACAD_REACTORS
330
C
102
}
330
C
100
AcDbDictionary
1001
ACAD
1000
TREAT_AS_HARD
1070
     0
  0
DICTIONARY
  5
2D1
102
{ACAD_REACTORS
330
C
102
}
330
C
100
AcDbDictionary
1001
ACADSTRINGINFO
1000
MIFCodePage
1070
     1
1001
ACAD
1000
TREAT_AS_HARD
1070
     0
  0
DICTIONARY
  5
2CF
102
{ACAD_REACTORS
330
C
102
}
330
C
100
AcDbDictionary
  3
BYBLOCK
350
19DD5
  3
BYLAYER
350
19DCD
  3
GLOBAL
350
19DDD
1001
ACAD
1000
TREAT_AS_HARD
1070
     0
  0
DICTIONARY
  5
19E18
102
{ACAD_REACTORS
330
C
102
}
330
C
100
AcDbDictionary
  3
STANDARD
350
19E19
1001
ACAD
1000
TREAT_AS_HARD
1070
     0
  0
DICTIONARY
  5
1B
102
{ACAD_REACTORS
330
C
102
}
330
C
100
AcDbDictionary
  3
STANDARD
350
1C
1001
ACAD
1000
TREAT_AS_HARD
1070
     0
  0
DICTIONARY
  5
2D2
102
{ACAD_REACTORS
330
C
102
}
330
C
100
AcDbDictionary
1001
ACAD
1000
TREAT_AS_HARD
1070
     0
  0
DICTIONARY
  5
19DF6
102
{ACAD_REACTORS
330
C
102
}
330
C
100
AcDbDictionary
  3
A0
350
19DF7
  3
A1
350
19DF8
  3
A2
350
19DF9
  3
A3
350
19DFA
  3
A4
350
19DFB
  3
A5
350
19DFC
  3
A6
350
19DFD
  3
A7
350
19DFE
  3
A8
350
19DFF
  3
A9
350
19E00
  3
B0
350
19E01
  3
B1
350
19E02
  3
B2
350
19E03
  3
B3
350
19E04
  3
B4
350
19E05
  3
B5
350
19E06
  3
B6
350
19E07
  3
B7
350
19E08
  3
B8
350
19E09
  3
B9
350
19E0A
  3
C0
350
19E0B
  3
C1
350
19E0C
  3
C2
350
19E0D
  3
C3
350
19E0E
  3
C4
350
19E0F
  3
C5
350
19E10
  3
C6
350
19E11
  3
C7
350
19E12
  3
C8
350
19E13
  3
C9
350
19E14
  3
D0
350
19E15
  3
D1
350
19E16
  3
D2
350
19E17
1001
ACAD
1000
TREAT_AS_HARD
1070
     0
  0
DICTIONARY
  5
252E9
102
{ACAD_REACTORS
330
C
102
}
330
C
100
AcDbDictionary
  3
METRIC50
350
252EA
1001
ACAD
1000
TREAT_AS_HARD
1070
     0
  0
DICTIONARY
  5
19DE5
102
{ACAD_REACTORS
330
C
102
}
330
C
100
AcDbDictionary
  3
2DWIREFRAME
350
19DEB
  3
3D_HIDDEN
350
19DED
  3
3DWIREFRAME
350
19DEC
  3
BASIC
350
19DEA
  3
BRIGHTEN
350
19DF1
  3
COLORCHANGE
350
19DF5
  3
CONCEPTUAL
350
19DEE
  3
DIM
350
19DF0
  3
EDGECOLOROFF
350
1E02A
  3
FACEPATTERN
350
19DF4
  3
FLAT
350
19DE6
  3
FLATWITHEDGES
350
19DE7
  3
GOURAUD
350
19DE8
  3
GOURAUDWITHEDGES
350
19DE9
  3
HIDDEN
350
252E3
  3
JITTEROFF
350
1E028
  3
LINEPATTERN
350
19DF3
  3
MODELING
350
2535E
  3
OVERHANGOFF
350
1E029
  3
REALISTIC
350
19DEF
  3
SHADED
350
252E8
  3
SHADED_WITH_EDGES
350
252E7
  3
SHADES_OF_GRAY
350
252E4
  3
SKETCHY
350
252E5
  3
THICKEN
350
19DF2
  3
WIREFRAME
350
252E2
  3
X-RAY
350
252E6
1001
ACAD
1000
TREAT_AS_HARD
1070
     0
  0
DICTIONARY
  5
25412
102
{ACAD_REACTORS
330
C
102
}
330
C
100
AcDbDictionary
  3
COLORDICT
350
25413
  3
MATERIALDICT
350
25414
1001
ACAD
1000
TREAT_AS_HARD
1070
     0
  0
DICTIONARY
  5
37
102
{ACAD_REACTORS
330
C
102
}
330
C
100
AcDbDictionary
  3
CANNOSCALE
350
1AC1A
  3
CMLEADERSTYLE
350
1AC19
  3
CTABLESTYLE
350
4F1
  3
CVIEWDETAILSTYLE
350
2535B
  3
CVIEWSECTIONSTYLE
350
2535C
  3
DIMADEC
350
38
  3
DIMASSOC
350
408
  3
HIDETEXT
350
1891
  3
INDEXCTL
350
1AC1C
  3
INTERSECTIONCOLOR
350
1895
  3
INTERSECTIONDISPLAY
350
1894
  3
MSLTSCALE
350
25411
  3
OBSCOLOR
350
1892
  3
OBSLTYPE
350
1893
  3
PROJECTNAME
350
409
  3
SORTENTS
350
1AC1B
  3
XCLIPFRAME
350
2535D
1001
ACAD
1000
TREAT_AS_HARD
1070
     0
  0
DICTIONARY
  5
22E8F
102
{ACAD_REACTORS
330
C
102
}
330
C
100
AcDbDictionary
1001
ACAD
1000
TREAT_AS_HARD
1070
     0
  0
DICTIONARY
  5
D8
102
{ACAD_REACTORS
330
C
102
}
330
C
100
AcDbDictionary
1001
CONTENTTABDATA
1070
    11
1000
Child
1000
D:\ACLT\TABset\CHILDREN.dwg
1070
     0
1070
     0
1070
     1
1000
PK
1000
D:\ACLT\TABset\PK.dwg
1070
     0
1070
     0
1070
     1
1000
Lev1
1000
D:\ACLT\TABset\Lever01.dwg
1070
     0
1070
     0
1070
     1
1000
Lev2
1000
D:\ACLT\TABset\Lever02.dwg
1070
     0
1070
     0
1070
     1
1000
L3
1000
D:\Aclt\TABset\Lever03.dwg
1070
     0
1070
     0
1070
     1
1000
Form
1000
D:\ACLT\FORMAT
1070
     1
1070
     0
1070
     1
1000
Jnt
1000
D:\ACLT\TABset\JOINTPARTS.dwg
1070
     0
1070
     0
1070
     1
1000
ISO
1000
D:\ACLT\TABset\Isome01.dwg
1070
     0
1070
     0
1070
     1
1000
R
1000
D:\ACLT\TABset\REGION.dwg
1070
     0
1070
     0
1070
     1
1000
std
1000
D:\ACLT\TABset\std_sym_all.dwg
1070
     0
1070
     0
1070
     1
1000
\U+4E38
1000
D:\Aclt\TABset\MARU.dwg
1070
     0
1070
     0
1070
     1
1001
CONTENTCURRENTTAB
1070
     0
1001
ACAD
1000
TREAT_AS_HARD
1070
     0
  0
DICTIONARY
  5
20
102
{ACAD_REACTORS
330
C
102
}
330
C
100
AcDbDictionary
1001
DRAWINGVARIABLESXDATA
1000
POLARANG
1000
0.261799387799149410000000
1000
POLARMODE
1000
1
1000
POLARSTYLE
1000
1
1001
ACAD
1000
TREAT_AS_HARD
1070
     0
  0
XRECORD
  5
25415
102
{ACAD_REACTORS
330
C
102
}
330
C
100
AcDbXrecord
  1
DWGPROPS COOKIE
  2

  3

  4

  6

  7

  8
Jen
  9

300
=
301
=
302
=
303
=
304
=
305
=
306
=
307
=
308
=
309
=
 40
0.0
 41
2453033.357663484
 42
2458439.126413218
  1

 90
        0
  0
DICTIONARY
  5
18FE9
102
{ACAD_REACTORS
330
18FE8
102
}
330
18FE8
100
AcDbDictionary
1001
ACAD
1000
TREAT_AS_HARD
1070
     0
  0
ACAD_PROXY_OBJECT
  5
1A20B
102
{ACAD_REACTORS
330
1A20A
102
}
330
1A20A
100
AcDbZombieObject
 90
      499
 91
      520
 93
       34
310
40C8804040
  0
ACAD_PROXY_OBJECT
  5
1A20D
102
{ACAD_REACTORS
330
1A20C
102
}
330
1A20C
100
AcDbZombieObject
 90
      499
 91
      520
 93
       34
310
40C8804040
  0
ACAD_PROXY_OBJECT
  5
1A20F
102
{ACAD_REACTORS
330
1A20E
102
}
330
1A20E
100
AcDbZombieObject
 90
      499
 91
      520
 93
       34
310
40C8804040
  0
ACAD_PROXY_OBJECT
  5
1A219
102
{ACAD_REACTORS
330
1A218
102
}
330
1A218
100
AcDbZombieObject
 90
      499
 91
      520
 93
       34
310
40C8804040
  0
ACAD_PROXY_OBJECT
  5
1A21D
102
{ACAD_REACTORS
330
1A21C
102
}
330
1A21C
100
AcDbZombieObject
 90
      499
 91
      520
 93
       34
310
40C8804040
  0
ACAD_PROXY_OBJECT
  5
1A221
102
{ACAD_REACTORS
330
1A220
102
}
330
1A220
100
AcDbZombieObject
 90
      499
 91
      520
 93
       34
310
40C8804040
  0
ACAD_PROXY_OBJECT
  5
1A23D
102
{ACAD_REACTORS
330
1A23C
102
}
330
1A23C
100
AcDbZombieObject
 90
      499
 91
      520
 93
       34
310
40C8804040
  0
SORTENTSTABLE
  5
6EA
102
{ACAD_REACTORS
330
6E9
102
}
330
6E9
100
AcDbSortentsTable
330
18
331
0
  5
99AB
331
0
  5
AB53
331
0
  5
AB54
331
0
  5
ECB5
331
0
  5
221FC
331
22318
  5
2231D
331
22319
  5
2231E
331
2231A
  5
2231F
331
2231B
  5
22320
331
2231C
  5
22321
331
2231D
  5
22322
331
2231E
  5
22323
331
2231F
  5
22324
331
22320
  5
22325
331
22321
  5
22334
331
22323
  5
22339
331
22324
  5
2233A
331
22325
  5
2233F
331
2233A
  5
225F6
331
24B5D
  5
24B5E
331
24B5E
  5
24B5F
331
24B5F
  5
24B60
331
24B60
  5
24B62
331
24B61
  5
24B63
331
24B62
  5
24B64
331
24B63
  5
24B65
331
24B64
  5
24B66
331
24B65
  5
24B68
331
24B67
  5
24B6A
331
24B69
  5
24B6C
331
24B6B
  5
24B6E
331
24B6D
  5
24B70
331
24B6F
  5
24B71
331
24B70
  5
24B72
331
24B71
  5
24B73
331
24B72
  5
24B74
331
24B73
  5
24B76
331
24B75
  5
24B77
331
24B76
  5
24D6B
331
24D6B
  5
24D6C
331
24D6C
  5
24D6D
331
24D6D
  5
24D6E
331
24D6E
  5
24D6F
331
24D6F
  5
24D70
331
24D70
  5
24D7D
331
24D7D
  5
24D7E
331
24D7E
  5
24D7F
331
24D7F
  5
24D80
331
24D80
  5
24D81
331
24D81
  5
24D82
331
24D82
  5
24DAB
331
24DAB
  5
24DAC
331
24DAC
  5
24DAD
331
24DAD
  5
24DAE
331
24DAE
  5
24DAF
331
24DAF
  5
24DB0
331
24DB0
  5
24DB1
331
24DB1
  5
24DB2
331
24DB2
  5
24DBE
331
24DBE
  5
24DC0
331
24DC0
  5
24DC2
331
24DC2
  5
24DC3
331
24DC3
  5
24DC4
331
24DC4
  5
24DC5
331
24DC5
  5
24DC6
331
24DC6
  5
24DCB
331
24DCB
  5
24DCC
331
24DCC
  5
24DCD
331
24DCD
  5
24DCE
331
24DCE
  5
24DCF
331
24DCF
  5
24DD0
331
24DD0
  5
24DD2
331
24DD6
  5
24DDB
331
24DD7
  5
24DDC
331
24DDB
  5
24DE4
331
24DDC
  5
24DE6
331
24DE5
  5
24DE7
331
24DE6
  5
24DEF
331
24DEE
  5
24DF0
331
24DEF
  5
24DF1
331
24DF0
  5
24DF2
331
24DF1
  5
24DF3
331
24DF2
  5
24DF4
331
24DF3
  5
24DF5
331
24DF4
  5
24DFC
331
24DF5
  5
24E05
331
24E04
  5
24E06
331
24E05
  5
24E1A
331
24E0D
  5
24E29
331
24E28
  5
24E2A
331
24E29
  5
24E32
331
24E31
  5
24E39
331
24E32
  5
24E68
331
24E69
  5
24E70
331
24E6F
  5
24E71
331
24E70
  5
24E72
331
24E71
  5
24E73
331
24E72
  5
24E74
331
24E73
  5
24E75
331
24E74
  5
24E76
331
24E75
  5
24E77
331
24E76
  5
24DD7
331
24E77
  5
24E79
331
24E79
  5
24E7A
331
24E7A
  5
24E7B
331
24E7B
  5
24E87
331
24F81
  5
24F82
331
24F82
  5
24F83
331
24F83
  5
24F84
331
24F84
  5
24F85
331
24F85
  5
24F86
331
24F86
  5
24F87
331
24F87
  5
24F88
331
24F88
  5
24F89
331
24F89
  5
24F8A
331
24F8A
  5
24F8B
331
24F8B
  5
24F8C
331
24F8C
  5
24F8D
331
24F8D
  5
24F8E
331
24F8E
  5
24F8F
331
24F8F
  5
24F90
331
24F90
  5
24F91
331
24F91
  5
24F92
331
24F92
  5
24F93
331
24F93
  5
24F94
331
24F94
  5
24F95
331
24F95
  5
24F96
331
24F96
  5
24F97
331
24F97
  5
24F98
331
24F98
  5
24F99
331
24F99
  5
24F9A
331
24F9A
  5
24F9B
331
24F9B
  5
24F9C
331
24F9C
  5
24F9D
331
24F9D
  5
24F9E
331
24F9E
  5
24F9F
331
24F9F
  5
24FA0
331
24FA0
  5
24FA1
331
24FA1
  5
24FA2
331
24FA2
  5
24FA3
331
24FA3
  5
24FA4
331
24FA4
  5
24FA5
331
24FA5
  5
24FA6
331
24FA6
  5
24FA7
331
24FA7
  5
24FA8
331
24FA8
  5
24FA9
331
24FA9
  5
24FAA
331
24FAA
  5
24FAB
331
24FAB
  5
24FAC
331
24FAC
  5
24FAD
331
0
  5
24FAE
331
0
  5
24FAF
331
24FAF
  5
24FB8
331
24FB0
  5
24FB9
331
24FB1
  5
24FBA
331
24FB2
  5
24FBB
331
24FB3
  5
24FBC
331
24FB4
  5
24FBD
331
24FB5
  5
24FBE
331
24FB6
  5
24FBF
331
24FB7
  5
24FC0
331
24FB8
  5
24FC1
331
24FB9
  5
24FC2
331
24FBA
  5
24FC3
331
24FBB
  5
24FC4
331
24FBC
  5
24FC5
331
24FBD
  5
24FC6
331
24FBE
  5
24FC7
331
24FBF
  5
24FC8
331
24FC0
  5
24FC9
331
24FC1
  5
24FCA
331
24FC2
  5
24FCB
331
24FC3
  5
24FCC
331
24FC4
  5
24FCD
331
24FC5
  5
24FCE
331
24FC6
  5
24FCF
331
24FC7
  5
24FD0
331
24FC8
  5
24FD1
331
24FC9
  5
24FD2
331
24FCA
  5
24FD3
331
24FCB
  5
24FD4
331
24FCC
  5
24FD5
331
24FCD
  5
24FD6
331
24FCE
  5
24FD7
331
24FCF
  5
24FD8
331
24FD0
  5
24FD9
331
24FD1
  5
24FDA
331
24FD2
  5
24FDB
331
24FD3
  5
24FDC
331
24FD4
  5
24FDD
331
24FD5
  5
24FDE
331
24FD6
  5
24FDF
331
24FD7
  5
25080
331
24FD8
  5
25081
331
24FD9
  5
25082
331
24FDA
  5
250F3
331
24FDB
  5
250F5
331
0
  5
250F6
331
0
  5
250F8
331
0
  5
250F9
331
0
  5
250FA
331
0
  5
250FB
331
0
  5
250FC
331
0
  5
250FD
331
250F4
  5
253A0
331
250F5
  5
253A1
331
250F7
  5
253A2
331
250F8
  5
253A3
331
250F9
  5
253A4
331
250FA
  5
253A5
331
250FB
  5
253A6
331
250FC
  5
253A7
331
250FE
  5
253A8
331
250FF
  5
253A9
331
25100
  5
253AA
331
25101
  5
253AB
331
25102
  5
253AC
331
25103
  5
253AD
331
25104
  5
253AE
331
25105
  5
253AF
331
25106
  5
253B0
331
2511A
  5
253B1
331
2511B
  5
253B2
331
2511C
  5
253B3
331
2511D
  5
253B4
331
2511E
  5
253B5
331
2511F
  5
253B6
331
25120
  5
253B7
331
25121
  5
253B8
331
25122
  5
253B9
331
25123
  5
253BA
331
25124
  5
253BB
331
25125
  5
253BC
331
25126
  5
253BD
331
25127
  5
253BE
331
25128
  5
253BF
331
25129
  5
253C0
331
2512A
  5
253C1
331
0
  5
2515A
331
0
  5
25189
331
0
  5
2518A
331
0
  5
2518B
331
0
  5
2518C
331
0
  5
2518D
331
0
  5
2518E
331
0
  5
2518F
331
0
  5
25190
331
25189
  5
253EC
331
2518A
  5
253ED
331
2518B
  5
253EE
331
2518C
  5
253EF
331
2518D
  5
253F0
331
2518E
  5
253F1
331
2518F
  5
253F2
331
25190
  5
253F3
331
0
  5
2525C
331
0
  5
2525D
331
0
  5
2525E
331
0
  5
25362
331
0
  5
25363
331
0
  5
25364
331
0
  5
25365
331
2525B
  5
2540D
331
2525C
  5
2540E
331
2525D
  5
2540F
331
2525E
  5
25410
331
25362
  5
24FB0
331
25363
  5
24FB1
331
25364
  5
24FB2
331
25365
  5
24FB3
331
25366
  5
24FB4
331
25367
  5
24FB5
331
25368
  5
24FB6
331
25369
  5
24FB7
331
2536A
  5
250FF
331
2536B
  5
25100
331
2536C
  5
25101
331
0
  5
25102
331
0
  5
25103
331
0
  5
25104
331
25370
  5
25121
331
25371
  5
25125
331
25372
  5
25126
331
0
  5
2511A
331
0
  5
2511B
331
0
  5
2511C
331
25376
  5
251AC
331
25377
  5
251BA
331
25378
  5
251BC
331
25379
  5
2525B
331
2537A
  5
25369
331
0
  5
25122
331
0
  5
25123
331
0
  5
25124
331
2537E
  5
25371
331
2537F
  5
25372
331
25380
  5
25373
331
0
  5
25128
331
0
  5
25129
331
0
  5
2512A
331
25384
  5
2537B
331
25385
  5
2537C
331
25386
  5
2537D
331
0
  5
2514F
331
0
  5
25154
331
0
  5
25157
331
2538A
  5
25385
331
2538B
  5
25386
331
2538C
  5
25387
331
2538D
  5
25388
331
0
  5
251AD
331
0
  5
251AE
331
0
  5
251B9
331
25391
  5
25393
331
25392
  5
25394
331
25393
  5
25395
331
0
  5
25366
331
0
  5
25367
331
0
  5
25368
331
25397
  5
253C2
331
25398
  5
253C3
331
25399
  5
253C7
331
2539A
  5
253C8
331
0
  5
2538F
331
0
  5
25390
331
0
  5
25391
331
2539E
  5
253D0
331
2539F
  5
253D1
331
253A0
  5
253D2
331
253A1
  5
253D3
331
253A2
  5
253D4
331
253A3
  5
253D5
331
253A4
  5
253D6
331
253A5
  5
253D7
331
253A6
  5
253D8
331
253A7
  5
253D9
331
253A8
  5
253DA
331
0
  5
2539D
331
0
  5
2539E
331
0
  5
2539F
331
253AC
  5
253E2
331
253AD
  5
253E3
331
253AE
  5
253E4
331
253AF
  5
253E5
331
253B0
  5
253E6
331
253B1
  5
253E7
331
253B2
  5
253E8
331
253B3
  5
253E9
331
253B4
  5
253EA
331
253B5
  5
253EB
331
253B6
  5
253F4
331
253B7
  5
253F5
331
253B8
  5
253F6
331
253B9
  5
253F7
331
253BA
  5
253F8
331
253BB
  5
253F9
331
253BC
  5
253FA
331
253BD
  5
253FB
331
253BE
  5
253FC
331
253BF
  5
253FD
331
253C0
  5
253FE
331
253C1
  5
253FF
331
253C2
  5
25400
331
253C3
  5
25401
331
253C4
  5
25402
331
253C5
  5
25403
331
253C6
  5
25404
331
253C7
  5
25405
331
0
  5
253C4
331
0
  5
253C5
331
0
  5
253C6
331
253CB
  5
25105
331
253CC
  5
25106
331
253CD
  5
25107
331
253CE
  5
2511D
331
253CF
  5
2511E
331
253D0
  5
2511F
331
253D1
  5
25120
331
253D2
  5
25127
331
253D3
  5
2514C
331
253D4
  5
2514D
331
253D5
  5
2514E
331
253D6
  5
25158
331
253D7
  5
25159
331
253D8
  5
251AB
331
253D9
  5
2536A
331
253DA
  5
2536B
331
253DB
  5
2536C
331
253DC
  5
2536D
331
253DD
  5
2536E
331
253DE
  5
2536F
331
253DF
  5
25370
331
253E0
  5
25374
331
253E1
  5
25375
331
253E2
  5
25376
331
253E3
  5
25377
331
253E4
  5
25378
331
253E5
  5
25379
331
253E6
  5
2537A
331
253E7
  5
2537E
331
253E8
  5
2537F
331
253E9
  5
25380
331
253EA
  5
25381
331
253EB
  5
25382
331
253EC
  5
25383
331
253ED
  5
25384
331
253EE
  5
25389
331
253EF
  5
2538A
331
253F0
  5
2538B
331
253F1
  5
2538C
331
253F2
  5
2538D
331
253F3
  5
2538E
331
253F4
  5
25392
331
253F5
  5
25396
331
253F6
  5
25397
331
253F7
  5
25398
331
253F8
  5
25399
331
253F9
  5
2539A
331
253FA
  5
2539B
331
253FB
  5
2539C
331
253FC
  5
253C9
331
253FD
  5
253CA
331
253FE
  5
253CB
331
253FF
  5
253CC
331
25400
  5
253CD
331
25401
  5
253CE
331
25402
  5
253CF
331
25403
  5
253DB
331
25404
  5
253DC
331
25405
  5
253DD
331
25406
  5
253DE
331
25407
  5
253DF
331
25408
  5
253E0
331
25409
  5
253E1
331
2540A
  5
25406
331
2540B
  5
25407
331
2540C
  5
25408
331
2540D
  5
25409
331
2540E
  5
2540A
331
2540F
  5
2540B
331
25410
  5
2540C
  0
SORTENTSTABLE
  5
59C
102
{ACAD_REACTORS
330
59B
102
}
330
59B
100
AcDbSortentsTable
330
15
  0
ACAD_PROXY_OBJECT
  5
252EC
102
{ACAD_REACTORS
330
252EB
102
}
102
{ACAD_XDICTIONARY
360
25359
102
}
330
252EB
100
AcDbZombieObject
 90
      499
 91
      518
 93
      877
310
9084D65747269633530481E0000000000000A20500E0000000000000A20233E0000000000000A20400000000000017202029B929E2E20B1AB30B9102B34B2BBA232BA30B4B624B21F129014129E2E20B1AB30B9102B34B2BBA9B1B0B632902E33101112B9B7111F1294A33A33800
340
F
340
0
340
14
340
F
340
14
340
14
 94
        0
  0
MATERIAL
  5
19DD5
102
{ACAD_REACTORS
330
2CF
102
}
102
{ACAD_XDICTIONARY
360
25416
102
}
330
2CF
100
AcDbMaterial
  1
BYBLOCK
 72
     0
 73
     2
 43
0.0208333333333333
 43
0.0
 43
0.0
 43
0.0
 43
0.0
 43
0.0208333333333333
 43
0.0
 43
0.0
 43
0.0
 43
0.0
 43
1.0
 43
0.0
 43
0.0
 43
0.0
 43
0.0
 43
1.0
 77
     0
 78
     2
 47
0.0208333333333333
 47
0.0
 47
0.0
 47
0.0
 47
0.0
 47
0.0208333333333333
 47
0.0
 47
0.0
 47
0.0
 47
0.0
 47
1.0
 47
0.0
 47
0.0
 47
0.0
 47
0.0
 47
1.0
171
     0
172
     2
 49
0.0208333333333333
 49
0.0
 49
0.0
 49
0.0
 49
0.0
 49
0.0208333333333333
 49
0.0
 49
0.0
 49
0.0
 49
0.0
 49
1.0
 49
0.0
 49
0.0
 49
0.0
 49
0.0
 49
1.0
175
     0
176
     2
142
0.0208333333333333
142
0.0
142
0.0
142
0.0
142
0.0
142
0.0208333333333333
142
0.0
142
0.0
142
0.0
142
0.0
142
1.0
142
0.0
142
0.0
142
0.0
142
0.0
142
1.0
179
     0
270
     2
144
0.0208333333333333
144
0.0
144
0.0
144
0.0
144
0.0
144
0.0208333333333333
144
0.0
144
0.0
144
0.0
144
0.0
144
1.0
144
0.0
144
0.0
144
0.0
144
0.0
144
1.0
274
     2
147
0.0208333333333333
147
0.0
147
0.0
147
0.0
147
0.0
147
0.0208333333333333
147
0.0
147
0.0
147
0.0
147
0.0
147
1.0
147
0.0
147
0.0
147
0.0
147
0.0
147
1.0
  0
MATERIAL
  5
19DCD
102
{ACAD_REACTORS
330
2CF
102
}
102
{ACAD_XDICTIONARY
360
25418
102
}
330
2CF
100
AcDbMaterial
  1
BYLAYER
 72
     0
 73
     2
 43
0.0208333333333333
 43
0.0
 43
0.0
 43
0.0
 43
0.0
 43
0.0208333333333333
 43
0.0
 43
0.0
 43
0.0
 43
0.0
 43
1.0
 43
0.0
 43
0.0
 43
0.0
 43
0.0
 43
1.0
 77
     0
 78
     2
 47
0.0208333333333333
 47
0.0
 47
0.0
 47
0.0
 47
0.0
 47
0.0208333333333333
 47
0.0
 47
0.0
 47
0.0
 47
0.0
 47
1.0
 47
0.0
 47
0.0
 47
0.0
 47
0.0
 47
1.0
171
     0
172
     2
 49
0.0208333333333333
 49
0.0
 49
0.0
 49
0.0
 49
0.0
 49
0.0208333333333333
 49
0.0
 49
0.0
 49
0.0
 49
0.0
 49
1.0
 49
0.0
 49
0.0
 49
0.0
 49
0.0
 49
1.0
175
     0
176
     2
142
0.0208333333333333
142
0.0
142
0.0
142
0.0
142
0.0
142
0.0208333333333333
142
0.0
142
0.0
142
0.0
142
0.0
142
1.0
142
0.0
142
0.0
142
0.0
142
0.0
142
1.0
179
     0
270
     2
144
0.0208333333333333
144
0.0
144
0.0
144
0.0
144
0.0
144
0.0208333333333333
144
0.0
144
0.0
144
0.0
144
0.0
144
1.0
144
0.0
144
0.0
144
0.0
144
0.0
144
1.0
274
     2
147
0.0208333333333333
147
0.0
147
0.0
147
0.0
147
0.0
147
0.0208333333333333
147
0.0
147
0.0
147
0.0
147
0.0
147
1.0
147
0.0
147
0.0
147
0.0
147
0.0
147
1.0
  0
MATERIAL
  5
19DDD
102
{ACAD_REACTORS
330
2CF
102
}
102
{ACAD_XDICTIONARY
360
2541A
102
}
330
2CF
100
AcDbMaterial
  1
GLOBAL
 72
     0
 73
     2
 43
0.0208333333333333
 43
0.0
 43
0.0
 43
0.0
 43
0.0
 43
0.0208333333333333
 43
0.0
 43
0.0
 43
0.0
 43
0.0
 43
1.0
 43
0.0
 43
0.0
 43
0.0
 43
0.0
 43
1.0
 77
     0
 78
     2
 47
0.0208333333333333
 47
0.0
 47
0.0
 47
0.0
 47
0.0
 47
0.0208333333333333
 47
0.0
 47
0.0
 47
0.0
 47
0.0
 47
1.0
 47
0.0
 47
0.0
 47
0.0
 47
0.0
 47
1.0
171
     0
172
     2
 49
0.0208333333333333
 49
0.0
 49
0.0
 49
0.0
 49
0.0
 49
0.0208333333333333
 49
0.0
 49
0.0
 49
0.0
 49
0.0
 49
1.0
 49
0.0
 49
0.0
 49
0.0
 49
0.0
 49
1.0
175
     0
176
     2
142
0.0208333333333333
142
0.0
142
0.0
142
0.0
142
0.0
142
0.0208333333333333
142
0.0
142
0.0
142
0.0
142
0.0
142
1.0
142
0.0
142
0.0
142
0.0
142
0.0
142
1.0
179
     0
270
     2
144
0.0208333333333333
144
0.0
144
0.0
144
0.0
144
0.0
144
0.0208333333333333
144
0.0
144
0.0
144
0.0
144
0.0
144
1.0
144
0.0
144
0.0
144
0.0
144
0.0
144
1.0
274
     2
147
0.0208333333333333
147
0.0
147
0.0
147
0.0
147
0.0
147
0.0208333333333333
147
0.0
147
0.0
147
0.0
147
0.0
147
1.0
147
0.0
147
0.0
147
0.0
147
0.0
147
1.0
  0
ACAD_PROXY_OBJECT
  5
19E19
102
{ACAD_REACTORS
330
19E18
102
}
330
19E18
100
AcDbZombieObject
 90
      499
 91
      512
 93
      610
310
40901902A4063FBFFFFFE000000000000002040AD7A3703D0AD73F4214DD185B99185C990000000000000104090141901A00000000000004100000000000000041025764000000000000300FC0
340
12
340
0
340
F
340
0
 94
        0
1001
ACAD_MLEADERVER
1070
     2
  0
MLINESTYLE
  5
1C
102
{ACAD_REACTORS
330
1B
102
}
330
1B
100
AcDbMlineStyle
  2
STANDARD
 70
     0
  3

 62
   256
 51
90.0
 52
90.0
 71
     2
 49
0.5
 62
   256
  6
BYLAYER
 49
-0.5
 62
   256
  6
BYLAYER
  0
ACAD_PROXY_OBJECT
  5
19DF7
102
{ACAD_REACTORS
330
19DF6
102
}
330
19DF6
100
AcDbZombieObject
 90
      499
 91
      511
 93
       41
310
903313A31580
  0
ACAD_PROXY_OBJECT
  5
19DF8
102
{ACAD_REACTORS
330
19DF6
102
}
330
19DF6
100
AcDbZombieObject
 90
      499
 91
      511
 93
      105
310
903313A324000000000000004000
  0
ACAD_PROXY_OBJECT
  5
19DF9
102
{ACAD_REACTORS
330
19DF6
102
}
330
19DF6
100
AcDbZombieObject
 90
      499
 91
      511
 93
      105
310
903313A344000000000000104000
  0
ACAD_PROXY_OBJECT
  5
19DFA
102
{ACAD_REACTORS
330
19DF6
102
}
330
19DF6
100
AcDbZombieObject
 90
      499
 91
      511
 93
      105
310
903313A354000000000000144000
  0
ACAD_PROXY_OBJECT
  5
19DFB
102
{ACAD_REACTORS
330
19DF6
102
}
330
19DF6
100
AcDbZombieObject
 90
      499
 91
      511
 93
      105
310
903313A384000000000000204000
  0
ACAD_PROXY_OBJECT
  5
19DFC
102
{ACAD_REACTORS
330
19DF6
102
}
330
19DF6
100
AcDbZombieObject
 90
      499
 91
      511
 93
      113
310
904313A31304000000000000244000
  0
ACAD_PROXY_OBJECT
  5
19DFD
102
{ACAD_REACTORS
330
19DF6
102
}
330
19DF6
100
AcDbZombieObject
 90
      499
 91
      511
 93
      113
310
904313A31364000000000000304000
  0
ACAD_PROXY_OBJECT
  5
19DFE
102
{ACAD_REACTORS
330
19DF6
102
}
330
19DF6
100
AcDbZombieObject
 90
      499
 91
      511
 93
      113
310
904313A32304000000000000344000
  0
ACAD_PROXY_OBJECT
  5
19DFF
102
{ACAD_REACTORS
330
19DF6
102
}
330
19DF6
100
AcDbZombieObject
 90
      499
 91
      511
 93
      113
310
904313A333040000000000003E4000
  0
ACAD_PROXY_OBJECT
  5
19E00
102
{ACAD_REACTORS
330
19DF6
102
}
330
19DF6
100
AcDbZombieObject
 90
      499
 91
      511
 93
      113
310
904313A34304000000000000444000
  0
ACAD_PROXY_OBJECT
  5
19E01
102
{ACAD_REACTORS
330
19DF6
102
}
330
19DF6
100
AcDbZombieObject
 90
      499
 91
      511
 93
      113
310
904313A35304000000000000494000
  0
ACAD_PROXY_OBJECT
  5
19E02
102
{ACAD_REACTORS
330
19DF6
102
}
330
19DF6
100
AcDbZombieObject
 90
      499
 91
      511
 93
      121
310
905313A3130304000000000000594000
  0
ACAD_PROXY_OBJECT
  5
19E03
102
{ACAD_REACTORS
330
19DF6
102
}
330
19DF6
100
AcDbZombieObject
 90
      499
 91
      511
 93
      105
310
903323A310000000000000010100
  0
ACAD_PROXY_OBJECT
  5
19E04
102
{ACAD_REACTORS
330
19DF6
102
}
330
19DF6
100
AcDbZombieObject
 90
      499
 91
      511
 93
      105
310
903343A310000000000000410100
  0
ACAD_PROXY_OBJECT
  5
19E05
102
{ACAD_REACTORS
330
19DF6
102
}
330
19DF6
100
AcDbZombieObject
 90
      499
 91
      511
 93
      105
310
903383A310000000000000810100
  0
ACAD_PROXY_OBJECT
  5
19E06
102
{ACAD_REACTORS
330
19DF6
102
}
330
19DF6
100
AcDbZombieObject
 90
      499
 91
      511
 93
      113
310
90431303A310000000000000910100
  0
ACAD_PROXY_OBJECT
  5
19E07
102
{ACAD_REACTORS
330
19DF6
102
}
330
19DF6
100
AcDbZombieObject
 90
      499
 91
      511
 93
      121
310
9053130303A310000000000001650100
  0
ACAD_PROXY_OBJECT
  5
19E08
102
{ACAD_REACTORS
330
19DF6
102
}
330
19DF6
100
AcDbZombieObject
 90
      499
 91
      511
 93
      257
310
90E312F31323822203D2031272D3022000000000000200FC000000000000284000
  0
ACAD_PROXY_OBJECT
  5
19E09
102
{ACAD_REACTORS
330
19DF6
102
}
330
19DF6
100
AcDbZombieObject
 90
      499
 91
      511
 93
      249
310
90D312F363422203D2031272D3022000000000000240FC000000000000284000
  0
ACAD_PROXY_OBJECT
  5
19E0A
102
{ACAD_REACTORS
330
19DF6
102
}
330
19DF6
100
AcDbZombieObject
 90
      499
 91
      511
 93
      249
310
90D312F333222203D2031272D3022000000000000280FC000000000000284000
  0
ACAD_PROXY_OBJECT
  5
19E0B
102
{ACAD_REACTORS
330
19DF6
102
}
330
19DF6
100
AcDbZombieObject
 90
      499
 91
      511
 93
      249
310
90D312F313622203D2031272D30220000000000002C0FC000000000000284000
  0
ACAD_PROXY_OBJECT
  5
19E0C
102
{ACAD_REACTORS
330
19DF6
102
}
330
19DF6
100
AcDbZombieObject
 90
      499
 91
      511
 93
      249
310
90D332F333222203D2031272D30220000000000002E0FC000000000000284000
  0
ACAD_PROXY_OBJECT
  5
19E0D
102
{ACAD_REACTORS
330
19DF6
102
}
330
19DF6
100
AcDbZombieObject
 90
      499
 91
      511
 93
      241
310
90C312F3822203D2031272D3022000000000000300FC000000000000284000
  0
ACAD_PROXY_OBJECT
  5
19E0E
102
{ACAD_REACTORS
330
19DF6
102
}
330
19DF6
100
AcDbZombieObject
 90
      499
 91
      511
 93
      249
310
90D332F313622203D2031272D3022000000000000320FC000000000000284000
  0
ACAD_PROXY_OBJECT
  5
19E0F
102
{ACAD_REACTORS
330
19DF6
102
}
330
19DF6
100
AcDbZombieObject
 90
      499
 91
      511
 93
      241
310
90C312F3422203D2031272D3022000000000000340FC000000000000284000
  0
ACAD_PROXY_OBJECT
  5
19E10
102
{ACAD_REACTORS
330
19DF6
102
}
330
19DF6
100
AcDbZombieObject
 90
      499
 91
      511
 93
      241
310
90C332F3822203D2031272D3022000000000000360FC000000000000284000
  0
ACAD_PROXY_OBJECT
  5
19E11
102
{ACAD_REACTORS
330
19DF6
102
}
330
19DF6
100
AcDbZombieObject
 90
      499
 91
      511
 93
      241
310
90C312F3222203D2031272D3022000000000000380FC000000000000284000
  0
ACAD_PROXY_OBJECT
  5
19E12
102
{ACAD_REACTORS
330
19DF6
102
}
330
19DF6
100
AcDbZombieObject
 90
      499
 91
      511
 93
      241
310
90C332F3422203D2031272D30220000000000003A0FC000000000000284000
  0
ACAD_PROXY_OBJECT
  5
19E13
102
{ACAD_REACTORS
330
19DF6
102
}
330
19DF6
100
AcDbZombieObject
 90
      499
 91
      511
 93
      161
310
90A3122203D2031272D30224000000000000284000
  0
ACAD_PROXY_OBJECT
  5
19E14
102
{ACAD_REACTORS
330
19DF6
102
}
330
19DF6
100
AcDbZombieObject
 90
      499
 91
      511
 93
      257
310
90E312D312F3222203D2031272D30220000000000003E0FC000000000000284000
  0
ACAD_PROXY_OBJECT
  5
19E15
102
{ACAD_REACTORS
330
19DF6
102
}
330
19DF6
100
AcDbZombieObject
 90
      499
 91
      511
 93
      225
310
90A3322203D2031272D302200000000000002100000000000000284000
  0
ACAD_PROXY_OBJECT
  5
19E16
102
{ACAD_REACTORS
330
19DF6
102
}
330
19DF6
100
AcDbZombieObject
 90
      499
 91
      511
 93
      225
310
90A3622203D2031272D302200000000000006100000000000000284000
  0
ACAD_PROXY_OBJECT
  5
19E17
102
{ACAD_REACTORS
330
19DF6
102
}
330
19DF6
100
AcDbZombieObject
 90
      499
 91
      511
 93
      249
310
90D31272D3022203D2031272D30220000000000000A100000000000000284000
  0
ACAD_PROXY_OBJECT
  5
252EA
102
{ACAD_REACTORS
330
252E9
102
}
102
{ACAD_XDICTIONARY
360
25357
102
}
330
252E9
100
AcDbZombieObject
 90
      499
 91
      517
 93
     2015
310
9084D657472696335304B360000000000000A2060000000000000A202209258409E5840A25840A65840B05840B40000000000001220233A65800000000000028800000000000000A2060000000000000A2040000000000001720202AC929E2E20B1AB30B9102B34B2BBA9B2B1BA34B7B729BA30B93A24B21F1296929E2E20B
310
1AB30B9102B34B2BBA9B2B1BA34B7B722B73224B21F129014129E2E20B1AB30B9102B34B2BBA9B1B0B632902E33101112B9B7111F1294E0080A0C829CA6926662C400000000000002204000000000000022020D0305A88A9F643F27E32B9969C2960E81F87FA0718D4DE3E87E32B9969C2960E85F9E5129FC49EA5FA7E
340
F
340
0
340
0
340
14
340
14
340
F
 94
        0
  0
ACAD_PROXY_OBJECT
  5
19DEB
102
{ACAD_REACTORS
330
19DE5
102
}
330
19DE5
100
AcDbZombieObject
 90
      499
 91
      510
 93
      436
310
42CC9915DA5C99599C985B595049028333333333333E3BF0000000000000FB0107901411070040501600405405064090741402480A0340
1001
ACAD
1000
AcDbSavedByObjectVersion
1070
     0
  0
ACAD_PROXY_OBJECT
  5
19DED
102
{ACAD_REACTORS
330
19DE5
102
}
330
19DE5
100
AcDbZombieObject
 90
      499
 91
      510
 93
      500
310
424CD108121A5919195B90640502408333333333333E3BF0000000000000FB01079024090700405020000000000001110200405405064090740C02480A0340
1001
ACAD
1000
AcDbSavedByObjectVersion
1070
     0
  0
ACAD_PROXY_OBJECT
  5
19DEC
102
{ACAD_REACTORS
330
19DE5
102
}
330
19DE5
100
AcDbZombieObject
 90
      499
 91
      510
 93
      436
310
42CCD915DA5C99599C985B595059028333333333333E3BF0000000000000FB0107901411070040501600405405064090741402480A0340
1001
ACAD
1000
AcDbSavedByObjectVersion
1070
     0
  0
ACAD_PROXY_OBJECT
  5
19DEA
102
{ACAD_REACTORS
330
19DE5
102
}
330
19DE5
100
AcDbZombieObject
 90
      499
 91
      510
 93
      388
310
4150985CDA58D07406404333333333333E3BF0000000000000FB0107A41107004050150841D405064090741402480A0350
1001
ACAD
1000
AcDbSavedByObjectVersion
1070
     0
  0
ACAD_PROXY_OBJECT
  5
19DF1
102
{ACAD_REACTORS
330
19DE5
102
}
330
19DE5
100
AcDbZombieObject
 90
      499
 91
      510
 93
      428
310
42109C9A59DA1D195B90C409028333333333333E3BF0000000000000FB010790141107004050150841D405064090741402480A029950
1001
ACAD
1000
AcDbSavedByObjectVersion
1070
     0
  0
ACAD_PROXY_OBJECT
  5
19DF5
102
{ACAD_REACTORS
330
19DE5
102
}
330
19DE5
100
AcDbZombieObject
 90
      499
 91
      510
 93
      452
310
42D0DBDB1BDC90DA185B99D95104090240C333333333333E3BF0000000000000FB0108901411070040501508421405064090741402480A0350
1001
ACAD
1000
AcDbSavedByObjectVersion
1070
     0
  0
ACAD_PROXY_OBJECT
  5
19DEE
102
{ACAD_REACTORS
330
19DE5
102
}
330
19DE5
100
AcDbZombieObject
 90
      499
 91
      510
 93
      500
310
4290DBDB98D95C1D1D585B10940D028333333333333E3BF0000000000000FB0107902409070040501000000000000111010841D405064090740C02480A0340
1001
ACAD
1000
AcDbSavedByObjectVersion
1070
     0
  0
ACAD_PROXY_OBJECT
  5
19DF0
102
{ACAD_REACTORS
330
19DE5
102
}
330
19DE5
100
AcDbZombieObject
 90
      499
 91
      510
 93
      412
310
40D11A5B50B409028333333333333E3BF0000000000000FB010790141107004050150841D405064090741402480A02677FFFFFD0
1001
ACAD
1000
AcDbSavedByObjectVersion
1070
     0
  0
ACAD_PROXY_OBJECT
  5
1E02A
102
{ACAD_REACTORS
330
19DE5
102
}
330
19DE5
100
AcDbZombieObject
 90
      499
 91
      510
 93
      452
310
43115919D950DBDB1BDC93D999916409028333333333333E3BF0000000000000FB010790141107004050150841D405064090741402480A0350
1001
ACAD
1000
AcDbSavedByObjectVersion
1070
     0
  0
ACAD_PROXY_OBJECT
  5
19DF4
102
{ACAD_REACTORS
330
19DE5
102
}
330
19DE5
100
AcDbZombieObject
 90
      499
 91
      510
 93
      444
310
42D19858D95C185D1D195C9B90F409028333333333333E3BF0000000000000FB010790141107004050150841D405064090741402480A0350
1001
ACAD
1000
AcDbSavedByObjectVersion
1070
     0
  0
ACAD_PROXY_OBJECT
  5
19DE6
102
{ACAD_REACTORS
330
19DE5
102
}
330
19DE5
100
AcDbZombieObject
 90
      499
 91
      510
 93
      388
310
41119B185D240901404333333333333E3BF0000000000000F9010740A41107004050150841D405064090741402480A1B50
1001
ACAD
1000
AcDbSavedByObjectVersion
1070
     0
  0
ACAD_PROXY_OBJECT
  5
19DE7
102
{ACAD_REACTORS
330
19DE5
102
}
330
19DE5
100
AcDbZombieObject
 90
      499
 91
      510
 93
      476
310
43519B185D15DA5D1A115919D95CD0140901404333333333333E3BF0000000000000F9010740901411070040501600405405064090741402480A1B50
1001
ACAD
1000
AcDbSavedByObjectVersion
1070
     0
  0
ACAD_PROXY_OBJECT
  5
19DE8
102
{ACAD_REACTORS
330
19DE5
102
}
330
19DE5
100
AcDbZombieObject
 90
      499
 91
      510
 93
      412
310
41D1DBDD5C985D5910240902404333333333333E3BF0000000000000F9010740A411070040501641D405064090741402480A1B50
1001
ACAD
1000
AcDbSavedByObjectVersion
1070
     0
  0
ACAD_PROXY_OBJECT
  5
19DE9
102
{ACAD_REACTORS
330
19DE5
102
}
330
19DE5
100
AcDbZombieObject
 90
      499
 91
      510
 93
      500
310
4411DBDD5C985D5915DA5D1A115919D95CD0340902404333333333333E3BF0000000000000F9010740901411070040501600405405064090741402480A1B50
1001
ACAD
1000
AcDbSavedByObjectVersion
1070
     0
  0
ACAD_PROXY_OBJECT
  5
252E3
102
{ACAD_REACTORS
330
19DE5
102
}
330
19DE5
100
AcDbZombieObject
 90
      499
 91
      510
 93
      476
310
41921A5919195B90640502408333333333333E3BF0000000000000FB01079024090700405020000000000001110200405405064090740C02480A0340
1001
ACAD
1000
AcDbSavedByObjectVersion
1070
     0
  0
ACAD_PROXY_OBJECT
  5
1E028
102
{ACAD_REACTORS
330
19DE5
102
}
330
19DE5
100
AcDbZombieObject
 90
      499
 91
      510
 93
      428
310
42529A5D1D195C93D999914409028333333333333E3BF0000000000000FB010790141107004050150A41D405064090741402480A0350
1001
ACAD
1000
AcDbSavedByObjectVersion
1070
     0
  0
ACAD_PROXY_OBJECT
  5
19DF3
102
{ACAD_REACTORS
330
19DE5
102
}
330
19DE5
100
AcDbZombieObject
 90
      499
 91
      510
 93
      444
310
42D31A5B995C185D1D195C9B90E409028333333333333E3BF0000000000000FB010790141107004050750841D405064090741402483A0350
1001
ACAD
1000
AcDbSavedByObjectVersion
1070
     0
  0
ACAD_PROXY_OBJECT
  5
2535E
102
{ACAD_REACTORS
330
19DE5
102
}
330
19DE5
100
AcDbZombieObject
 90
      499
 91
      510
 93
      484
310
42135BD9195B1A5B99D0A409038333333333333E33F0000000000000F901074090290700405010000000000201990108421405064090741402480A1B40
1001
ACAD
1000
AcDbSavedByObjectVersion
1070
     0
  0
ACAD_PROXY_OBJECT
  5
1E029
102
{ACAD_REACTORS
330
19DE5
102
}
330
19DE5
100
AcDbZombieObject
 90
      499
 91
      510
 93
      444
310
42D3DD995C9A185B99D3D999915409028333333333333E3BF0000000000000FB010790141107004050150941D405064090741402480A0350
1001
ACAD
1000
AcDbSavedByObjectVersion
1070
     0
  0
ACAD_PROXY_OBJECT
  5
19DEF
102
{ACAD_REACTORS
330
19DE5
102
}
330
19DE5
100
AcDbZombieObject
 90
      499
 91
      510
 93
      420
310
425499585B1A5CDD1A58D08409028333333333333E3BF0000000000000FB01079019070040501508421405064090741402480A1B40
1001
ACAD
1000
AcDbSavedByObjectVersion
1070
     0
  0
ACAD_PROXY_OBJECT
  5
252E8
102
{ACAD_REACTORS
330
19DE5
102
}
330
19DE5
100
AcDbZombieObject
 90
      499
 91
      510
 93
      420
310
4194DA1859195911B40902404333333333333E3BF0000000000000F9010740A41107004050150800405405064090840C02480A0B40
1001
ACAD
1000
AcDbSavedByObjectVersion
1070
     0
  0
ACAD_PROXY_OBJECT
  5
252E7
102
{ACAD_REACTORS
330
19DE5
102
}
330
19DE5
100
AcDbZombieObject
 90
      499
 91
      510
 93
      516
310
4454DA18591959081DDA5D1A08195919D95CD1A40902404333333333333E3BF0000000000000F901074090140907004050250800405405064090740C02480A0B40
1001
ACAD
1000
AcDbSavedByObjectVersion
1070
     0
  0
ACAD_PROXY_OBJECT
  5
252E4
102
{ACAD_REACTORS
330
19DE5
102
}
330
19DE5
100
AcDbZombieObject
 90
      499
 91
      510
 93
      532
310
4394DA1859195CC81BD98811DC985E5174090240C333333333333E3BF0000000000000FB01079024090741D01000000000000111010841D405064090740C02480A0340
1001
ACAD
1000
AcDbSavedByObjectVersion
1070
     0
  0
ACAD_PROXY_OBJECT
  5
252E5
102
{ACAD_REACTORS
330
19DE5
102
}
330
19DE5
100
AcDbZombieObject
 90
      499
 91
      510
 93
      476
310
41D4DAD95D18DA1E51840502408333333333333E3BF0000000000000FB01079024090741D01000000000000111010B41D405064090741802480A0340
1001
ACAD
1000
AcDbSavedByObjectVersion
1070
     0
  0
ACAD_PROXY_OBJECT
  5
19DF2
102
{ACAD_REACTORS
330
19DE5
102
}
330
19DE5
100
AcDbZombieObject
 90
      499
 91
      510
 93
      412
310
41D51A1A58DAD95B90D409028333333333333E3BF0000000000000FB010790141107004050150C41D405064090741402480A0350
1001
ACAD
1000
AcDbSavedByObjectVersion
1070
     0
  0
ACAD_PROXY_OBJECT
  5
252E2
102
{ACAD_REACTORS
330
19DE5
102
}
330
19DE5
100
AcDbZombieObject
 90
      499
 91
      510
 93
      420
310
4255DA5C99599C985B595059028333333333333E3BF0000000000000FB0107901411070040501600405405064090740C02480A0340
1001
ACAD
1000
AcDbSavedByObjectVersion
1070
     0
  0
ACAD_PROXY_OBJECT
  5
252E6
102
{ACAD_REACTORS
330
19DE5
102
}
330
19DE5
100
AcDbZombieObject
 90
      499
 91
      510
 93
      404
310
41560B54985E51940902404000000000000E03F0000000000000FB010740501907004050150841D405064090740C02480A1B40
1001
ACAD
1000
AcDbSavedByObjectVersion
1070
     0
  0
XRECORD
  5
25413
102
{ACAD_REACTORS
330
25412
102
}
330
25412
100
AcDbXrecord
340
2D0
  0
XRECORD
  5
25414
102
{ACAD_REACTORS
330
25412
102
}
330
25412
100
AcDbXrecord
340
2CF
  0
DICTIONARYVAR
  5
1AC1A
102
{ACAD_REACTORS
330
37
102
}
330
37
100
DictionaryVariables
280
     0
  1
1:1
  0
DICTIONARYVAR
  5
1AC19
102
{ACAD_REACTORS
330
37
102
}
330
37
100
DictionaryVariables
280
     0
  1
Standard
  0
DICTIONARYVAR
  5
4F1
102
{ACAD_REACTORS
330
37
102
}
330
37
100
DictionaryVariables
280
     0
  1
Standard
  0
DICTIONARYVAR
  5
2535B
102
{ACAD_REACTORS
330
37
102
}
330
37
100
DictionaryVariables
280
     0
  1
Metric50
  0
DICTIONARYVAR
  5
2535C
102
{ACAD_REACTORS
330
37
102
}
330
37
100
DictionaryVariables
280
     0
  1
Metric50
  0
DICTIONARYVAR
  5
38
102
{ACAD_REACTORS
330
37
102
}
330
37
100
DictionaryVariables
280
     0
  1
-1
  0
DICTIONARYVAR
  5
408
102
{ACAD_REACTORS
330
37
102
}
330
37
100
DictionaryVariables
280
     0
  1
2
  0
DICTIONARYVAR
  5
1891
102
{ACAD_REACTORS
330
37
102
}
330
37
100
DictionaryVariables
280
     0
  1
1
  0
DICTIONARYVAR
  5
1AC1C
102
{ACAD_REACTORS
330
37
102
}
330
37
100
DictionaryVariables
280
     0
  1
0
  0
DICTIONARYVAR
  5
1895
102
{ACAD_REACTORS
330
37
102
}
330
37
100
DictionaryVariables
280
     0
  1
8
  0
DICTIONARYVAR
  5
1894
102
{ACAD_REACTORS
330
37
102
}
330
37
100
DictionaryVariables
280
     0
  1
1
  0
DICTIONARYVAR
  5
25411
102
{ACAD_REACTORS
330
37
102
}
330
37
100
DictionaryVariables
280
     0
  1
0
  0
DICTIONARYVAR
  5
1892
102
{ACAD_REACTORS
330
37
102
}
330
37
100
DictionaryVariables
280
     0
  1
8
  0
DICTIONARYVAR
  5
1893
102
{ACAD_REACTORS
330
37
102
}
330
37
100
DictionaryVariables
280
     0
  1
2
  0
DICTIONARYVAR
  5
409
102
{ACAD_REACTORS
330
37
102
}
330
37
100
DictionaryVariables
280
     0
  1

  0
DICTIONARYVAR
  5
1AC1B
102
{ACAD_REACTORS
330
37
102
}
330
37
100
DictionaryVariables
280
     0
  1
127
  0
DICTIONARYVAR
  5
2535D
102
{ACAD_REACTORS
330
37
102
}
330
37
100
DictionaryVariables
280
     0
  1
2
  0
DICTIONARY
  5
25359
330
252EC
100
AcDbDictionary
1001
ACAD
1000
TREAT_AS_HARD
1070
     1
  0
DICTIONARY
  5
25416
330
19DD5
100
AcDbDictionary
  3
ACAD_XREC_ROUNDTRIP
360
25417
1001
ACAD
1000
TREAT_AS_HARD
1070
     1
  0
DICTIONARY
  5
25418
330
19DCD
100
AcDbDictionary
  3
ACAD_XREC_ROUNDTRIP
360
25419
1001
ACAD
1000
TREAT_AS_HARD
1070
     1
  0
DICTIONARY
  5
2541A
330
19DDD
100
AcDbDictionary
  3
ACAD_XREC_ROUNDTRIP
360
2541B
1001
ACAD
1000
TREAT_AS_HARD
1070
     1
  0
DICTIONARY
  5
25357
330
252EA
100
AcDbDictionary
1001
ACAD
1000
TREAT_AS_HARD
1070
     1
  0
XRECORD
  5
25417
102
{ACAD_REACTORS
330
25416
102
}
330
25416
100
AcDbXrecord
102
MATERIAL
148
0.0
149
0.0
149
0.0
 93
        0
 94
      127
282
     0
 72
     0
 77
     0
171
     0
175
     0
179
     0
273
     0
  0
XRECORD
  5
25419
102
{ACAD_REACTORS
330
25418
102
}
330
25418
100
AcDbXrecord
102
MATERIAL
148
0.0
149
0.0
149
0.0
 93
        0
 94
      127
282
     0
 72
     0
 77
     0
171
     0
175
     0
179
     0
273
     0
  0
XRECORD
  5
2541B
102
{ACAD_REACTORS
330
2541A
102
}
330
2541A
100
AcDbXrecord
102
MATERIAL
148
0.0
149
0.0
149
0.0
 93
        0
 94
      127
282
     0
 72
     0
 77
     0
171
     0
175
     0
179
     0
273
     0
  0
ENDSEC
  0
EOF
