  0
SECTION
  2
HEADER
  9
$ACADVER
  1
AC1009
  9
$DWGCODEPAGE
  3
ansi_932
  9
$INSBASE
 10
0.0
 20
0.0
 30
0.0
  9
$EXTMIN
 10
-404.5845540709971
 20
5785.962194847684
 30
0.0
  9
$EXTMAX
 10
-142.8578683235236
 20
5999.391829197105
 30
0.0
  9
$LIMMIN
 10
0.0
 20
0.0
  9
$LIMMAX
 10
420.0
 20
297.0
  9
$ORTHOMODE
 70
     0
  9
$REGENMODE
 70
     1
  9
$FILLMODE
 70
     1
  9
$QTEXTMODE
 70
     0
  9
$MIRRTEXT
 70
     0
  9
$DRAGMODE
 70
     2
  9
$LTSCALE
 40
0.5
  9
$OSMODE
 70
  2815
  9
$ATTMODE
 70
     1
  9
$TEXTSIZE
 40
2.0
  9
$TRACEWID
 40
1.0
  9
$TEXTSTYLE
  7
STANDARD
  9
$CLAYER
  8
1TEXT
  9
$CELTYPE
  6
BYLAYER
  9
$CECOLOR
 62
   256
  9
$DIMSCALE
 40
1.0
  9
$DIMASZ
 40
2.0
  9
$DIMEXO
 40
0.0
  9
$DIMDLI
 40
7.0
  9
$DIMRND
 40
0.0
  9
$DIMDLE
 40
0.0
  9
$DIMEXE
 40
1.0
  9
$DIMTP
 40
0.0
  9
$DIMTM
 40
0.0
  9
$DIMTXT
 40
3.5
  9
$DIMCEN
 40
0.0
  9
$DIMTSZ
 40
0.0
  9
$DIMTOL
 70
     0
  9
$DIMLIM
 70
     0
  9
$DIMTIH
 70
     0
  9
$DIMTOH
 70
     0
  9
$DIMSE1
 70
     0
  9
$DIMSE2
 70
     0
  9
$DIMTAD
 70
     1
  9
$DIMZIN
 70
     8
  9
$DIMBLK
  1

  9
$DIMASO
 70
     1
  9
$DIMSHO
 70
     1
  9
$DIMPOST
  1
 
  9
$DIMAPOST
  1

  9
$DIMALT
 70
     0
  9
$DIMALTD
 70
     2
  9
$DIMALTF
 40
25.4
  9
$DIMLFAC
 40
1.0
  9
$DIMTOFL
 70
     1
  9
$DIMTVP
 40
0.0
  9
$DIMTIX
 70
     0
  9
$DIMSOXD
 70
     0
  9
$DIMSAH
 70
     1
  9
$DIMBLK1
  1
OPEN30
  9
$DIMBLK2
  1
OPEN30
  9
$DIMSTYLE
  2
NEWX10
  9
$DIMCLRD
 70
   256
  9
$DIMCLRE
 70
   256
  9
$DIMCLRT
 70
   201
  9
$DIMTFAC
 40
0.7
  9
$DIMGAP
 40
0.7
  9
$LUNITS
 70
     2
  9
$LUPREC
 70
     4
  9
$SKETCHINC
 40
1.0
  9
$FILLETRAD
 40
0.3
  9
$AUNITS
 70
     0
  9
$AUPREC
 70
     2
  9
$MENU
  1
acad
  9
$ELEVATION
 40
0.0
  9
$PELEVATION
 40
0.0
  9
$THICKNESS
 40
0.0
  9
$LIMCHECK
 70
     0
  9
$CHAMFERA
 40
1.0
  9
$CHAMFERB
 40
1.0
  9
$SKPOLY
 70
     0
  9
$TDCREATE
 40
2459653.47493669
  9
$TDUPDATE
 40
2459781.587908437
  9
$TDINDWG
 40
0.0163754977
  9
$TDUSRTIMER
 40
0.0163754977
  9
$USRTIMER
 70
     1
  9
$ANGBASE
 50
0.0
  9
$ANGDIR
 70
     0
  9
$PDMODE
 70
     0
  9
$PDSIZE
 40
0.0
  9
$PLINEWID
 40
0.0
  9
$COORDS
 70
     2
  9
$SPLFRAME
 70
     0
  9
$SPLINETYPE
 70
     6
  9
$SPLINESEGS
 70
     8
  9
$ATTDIA
 70
     0
  9
$ATTREQ
 70
     1
  9
$HANDLING
 70
     1
  9
$HANDSEED
  5
11302
  9
$SURFTAB1
 70
     6
  9
$SURFTAB2
 70
     6
  9
$SURFTYPE
 70
     6
  9
$SURFU
 70
     6
  9
$SURFV
 70
     6
  9
$UCSNAME
  2

  9
$UCSORG
 10
0.0
 20
0.0
 30
0.0
  9
$UCSXDIR
 10
1.0
 20
0.0
 30
0.0
  9
$UCSYDIR
 10
0.0
 20
1.0
 30
0.0
  9
$PUCSNAME
  2

  9
$PUCSORG
 10
0.0
 20
0.0
 30
0.0
  9
$PUCSXDIR
 10
1.0
 20
0.0
 30
0.0
  9
$PUCSYDIR
 10
0.0
 20
1.0
 30
0.0
  9
$USERI1
 70
     0
  9
$USERI2
 70
     0
  9
$USERI3
 70
     0
  9
$USERI4
 70
     0
  9
$USERI5
 70
     0
  9
$USERR1
 40
0.0
  9
$USERR2
 40
0.0
  9
$USERR3
 40
0.0
  9
$USERR4
 40
0.0
  9
$USERR5
 40
4.5
  9
$WORLDVIEW
 70
     1
  9
$SHADEDGE
 70
     1
  9
$SHADEDIF
 70
    70
  9
$TILEMODE
 70
     1
  9
$MAXACTVP
 70
    48
  9
$PLIMCHECK
 70
     0
  9
$PEXTMIN
 10
1.000000000000000E+20
 20
1.000000000000000E+20
 30
1.000000000000000E+20
  9
$PEXTMAX
 10
-1.000000000000000E+20
 20
-1.000000000000000E+20
 30
-1.000000000000000E+20
  9
$PLIMMIN
 10
-20.0
 20
-7.5
  9
$PLIMMAX
 10
277.0
 20
202.5
  9
$UNITMODE
 70
     0
  9
$VISRETAIN
 70
     1
  9
$PLINEGEN
 70
     0
  9
$PSLTSCALE
 70
     1
  0
ENDSEC
  0
SECTION
  2
TABLES
  0
TABLE
  2
VPORT
 70
     1
  0
VPORT
  2
*ACTIVE
 70
     0
 10
0.0
 20
0.0
 11
1.0
 21
1.0
 12
-11335.38175619726
 22
-1593.906636977606
 13
0.0
 23
0.0
 14
10.0
 24
10.0
 15
10.0
 25
10.0
 16
0.0
 26
0.0
 36
1.0
 17
11061.660545
 27
7486.583649
 37
474.311593
 40
229.156028459378
 41
2.12079701120797
 42
50.0
 43
0.0
 44
0.0
 50
0.0
 51
0.0
 71
    16
 72
    20
 73
     1
 74
     1
 75
     0
 76
     0
 77
     0
 78
     0
  0
ENDTAB
  0
TABLE
  2
LTYPE
 70
    12
  0
LTYPE
  2
CONTINUOUS
 70
     0
  3
Solid line
 72
    65
 73
     0
 40
0.0
  0
LTYPE
  2
CENTER2
 70
     0
  3
Center (.5x) ___ _ ___ _ ___ _ ___ _ ___ _ ___
 72
    65
 73
     4
 40
28.575
 49
19.05
 49
-3.175
 49
3.175
 49
-3.175
  0
LTYPE
  2
HIDDEN
 70
     0
  3
Hidden __ __ __ __ __ __ __ __ __ __ __ __ __ _
 72
    65
 73
     2
 40
9.524999999999999
 49
6.35
 49
-3.175
  0
LTYPE
  2
PHANTOM2
 70
     0
  3
Phantom (0.5x) ___ _ _ ___ _ _ ___ _ _ ___ _ _
 72
    65
 73
     6
 40
31.75
 49
15.875
 49
-3.175
 49
3.175
 49
-3.175
 49
3.175
 49
-3.175
  0
ENDTAB
  0
TABLE
  2
LAYER
 70
    49
  0
LAYER
  2
0
 70
     0
 62
     7
  6
CONTINUOUS
  0
LAYER
  2
01
 70
     0
 62
     1
  6
CONTINUOUS
  0
LAYER
  2
1CENTER
 70
     0
 62
     7
  6
CENTER2
  0
LAYER
  2
1DIM
 70
     0
 62
     7
  6
CONTINUOUS
  0
LAYER
  2
1TEXT
 70
     0
 62
     7
  6
CONTINUOUS
  0
LAYER
  2
1HIDDEN
 70
     0
 62
     7
  6
HIDDEN
  0
LAYER
  2
1PHANTOM
 70
     0
 62
     7
  6
PHANTOM2
  0
ENDTAB
  0
TABLE
  2
STYLE
 70
    19
  0
STYLE
  2
STANDARD
 70
     0
 40
0.0
 41
1.0
 50
0.0
 71
     0
 42
2.0
  3
txt.shx
  4
extfont.shx
  0
ENDTAB
  0
TABLE
  2
VIEW
 70
     0
  0
ENDTAB
  0
TABLE
  2
UCS
 70
     0
  0
ENDTAB
  0
TABLE
  2
APPID
 70
    23
  0
APPID
  2
ACAD
 70
     0
  0
APPID
  2
ACAD_PSEXT
 70
     0
  0
APPID
  2
ACAD_DSTYLE_DIMRADIAL_EXTE
 70
     0
  0
APPID
  2
ACDBBLOCKREPETAG
 70
     0
  0
APPID
  2
ACDBDYNAMICBLOCKGUID
 70
     0
  0
APPID
  2
ACADANNOTATIVE
 70
     0
  0
APPID
  2
ACLAYERTOOLS
 70
     0
  0
APPID
  2
ACAD_NAV_VCDISPLAY
 70
     0
  0
APPID
  2
ACADSTRINGINFO
 70
     0
  0
APPID
  2
GRADIENTCOLOR1ACI
 70
     0
  0
APPID
  2
GRADIENTCOLOR2ACI
 70
     0
  0
APPID
  2
CONTENTTABDATA
 70
     0
  0
APPID
  2
CONTENTCURRENTTAB
 70
     0
  0
APPID
  2
CONTENTBLOCKDESCRIPTION
 70
     0
  0
APPID
  2
CONTENTBLOCKICON
 70
     0
  0
APPID
  2
DRAWINGVARIABLESXDATA
 70
     0
  0
APPID
  2
CONTENTLONGBLOCKNAME
 70
     0
  0
APPID
  2
ACAD_MLEADERVER
 70
     0
  0
APPID
  2
ACAD_OBJECT_CHANGE_GUID
 70
     0
  0
APPID
  2
ACAD_DSTYLE_DIMJOGGED_JOGA
 70
     0
  0
APPID
  2
ACAD_DSTYLE_DIM_LINETYPE
 70
     0
  0
APPID
  2
ACAD_DSTYLE_DIM_EXT1_LINET
 70
     0
  0
APPID
  2
ACAD_DSTYLE_DIM_EXT2_LINET
 70
     0
  0
ENDTAB
  0
TABLE
  2
DIMSTYLE
 70
     3
  0
DIMSTYLE
  2
NEWX10
 70
     0
  3
 
  4

  5

  6
OPEN30
  7
OPEN30
 40
1.0
 41
2.0
 42
0.0
 43
7.0
 44
1.0
 45
0.0
 46
0.0
 47
0.0
 48
0.0
140
3.5
141
0.0
142
0.0
143
25.4
144
1.0
145
0.0
146
0.7
147
0.7
 71
     0
 72
     0
 73
     0
 74
     0
 75
     0
 76
     0
 77
     1
 78
     8
170
     0
171
     2
172
     1
173
     1
174
     0
175
     0
176
   256
177
   256
178
   201
  0
DIMSTYLE
  2
ISO-25
 70
     0
  3

  4

  5

  6

  7

 40
1.0
 41
20.0
 42
3.0
 43
3.75
 44
2.0
 45
0.0
 46
0.0
 47
0.0
 48
0.0
140
30.0
141
5.0
142
0.0
143
0.03937
144
1.0
145
0.0
146
1.0
147
8.0
 71
     0
 72
     0
 73
     0
 74
     0
 75
     0
 76
     0
 77
     1
 78
     8
170
     0
171
     3
172
     1
173
     0
174
     0
175
     0
176
     1
177
     1
178
     1
  0
ENDTAB
  0
ENDSEC
  0
SECTION
  2
BLOCKS
  0
BLOCK
  8
0
  2
$MODEL_SPACE
 70
     0
 10
0.0
 20
0.0
 30
0.0
  3
$MODEL_SPACE
  1

  0
ENDBLK
  5
F764
  8
0
  0
BLOCK
 67
     1
  8
0
  2
$PAPER_SPACE
 70
     0
 10
0.0
 20
0.0
 30
0.0
  3
$PAPER_SPACE
  1

  0
ENDBLK
  5
FB7D
 67
     1
  8
0
  0
BLOCK
  8
0
  2
_OPEN30
 70
     0
 10
0.0
 20
0.0
 30
0.0
  3
_OPEN30
  1

  0
LINE
  5
29
  8
0
  6
BYBLOCK
 62
     0
 10
-1.0
 20
0.267949
 30
0.0
 11
0.0
 21
0.0
 31
0.0
  0
LINE
  5
2A
  8
0
  6
BYBLOCK
 62
     0
 10
0.0
 20
0.0
 30
0.0
 11
-1.0
 21
-0.267949
 31
0.0
  0
LINE
  5
2B
  8
0
  6
BYBLOCK
 62
     0
 10
0.0
 20
0.0
 30
0.0
 11
-1.0
 21
0.0
 31
0.0
  0
ENDBLK
  5
F762
  8
0
  0
BLOCK
  8
0
  2
A3WAKUKAWAJUN2017_HYOUDAI_
 70
     0
 10
0.0
 20
0.0
 30
0.0
  3
A3WAKUKAWAJUN2017_HYOUDAI_
  1

  0
LINE
  5
6D9B
  8
0
 10
13.26299999998673
 20
-0.0001000000000317
 30
0.0
 11
9.236999999990758
 21
8.999899999990987
 31
0.0
1001
ACAD
1000
ASC_BOUNDS
1002
{
1070
    19
1005
6DDC
1002
}
  0
LINE
  5
6D9C
  8
0
 10
5.657999999994331
 20
0.9999999999989768
 30
0.0
 11
9.236999999990758
 21
8.999999999991019
 31
0.0
1001
ACAD
1000
ASC_BOUNDS
1002
{
1070
    19
1005
6DDC
1002
}
  0
LINE
  5
6D9D
  8
0
 10
18.59199999998134
 20
-0.2368999999997641
 30
0.0
 11
16.46099999998353
 21
5.432899999994561
 31
0.0
1001
ACAD
1000
ASC_BOUNDS
1002
{
1070
    19
1005
6DDD
1002
}
  0
LINE
  5
6D9E
  8
0
 10
18.59199999998134
 20
-0.2368999999997641
 30
0.0
 11
22.38199999997767
 21
8.763099999991255
 31
0.0
1001
ACAD
1000
ASC_BOUNDS
1002
{
1070
    19
1005
6DDD
1002
}
  0
LINE
  5
6D9F
  8
0
 10
14.32899999998563
 20
-0.2368999999997641
 30
0.0
 11
16.46099999998353
 21
5.432899999994561
 31
0.0
1001
ACAD
1000
ASC_BOUNDS
1002
{
1070
    19
1005
6DDD
1002
}
  0
LINE
  5
6DA0
  8
0
 10
14.32899999998563
 20
-0.2368999999997641
 30
0.0
 11
10.53899999998941
 21
8.763099999991255
 31
0.0
1001
ACAD
1000
ASC_BOUNDS
1002
{
1070
    19
1005
6DDD
1002
}
  0
LINE
  5
6DA1
  8
0
 10
19.53899999998043
 20
-0.0001000000000317
 30
0.0
 11
23.56599999997638
 21
8.999899999990987
 31
0.0
1001
ACAD
1000
ASC_BOUNDS
1002
{
1070
    19
1005
6DDE
1002
}
  0
LINE
  5
6DA2
  8
0
 10
26.97358892824991
 20
1.383099999991202
 30
0.0
 11
23.56599999997638
 21
8.999899999990987
 31
0.0
1001
ACAD
1000
ASC_BOUNDS
1002
{
1070
    19
1005
6DDE
1002
}
  0
LINE
  5
6DA3
  8
0
 10
5.657999999994331
 20
0.9999999999989768
 30
0.0
 11
3.181999999996833
 21
4.668599999995308
 31
0.0
1001
ACAD
1000
ASC_BOUNDS
1002
{
1070
    19
1005
6DDC
1002
}
  0
LINE
  5
6DA4
  8
0
 10
4.617999999995391
 20
-0.0001000000000317
 30
0.0
 11
1.420999999998571
 21
4.736799999995242
 31
0.0
1001
ACAD
1000
ASC_BOUNDS
1002
{
1070
    19
1005
6DDC
1002
}
  0
LINE
  5
6DA5
  8
0
 10
1.420999999998571
 20
8.763099999991255
 30
0.0
 11
1.420999999998571
 21
0.0
 31
0.0
1001
ACAD
1000
ASC_BOUNDS
1002
{
1070
    19
1005
6DE1
1002
}
  0
LINE
  5
6DA6
  8
0
 10
0.0
 20
8.763099999991255
 30
0.0
 11
0.0
 21
0.0
 31
0.0
1001
ACAD
1000
ASC_BOUNDS
1002
{
1070
    19
1005
6DE1
1002
}
  0
LINE
  5
6DA7
  8
0
 10
6.766999999993232
 20
-0.0001000000000317
 30
0.0
 11
7.826999999992154
 21
2.368399999997621
 31
0.0
1001
ACAD
1000
ASC_BOUNDS
1002
{
1070
    19
1005
6DDC
1002
}
  0
LINE
  5
6DA8
  8
0
 10
0.0
 20
0.0
 30
0.0
 11
1.420999999998571
 21
0.0
 31
0.0
1001
ACAD
1000
ASC_BOUNDS
1002
{
1070
    19
1005
6DE1
1002
}
  0
LINE
  5
6DA9
  8
0
 10
4.617999999995391
 20
0.0
 30
0.0
 11
6.766999999993232
 21
0.0
 31
0.0
1001
ACAD
1000
ASC_BOUNDS
1002
{
1070
    19
1005
6DDC
1002
}
  0
LINE
  5
6DAA
  8
0
 10
11.70599999998831
 20
-0.0001000000000317
 30
0.0
 11
10.64699999998936
 21
2.368399999997621
 31
0.0
1001
ACAD
1000
ASC_BOUNDS
1002
{
1070
    19
1005
6DDC
1002
}
  0
LINE
  5
6DAB
  8
0
 10
7.826999999992154
 20
2.368399999997621
 30
0.0
 11
10.64699999998936
 21
2.368399999997621
 31
0.0
1001
ACAD
1000
ASC_BOUNDS
1002
{
1070
    19
1005
6DDC
1002
}
  0
LINE
  5
6DAC
  8
0
 10
11.70599999998831
 20
0.0
 30
0.0
 11
13.26299999998673
 21
0.0
 31
0.0
1001
ACAD
1000
ASC_BOUNDS
1002
{
1070
    19
1005
6DDC
1002
}
  0
LINE
  5
6DAD
  8
0
 10
22.15599999997789
 20
2.368399999997621
 30
0.0
 11
24.97599999997499
 21
2.368399999997621
 31
0.0
1001
ACAD
1000
ASC_BOUNDS
1002
{
1070
    19
1005
6DDE
1002
}
  0
LINE
  5
6DAE
  8
0
 10
19.53899999998043
 20
0.0
 30
0.0
 11
21.09599999997886
 21
0.0
 31
0.0
1001
ACAD
1000
ASC_BOUNDS
1002
{
1070
    19
1005
6DDE
1002
}
  0
LINE
  5
6DAF
  8
0
 10
21.09599999997886
 20
-0.0001000000000317
 30
0.0
 11
22.15599999997789
 21
2.368399999997621
 31
0.0
1001
ACAD
1000
ASC_BOUNDS
1002
{
1070
    19
1005
6DDE
1002
}
  0
LINE
  5
6DB0
  8
0
 10
26.02015566812236
 20
0.0330999999912365
 30
0.0
 11
24.97599999997499
 21
2.368399999997621
 31
0.0
1001
ACAD
1000
ASC_BOUNDS
1002
{
1070
    19
1005
6DDE
1002
}
  0
LINE
  5
6DB1
  8
0
 10
14.32399999998563
 20
3.315799999996671
 30
0.0
 11
16.46099999998353
 21
8.999899999990987
 31
0.0
1001
ACAD
1000
ASC_BOUNDS
1002
{
1070
    19
1005
6DDD
1002
}
  0
LINE
  5
6DB2
  8
0
 10
6.432999999993513
 20
8.763099999991255
 30
0.0
 11
3.181999999996833
 21
4.668599999995308
 31
0.0
1001
ACAD
1000
ASC_BOUNDS
1002
{
1070
    19
1005
6DDC
1002
}
  0
LINE
  5
6DB3
  8
0
 10
4.617999999995391
 20
8.763099999991255
 30
0.0
 11
1.420999999998571
 21
4.736799999995242
 31
0.0
1001
ACAD
1000
ASC_BOUNDS
1002
{
1070
    19
1005
6DDC
1002
}
  0
LINE
  5
6DB4
  8
0
 10
0.0
 20
8.763099999991255
 30
0.0
 11
1.420999999998571
 21
8.763099999991255
 31
0.0
1001
ACAD
1000
ASC_BOUNDS
1002
{
1070
    19
1005
6DE1
1002
}
  0
LINE
  5
6DB5
  8
0
 10
4.617999999995391
 20
8.763099999991255
 30
0.0
 11
6.432999999993513
 21
8.763099999991255
 31
0.0
1001
ACAD
1000
ASC_BOUNDS
1002
{
1070
    19
1005
6DDC
1002
}
  0
LINE
  5
6DB6
  8
0
 10
14.32399999998563
 20
3.315799999996671
 30
0.0
 11
12.02999999998792
 21
8.763099999991255
 31
0.0
1001
ACAD
1000
ASC_BOUNDS
1002
{
1070
    19
1005
6DDD
1002
}
  0
LINE
  5
6DB7
  8
0
 10
10.06399999998996
 20
3.670999999996297
 30
0.0
 11
9.236999999990758
 21
5.5200999999945
 31
0.0
1001
ACAD
1000
ASC_BOUNDS
1002
{
1070
    19
1005
6DDC
1002
}
  0
LINE
  5
6DB8
  8
0
 10
8.409999999991555
 20
3.670999999996297
 30
0.0
 11
9.236999999990758
 21
5.5200999999945
 31
0.0
1001
ACAD
1000
ASC_BOUNDS
1002
{
1070
    19
1005
6DDC
1002
}
  0
LINE
  5
6DB9
  8
0
 10
8.409999999991555
 20
3.670999999996297
 30
0.0
 11
10.06399999998996
 21
3.670999999996297
 31
0.0
1001
ACAD
1000
ASC_BOUNDS
1002
{
1070
    19
1005
6DDC
1002
}
  0
LINE
  5
6DBA
  8
0
 10
10.53899999998941
 20
8.763099999991255
 30
0.0
 11
12.02999999998792
 21
8.763099999991255
 31
0.0
1001
ACAD
1000
ASC_BOUNDS
1002
{
1070
    19
1005
6DDD
1002
}
  0
LINE
  5
6DBB
  8
0
 10
22.7389999999773
 20
3.670999999996297
 30
0.0
 11
23.56599999997638
 21
5.5200999999945
 31
0.0
1001
ACAD
1000
ASC_BOUNDS
1002
{
1070
    19
1005
6DDE
1002
}
  0
LINE
  5
6DBC
  8
0
 10
22.7389999999773
 20
3.670999999996297
 30
0.0
 11
24.39299999997559
 21
3.670999999996297
 31
0.0
1001
ACAD
1000
ASC_BOUNDS
1002
{
1070
    19
1005
6DDE
1002
}
  0
LINE
  5
6DBD
  8
0
 10
18.59799999998143
 20
3.315799999996671
 30
0.0
 11
20.89099999997916
 21
8.763099999991255
 31
0.0
1001
ACAD
1000
ASC_BOUNDS
1002
{
1070
    19
1005
6DDD
1002
}
  0
LINE
  5
6DBE
  8
0
 10
18.59799999998143
 20
3.315799999996671
 30
0.0
 11
16.46099999998353
 21
8.999899999990987
 31
0.0
1001
ACAD
1000
ASC_BOUNDS
1002
{
1070
    19
1005
6DDD
1002
}
  0
LINE
  5
6DBF
  8
0
 10
20.89099999997916
 20
8.763099999991255
 30
0.0
 11
22.38199999997767
 21
8.763099999991255
 31
0.0
1001
ACAD
1000
ASC_BOUNDS
1002
{
1070
    19
1005
6DDD
1002
}
  0
LINE
  5
6DC0
  8
0
 10
24.39299999997559
 20
3.670999999996297
 30
0.0
 11
23.56599999997638
 21
5.5200999999945
 31
0.0
1001
ACAD
1000
ASC_BOUNDS
1002
{
1070
    19
1005
6DDE
1002
}
  0
LINE
  5
6DC1
  8
0
 10
44.99999999995498
 20
-0.2368999999997641
 30
0.0
 11
40.02599999995994
 21
5.341799999994635
 31
0.0
1001
ACAD
1000
ASC_BOUNDS
1002
{
1070
    19
1005
6DE0
1002
}
  0
LINE
  5
6DC2
  8
0
 10
40.02599999995994
 20
5.341799999994635
 30
0.0
 11
40.02599999995994
 21
0.0
 31
0.0
1001
ACAD
1000
ASC_BOUNDS
1002
{
1070
    19
1005
6DE0
1002
}
  0
LINE
  5
6DC3
  8
0
 10
38.60499999996136
 20
8.999999999991019
 30
0.0
 11
38.60499999996136
 21
0.0
 31
0.0
1001
ACAD
1000
ASC_BOUNDS
1002
{
1070
    19
1005
6DE0
1002
}
  0
LINE
  5
6DC4
  8
0
 10
44.99999999995498
 20
8.763099999991255
 30
0.0
 11
44.99999999995498
 21
-0.2368999999997641
 31
0.0
1001
ACAD
1000
ASC_BOUNDS
1002
{
1070
    19
1005
6DE0
1002
}
  0
LINE
  5
6DC5
  8
0
 10
38.60499999996136
 20
0.0
 30
0.0
 11
40.02599999995994
 21
0.0
 31
0.0
1001
ACAD
1000
ASC_BOUNDS
1002
{
1070
    19
1005
6DE0
1002
}
  0
LINE
  5
6DC6
  8
0
 10
43.57899999995641
 20
3.421199999996588
 30
0.0
 11
38.60499999996136
 21
8.999899999990987
 31
0.0
1001
ACAD
1000
ASC_BOUNDS
1002
{
1070
    19
1005
6DE0
1002
}
  0
LINE
  5
6DC7
  8
0
 10
43.57899999995641
 20
8.763099999991255
 30
0.0
 11
43.57899999995641
 21
3.421199999996588
 31
0.0
1001
ACAD
1000
ASC_BOUNDS
1002
{
1070
    19
1005
6DE0
1002
}
  0
LINE
  5
6DC8
  8
0
 10
43.57899999995641
 20
8.763099999991255
 30
0.0
 11
44.99999999995498
 21
8.763099999991255
 31
0.0
1001
ACAD
1000
ASC_BOUNDS
1002
{
1070
    19
1005
6DE0
1002
}
  0
LINE
  5
6DC9
  8
0
 10
37.67199999996831
 20
8.763099999991255
 30
0.0
 11
36.23199999996837
 21
8.763099999991255
 31
0.0
  0
LINE
  5
6DCA
  8
0
 10
31.64199999996833
 20
8.763099999991255
 30
0.0
 11
31.64199999996833
 21
2.481619422925121
 31
0.0
  0
LINE
  5
6DCB
  8
0
 10
37.67199999996831
 20
8.763099999991255
 30
0.0
 11
37.67199999996831
 21
2.481619422925121
 31
0.0
  0
LINE
  5
6DCC
  8
0
 10
36.23199999996837
 20
8.763099999991255
 30
0.0
 11
36.23199999996837
 21
2.481619422925064
 31
0.0
  0
LINE
  5
6DCD
  8
0
 10
33.08199999996839
 20
8.763099999991255
 30
0.0
 11
33.08199999996839
 21
2.481619422925121
 31
0.0
  0
ARC
  5
6DCE
  8
0
 10
34.65699999996832
 20
3.183099999991214
 30
0.0
 40
3.420000000000007
 50
240.0000000000255
 51
299.9999999999766
  0
ARC
  5
6DCF
  8
0
 10
34.65699999996832
 20
3.183099999991214
 30
0.0
 40
1.97999999999999
 50
240.000000000026
 51
299.9999999999703
  0
LINE
  5
6DD0
  8
0
 10
33.08199999996828
 20
8.763099999991255
 30
0.0
 11
31.64199999996833
 21
8.763099999991255
 31
0.0
  0
ARC
  5
6DD1
  8
0
 10
35.06199999996829
 20
2.481619422925064
 30
0.0
 40
1.17
 50
299.9999999999699
 51
0.0
  0
ARC
  5
6DD2
  8
0
 10
34.25199999996835
 20
2.481619422925121
 30
0.0
 40
1.17
 50
180.0
 51
240.0000000000238
  0
ARC
  5
6DD3
  8
0
 10
35.06199999996841
 20
2.481619422925121
 30
0.0
 40
2.61
 50
299.9999999999756
 51
0.0
  0
ARC
  5
6DD4
  8
0
 10
34.25199999996835
 20
2.481619422925121
 30
0.0
 40
2.61
 50
180.0
 51
240.0000000000244
  0
LINE
  5
6DD5
  8
0
 10
29.30199999996933
 20
8.763099999991255
 30
0.0
 11
30.74199999996927
 21
8.763099999991255
 31
0.0
1001
ACAD
1000
ASC_BOUNDS
1002
{
1070
    19
1005
6DDE
1002
}
  0
LINE
  5
6DD6
  8
0
 10
30.74199999996927
 20
8.763099999991255
 30
0.0
 11
30.74199999996927
 21
2.373099999991211
 31
0.0
1001
ACAD
1000
ASC_BOUNDS
1002
{
1070
    19
1005
6DDE
1002
}
  0
LINE
  5
6DD7
  8
0
 10
26.02015566812236
 20
0.0330999999912365
 30
0.0
 11
28.40199999996923
 21
0.0330999999912365
 31
0.0
1001
ACAD
1000
ASC_BOUNDS
1002
{
1070
    19
1005
6DDE
1002
}
  0
LINE
  5
6DD8
  8
0
 10
29.30199999996933
 20
8.763099999991255
 30
0.0
 11
29.30199999996933
 21
2.283099999991236
 31
0.0
1001
ACAD
1000
ASC_BOUNDS
1002
{
1070
    19
1005
6DDE
1002
}
  0
LINE
  5
6DD9
  8
0
 10
26.97358892824991
 20
1.383099999991202
 30
0.0
 11
28.40199999996923
 21
1.383099999991202
 31
0.0
1001
ACAD
1000
ASC_BOUNDS
1002
{
1070
    19
1005
6DDE
1002
}
  0
ARC
  5
6DDA
  8
0
 10
28.40199999996923
 20
2.283099999991236
 30
0.0
 40
0.9
 50
270.0
 51
0.0
1001
ACAD
1000
ASC_BOUNDS
1002
{
1070
    19
1005
6DDE
1002
}
  0
ARC
  5
6DDB
  8
0
 10
28.40199999996923
 20
2.373099999991211
 30
0.0
 40
2.34
 50
270.0
 51
0.0
1001
ACAD
1000
ASC_BOUNDS
1002
{
1070
    19
1005
6DDE
1002
}
  0
INSERT
  5
6DDC
  8
0
  2
*X1949
 10
0.0
 20
0.0
 30
0.0
1001
ACAD
1000
HATCH
1002
{
1070
    19
1000
ANSI37
1040
0.15
1040
0.0
1000
ASC_BOUNDS
1070
     2
1070
     2
1070
    12
1005
6D9B
1005
6D9C
1005
6DA3
1005
6DB2
1005
6DB5
1005
6DB3
1005
6DA4
1005
6DA9
1005
6DA7
1005
6DAB
1005
6DAA
1005
6DAC
1070
     2
1070
     3
1005
6DB7
1005
6DB9
1005
6DB8
1000
ASC_SEEDPOINT
1011
3.614004224891801
1021
2.996669441146025
1031
0.0
1021
2.996669441146025
1031
0.0
1000
R14_HATCH_DATA
1000
6DDC
1011
1.0
1021
0.0
1031
0.0
1021
0.0
1031
0.0
1011
0.0
1021
1.0
1031
0.0
1021
1.0
1031
0.0
1011
0.0
1021
0.0
1031
1.0
1021
0.0
1031
1.0
1040
0.0
1010
0.0
1020
0.0
1030
1.0
1000
ANSI37
1070
     0
1070
     1
1071
        2
1071
        7
1070
     0
1070
     1
1071
       17
1040
13.26299999998673
1040
-0.0001000000000317
1040
9.236999999990758
1040
8.999899999990987
1040
9.236999999990758
1040
8.999999999991019
1040
5.657999999994331
1040
0.9999999999989768
1040
3.181999999996833
1040
4.668599999995308
1040
6.432999999993513
1040
8.763099999991255
1040
4.617999999995391
1040
8.763099999991255
1040
1.420999999998571
1040
4.736799999995242
1040
4.617999999995391
1040
-0.0001000000000317
1040
4.617999999995391
1040
0.0
1040
6.766999999993232
1040
0.0
1040
6.766999999993232
1040
-0.0001000000000317
1040
7.826999999992154
1040
2.368399999997621
1040
10.64699999998936
1040
2.368399999997621
1040
11.70599999998831
1040
-0.0001000000000317
1040
11.70599999998831
1040
0.0
1040
13.26299999998673
1040
0.0
1071
       12
1005
6D9B
1005
6D9C
1005
6DA3
1005
6DB2
1005
6DB5
1005
6DB3
1005
6DA4
1005
6DA9
1005
6DA7
1005
6DAB
1005
6DAA
1005
6DAC
1071
       22
1070
     0
1070
     1
1071
        3
1040
9.236999999990758
1040
5.5200999999945
1040
10.06399999998996
1040
3.670999999996297
1040
8.409999999991555
1040
3.670999999996297
1071
        3
1005
6DB7
1005
6DB9
1005
6DB8
1070
     0
1070
     1
1040
0.0
1040
0.15
1070
     0
1070
     2
1040
0.7853981633974483
1040
49.29960901727088
1040
-10.17736998311392
1040
-0.3367596045400932
1040
0.3367596045400932
1070
     0
1040
2.356194490192345
1040
49.29960901727088
1040
-10.17736998311392
1040
-0.3367596045400932
1040
-0.3367596045400932
1070
     0
1040
0.0110235143455945
1071
        2
1040
3.614004224891801
1040
2.996669441146025
1040
0.0
1040
3.614004224891801
1040
2.996669441146025
1040
0.0
1002
}
  0
INSERT
  5
6DDD
  8
0
  2
*X1950
 10
0.0
 20
0.0
 30
0.0
1001
ACAD
1000
HATCH
1002
{
1070
    19
1000
ANSI37
1040
0.15
1040
0.0
1000
ASC_BOUNDS
1070
     1
1070
     2
1070
    10
1005
6D9D
1005
6D9E
1005
6DBF
1005
6DBD
1005
6DBE
1005
6DB1
1005
6DB6
1005
6DBA
1005
6DA0
1005
6D9F
1000
ASC_SEEDPOINT
1011
14.73245321214324
1021
2.798246178283421
1031
0.0
1021
2.798246178283421
1031
0.0
1000
R14_HATCH_DATA
1000
6DDD
1011
1.0
1021
0.0
1031
0.0
1021
0.0
1031
0.0
1011
0.0
1021
1.0
1031
0.0
1021
1.0
1031
0.0
1011
0.0
1021
0.0
1031
1.0
1021
0.0
1031
1.0
1040
0.0
1010
0.0
1020
0.0
1030
1.0
1000
ANSI37
1070
     0
1070
     1
1071
        1
1071
        7
1070
     0
1070
     1
1071
       10
1040
16.46099999998353
1040
5.432899999994561
1040
18.59199999998134
1040
-0.2368999999997641
1040
22.38199999997767
1040
8.763099999991255
1040
20.89099999997916
1040
8.763099999991255
1040
18.59799999998143
1040
3.315799999996671
1040
16.46099999998353
1040
8.999899999990987
1040
14.32399999998563
1040
3.315799999996671
1040
12.02999999998792
1040
8.763099999991255
1040
10.53899999998941
1040
8.763099999991255
1040
14.32899999998563
1040
-0.2368999999997641
1071
       10
1005
6D9D
1005
6D9E
1005
6DBF
1005
6DBD
1005
6DBE
1005
6DB1
1005
6DB6
1005
6DBA
1005
6DA0
1005
6D9F
1070
     0
1070
     1
1040
0.0
1040
0.15
1070
     0
1070
     2
1040
0.7853981633974483
1040
49.29960901727088
1040
-10.17736998311392
1040
-0.3367596045400932
1040
0.3367596045400932
1070
     0
1040
2.356194490192345
1040
49.29960901727088
1040
-10.17736998311392
1040
-0.3367596045400932
1040
-0.3367596045400932
1070
     0
1040
0.0110235143455945
1071
        1
1040
14.73245321214324
1040
2.798246178283421
1040
0.0
1002
}
  0
INSERT
  5
6DDE
  8
0
  2
*X1951
 10
0.0
 20
0.0
 30
0.0
1001
ACAD
1000
HATCH
1002
{
1070
    19
1000
ANSI37
1040
0.15
1040
0.0
1000
ASC_BOUNDS
1070
     2
1070
     2
1070
    13
1005
6DA1
1005
6DAE
1005
6DAF
1005
6DAD
1005
6DB0
1005
6DD7
1005
6DDB
1005
6DD6
1005
6DD5
1005
6DD8
1005
6DDA
1005
6DD9
1005
6DA2
1070
     2
1070
     3
1005
6DBB
1005
6DC0
1005
6DBC
1000
ASC_SEEDPOINT
1011
21.97929957367762
1021
3.294304244259308
1031
0.0
1021
3.294304244259308
1031
0.0
1000
R14_HATCH_DATA
1000
6DDE
1011
1.0
1021
0.0
1031
0.0
1021
0.0
1031
0.0
1011
0.0
1021
1.0
1031
0.0
1021
1.0
1031
0.0
1011
0.0
1021
0.0
1031
1.0
1021
0.0
1031
1.0
1040
0.0
1010
0.0
1020
0.0
1030
1.0
1000
ANSI37
1070
     0
1070
     1
1071
        2
1071
        7
1070
     1
1070
     1
1071
       15
1040
23.56599999997638
1040
8.999899999990987
1040
0.0
1040
19.53899999998043
1040
-0.0001000000000317
1040
0.0
1040
19.53899999998043
1040
0.0
1040
0.0
1040
21.09599999997886
1040
0.0
1040
0.0
1040
21.09599999997886
1040
-0.0001000000000317
1040
0.0
1040
22.15599999997789
1040
2.368399999997621
1040
0.0
1040
24.97599999997499
1040
2.368399999997621
1040
0.0
1040
26.02015566812236
1040
0.0330999999912365
1040
0.0
1040
28.40199999996923
1040
0.0330999999912365
1040
0.414213562373095
1040
30.74199999996923
1040
2.373099999991211
1040
0.0
1040
30.74199999996927
1040
8.763099999991255
1040
0.0
1040
29.30199999996933
1040
8.763099999991255
1040
0.0
1040
29.30199999996933
1040
2.283099999991236
1040
-0.414213562373095
1040
28.40199999996923
1040
1.383099999991237
1040
0.0
1040
26.97358892824991
1040
1.383099999991202
1040
0.0
1071
       13
1005
6DA1
1005
6DAE
1005
6DAF
1005
6DAD
1005
6DB0
1005
6DD7
1005
6DDB
1005
6DD6
1005
6DD5
1005
6DD8
1005
6DDA
1005
6DD9
1005
6DA2
1071
       22
1070
     0
1070
     1
1071
        3
1040
22.7389999999773
1040
3.670999999996297
1040
23.56599999997638
1040
5.5200999999945
1040
24.39299999997559
1040
3.670999999996297
1071
        3
1005
6DBB
1005
6DC0
1005
6DBC
1070
     0
1070
     1
1040
0.0
1040
0.15
1070
     0
1070
     2
1040
0.7853981633974483
1040
49.29960901727088
1040
-10.17736998311392
1040
-0.3367596045400932
1040
0.3367596045400932
1070
     0
1040
2.356194490192345
1040
49.29960901727088
1040
-10.17736998311392
1040
-0.3367596045400932
1040
-0.3367596045400932
1070
     0
1040
0.0110235143455945
1071
        2
1040
21.97929957367762
1040
3.294304244259308
1040
0.0
1040
21.97929957367762
1040
3.294304244259308
1040
0.0
1002
}
  0
INSERT
  5
6DDF
  8
0
  2
*X1952
 10
0.0
 20
0.0
 30
0.0
1001
ACAD
1000
HATCH
1002
{
1070
    19
1000
ANSI37
1040
0.15
1040
0.0
1000
R14_HATCH_DATA
1000
6DDF
1011
1.0
1021
0.0
1031
0.0
1021
0.0
1031
0.0
1011
0.0
1021
1.0
1031
0.0
1021
1.0
1031
0.0
1011
0.0
1021
0.0
1031
1.0
1021
0.0
1031
1.0
1040
0.0
1010
0.0
1020
0.0
1030
1.0
1000
ANSI37
1070
     0
1070
     1
1071
        1
1071
        7
1070
     1
1070
     1
1071
       12
1040
31.64199999996833
1040
2.481619422925121
1040
0.2679491924310942
1040
32.94699999997067
1040
0.2212931190493919
1040
0.2679491924301353
1040
36.36699999995983
1040
0.2212931190459813
1040
0.2679491924321411
1040
37.67199999996831
1040
2.481619422928361
1040
0.0
1040
37.67199999996831
1040
8.763099999991255
1040
0.0
1040
36.23199999996837
1040
8.763099999991255
1040
0.0
1040
36.23199999996837
1040
2.481619422925064
1040
-0.2679491924310291
1040
35.64699999996708
1040
1.468369700498386
1040
-0.267949192430519
1040
33.66699999997093
1040
1.468369700497703
1040
-0.267949192431809
1040
33.08199999996839
1040
2.481619422926997
1040
0.0
1040
33.08199999996839
1040
8.763099999991255
1040
0.0
1040
31.64199999996833
1040
8.763099999991255
1040
0.0
1071
        0
1070
     0
1070
     1
1040
0.0
1040
0.15
1070
     0
1070
     2
1040
0.7853981633974483
1040
49.29960901727088
1040
-10.17736998311392
1040
-0.3367596045400932
1040
0.3367596045400932
1070
     0
1040
2.356194490192345
1040
49.29960901727088
1040
-10.17736998311392
1040
-0.3367596045400932
1040
-0.3367596045400932
1070
     0
1040
0.0110235143455945
1071
        1
1040
32.30357378967278
1040
3.988785755459219
1040
0.0
1002
}
  0
INSERT
  5
6DE0
  8
0
  2
*X1953
 10
0.0
 20
0.0
 30
0.0
1001
ACAD
1000
HATCH
1002
{
1070
    19
1000
ANSI37
1040
0.15
1040
0.0
1000
ASC_BOUNDS
1070
     1
1070
     2
1070
     8
1005
6DC1
1005
6DC4
1005
6DC8
1005
6DC7
1005
6DC6
1005
6DC3
1005
6DC5
1005
6DC2
1000
ASC_SEEDPOINT
1011
39.74896370716704
1021
4.484843821435049
1031
0.0
1021
4.484843821435049
1031
0.0
1000
R14_HATCH_DATA
1000
6DE0
1011
1.0
1021
0.0
1031
0.0
1021
0.0
1031
0.0
1011
0.0
1021
1.0
1031
0.0
1021
1.0
1031
0.0
1011
0.0
1021
0.0
1031
1.0
1021
0.0
1031
1.0
1040
0.0
1010
0.0
1020
0.0
1030
1.0
1000
ANSI37
1070
     0
1070
     1
1071
        1
1071
        7
1070
     0
1070
     1
1071
        9
1040
40.02599999995994
1040
5.341799999994635
1040
44.99999999995498
1040
-0.2368999999997641
1040
44.99999999995498
1040
8.763099999991255
1040
43.57899999995641
1040
8.763099999991255
1040
43.57899999995641
1040
3.421199999996588
1040
38.60499999996136
1040
8.999899999990987
1040
38.60499999996136
1040
8.999999999991019
1040
38.60499999996136
1040
0.0
1040
40.02599999995994
1040
0.0
1071
        8
1005
6DC1
1005
6DC4
1005
6DC8
1005
6DC7
1005
6DC6
1005
6DC3
1005
6DC5
1005
6DC2
1070
     0
1070
     1
1040
0.0
1040
0.15
1070
     0
1070
     2
1040
0.7853981633974483
1040
49.29960901727088
1040
-10.17736998311392
1040
-0.3367596045400932
1040
0.3367596045400932
1070
     0
1040
2.356194490192345
1040
49.29960901727088
1040
-10.17736998311392
1040
-0.3367596045400932
1040
-0.3367596045400932
1070
     0
1040
0.0110235143455945
1071
        1
1040
39.74896370716704
1040
4.484843821435049
1040
0.0
1002
}
  0
INSERT
  5
6DE1
  8
0
  2
*X1954
 10
0.0
 20
0.0
 30
0.0
1001
ACAD
1000
HATCH
1002
{
1070
    19
1000
ANSI37
1040
0.15
1040
0.0
1000
ASC_BOUNDS
1070
     1
1070
     2
1070
     4
1005
6DA5
1005
6DB4
1005
6DA6
1005
6DA8
1000
ASC_SEEDPOINT
1011
1.079051535452663
1021
4.148538732891836
1031
0.0
1021
4.148538732891836
1031
0.0
1000
R14_HATCH_DATA
1000
6DE1
1011
1.0
1021
0.0
1031
0.0
1021
0.0
1031
0.0
1011
0.0
1021
1.0
1031
0.0
1021
1.0
1031
0.0
1011
0.0
1021
0.0
1031
1.0
1021
0.0
1031
1.0
1040
0.0
1010
0.0
1020
0.0
1030
1.0
1000
ANSI37
1070
     0
1070
     1
1071
        1
1071
        7
1070
     0
1070
     1
1071
        4
1040
1.420999999998571
1040
0.0
1040
1.420999999998571
1040
8.763099999991255
1040
0.0
1040
8.763099999991255
1040
0.0
1040
0.0
1071
        4
1005
6DA5
1005
6DB4
1005
6DA6
1005
6DA8
1070
     0
1070
     1
1040
0.0
1040
0.15
1070
     0
1070
     2
1040
0.7853981633974483
1040
49.29960901727088
1040
-10.17736998311392
1040
-0.3367596045400932
1040
0.3367596045400932
1070
     0
1040
2.356194490192345
1040
49.29960901727088
1040
-10.17736998311392
1040
-0.3367596045400932
1040
-0.3367596045400932
1070
     0
1040
0.0053004257112761
1071
        1
1040
1.079051535452663
1040
4.148538732891836
1040
0.0
1002
}
  0
ENDBLK
  5
FB1D
  8
0
  0
BLOCK
  8
0
  2
*X1949
 70
     1
 10
0.0
 20
0.0
 30
0.0
  3
*X1949
  1

  0
LINE
  5
1116A
  8
0
  6
CONTINUOUS
 10
3.418023043697893
 20
7.251849696850613
 30
0.0
 11
4.929273346838536
 21
8.763099999991255
 31
0.0
  0
LINE
  5
1116B
  8
0
  6
CONTINUOUS
 10
1.483656411257782
 20
4.643963855330318
 30
0.0
 11
5.60279255591872
 21
8.763099999991255
 31
0.0
  0
LINE
  5
1116C
  8
0
  6
CONTINUOUS
 10
1.755053947328235
 20
4.241842182320584
 30
0.0
 11
6.276311764998907
 21
8.763099999991255
 31
0.0
  0
LINE
  5
1116D
  8
0
  6
CONTINUOUS
 10
2.026451483398688
 20
3.839720509310849
 30
0.0
 11
4.441040904851878
 21
6.254309930764039
 31
0.0
  0
LINE
  5
1116E
  8
0
  6
CONTINUOUS
 10
2.297849019469139
 20
3.437598836301114
 30
0.0
 11
3.321765168359338
 21
4.461514985191313
 31
0.0
  0
LINE
  5
1116F
  8
0
  6
CONTINUOUS
 10
2.569246555539591
 20
3.03547716329138
 30
0.0
 11
3.593163397972743
 21
4.059394005724531
 31
0.0
  0
LINE
  5
11170
  8
0
  6
CONTINUOUS
 10
2.840644091610043
 20
2.633355490281646
 30
0.0
 11
3.864561627586149
 21
3.657273026257751
 31
0.0
  0
LINE
  5
11171
  8
0
  6
CONTINUOUS
 10
3.112041627680496
 20
2.231233817271911
 30
0.0
 11
4.135959857199554
 21
3.25515204679097
 31
0.0
  0
LINE
  5
11172
  8
0
  6
CONTINUOUS
 10
3.383439163750948
 20
1.829112144262177
 30
0.0
 11
4.40735808681296
 21
2.853031067324189
 31
0.0
  0
LINE
  5
11173
  8
0
  6
CONTINUOUS
 10
3.654836699821399
 20
1.426990471252442
 30
0.0
 11
4.678756316426365
 21
2.450910087857407
 31
0.0
  0
LINE
  5
11174
  8
0
  6
CONTINUOUS
 10
3.926234235891853
 20
1.024868798242709
 30
0.0
 11
4.95015454603977
 21
2.048789108390626
 31
0.0
  0
LINE
  5
11175
  8
0
  6
CONTINUOUS
 10
4.197631771962304
 20
0.6227471252329737
 30
0.0
 11
5.221552775653176
 21
1.646668128923846
 31
0.0
  0
LINE
  5
11176
  8
0
  6
CONTINUOUS
 10
8.715877546767851
 20
7.835069736359266
 30
0.0
 11
9.435953450375058
 21
8.555145639966472
 31
0.0
  0
LINE
  5
11177
  8
0
  6
CONTINUOUS
 10
8.170620868422267
 20
6.616293848933497
 30
0.0
 11
9.644120833743461
 21
8.08979381425469
 31
0.0
  0
LINE
  5
11178
  8
0
  6
CONTINUOUS
 10
7.625364190076684
 20
5.397517961507727
 30
0.0
 11
9.852288217111864
 21
7.624441988542907
 31
0.0
  0
LINE
  5
11179
  8
0
  6
CONTINUOUS
 10
7.080107511731101
 20
4.178742074081957
 30
0.0
 11
10.06045560048027
 21
7.159090162831124
 31
0.0
  0
LINE
  5
1117A
  8
0
  6
CONTINUOUS
 10
6.534850833385518
 20
2.959966186656187
 30
0.0
 11
10.26862298384867
 21
6.693738337119342
 31
0.0
  0
LINE
  5
1117B
  8
0
  6
CONTINUOUS
 10
4.469029308032756
 20
0.2206254522232385
 30
0.0
 11
5.492951005266582
 21
1.244547149457064
 31
0.0
  0
LINE
  5
1117C
  8
0
  6
CONTINUOUS
 10
5.989594155039935
 20
1.741190299230417
 30
0.0
 11
8.806950407233131
 21
4.558546551423613
 31
0.0
  0
LINE
  5
1117D
  8
0
  6
CONTINUOUS
 10
9.401251593263643
 20
5.152847737454126
 30
0.0
 11
10.47679036721708
 21
6.228386511407559
 31
0.0
  0
LINE
  5
1117E
  8
0
  6
CONTINUOUS
 10
4.921837203428691
 20
-0.0000858614610131
 30
0.0
 11
8.592923064886001
 21
3.670999999996297
 31
0.0
  0
LINE
  5
1117F
  8
0
  6
CONTINUOUS
 10
9.609390446785305
 20
4.6874673818956
 30
0.0
 11
10.68495775058548
 21
5.763034685695775
 31
0.0
  0
LINE
  5
11180
  8
0
  6
CONTINUOUS
 10
5.595387755019432
 20
-0.0000545189504582
 30
0.0
 11
7.716137258923768
 21
2.120694984953879
 31
0.0
  0
LINE
  5
11181
  8
0
  6
CONTINUOUS
 10
6.268938306610172
 20
-0.000023176439905
 30
0.0
 11
7.170485805526503
 21
0.9015243224764267
 31
0.0
  0
LINE
  5
11182
  8
0
  6
CONTINUOUS
 10
7.963842273967511
 20
2.368399999997621
 30
0.0
 11
9.266442273966188
 21
3.670999999996297
 31
0.0
  0
LINE
  5
11183
  8
0
  6
CONTINUOUS
 10
8.637361483047696
 20
2.368399999997621
 30
0.0
 11
9.939961483046375
 21
3.670999999996297
 31
0.0
  0
LINE
  5
11184
  8
0
  6
CONTINUOUS
 10
9.817529300306965
 20
4.222087026337075
 30
0.0
 11
10.89312513395388
 21
5.297682859983993
 31
0.0
  0
LINE
  5
11185
  8
0
  6
CONTINUOUS
 10
10.02566815382863
 20
3.756706670778549
 30
0.0
 11
11.10129251732229
 21
4.832331034272211
 31
0.0
  0
LINE
  5
11186
  8
0
  6
CONTINUOUS
 10
9.310880692127883
 20
2.368399999997621
 30
0.0
 11
11.30945990069069
 21
4.366979208560428
 31
0.0
  0
LINE
  5
11187
  8
0
  6
CONTINUOUS
 10
9.98439990120807
 20
2.36839999999762
 30
0.0
 11
11.5176272840591
 21
3.901627382848645
 31
0.0
  0
LINE
  5
11188
  8
0
  6
CONTINUOUS
 10
10.65037369446246
 20
2.36085458417182
 30
0.0
 11
11.7257946674275
 21
3.436275557136862
 31
0.0
  0
LINE
  5
11189
  8
0
  6
CONTINUOUS
 10
10.85847197087848
 20
1.895433651507656
 30
0.0
 11
11.9339620507959
 21
2.97092373142508
 31
0.0
  0
LINE
  5
1118A
  8
0
  6
CONTINUOUS
 10
11.0665702472945
 20
1.430012718843491
 30
0.0
 11
12.14212943416431
 21
2.505571905713296
 31
0.0
  0
LINE
  5
1118B
  8
0
  6
CONTINUOUS
 10
11.27466852371052
 20
0.9645917861793256
 30
0.0
 11
12.35029681753271
 21
2.040220080001513
 31
0.0
  0
LINE
  5
1118C
  8
0
  6
CONTINUOUS
 10
11.48276680012654
 20
0.4991708535151611
 30
0.0
 11
12.55846420090111
 21
1.57486825428973
 31
0.0
  0
LINE
  5
1118D
  8
0
  6
CONTINUOUS
 10
11.69086507654257
 20
0.0337499208509957
 30
0.0
 11
12.76663158426952
 21
1.109516428577947
 31
0.0
  0
LINE
  5
1118E
  8
0
  6
CONTINUOUS
 10
12.33057447873954
 20
-0.0000598860322123
 30
0.0
 11
12.97479896763792
 21
0.6441646028661663
 31
0.0
  0
LINE
  5
1118F
  8
0
  6
CONTINUOUS
 10
13.00413694809395
 20
-0.0000166257579952
 30
0.0
 11
13.18296635100632
 21
0.1788127771543824
 31
0.0
  0
LINE
  5
11190
  8
0
  6
CONTINUOUS
 10
4.772852165289667
 20
-0.000092794222212
 30
0.0
 11
4.296495091028902
 21
0.4762642800385528
 31
0.0
  0
LINE
  5
11191
  8
0
  6
CONTINUOUS
 10
5.446340034776103
 20
-0.0000614546284616
 30
0.0
 11
2.898195908335625
 21
2.548082671812017
 31
0.0
  0
LINE
  5
11192
  8
0
  6
CONTINUOUS
 10
6.119827904262539
 20
-0.0000301150347113
 30
0.0
 11
1.499896725642348
 21
4.61990106358548
 31
0.0
  0
LINE
  5
11193
  8
0
  6
CONTINUOUS
 10
6.775136745476159
 20
0.0181802528318542
 30
0.0
 11
5.699826040202669
 21
1.093490958105344
 31
0.0
  0
LINE
  5
11194
  8
0
  6
CONTINUOUS
 10
6.983376846288489
 20
0.4834593610997118
 30
0.0
 11
5.908008617934405
 21
1.558827589453796
 31
0.0
  0
LINE
  5
11195
  8
0
  6
CONTINUOUS
 10
5.377063484962296
 20
1.416253513345719
 30
0.0
 11
1.702276957014131
 21
5.091040041293883
 31
0.0
  0
LINE
  5
11196
  8
0
  6
CONTINUOUS
 10
3.978745891735324
 20
3.488090315652877
 30
0.0
 11
2.000373521109399
 21
5.466462686278803
 31
0.0
  0
LINE
  5
11197
  8
0
  6
CONTINUOUS
 10
7.191616947100819
 20
0.948738469367568
 30
0.0
 11
6.11619119566614
 21
2.024164220802247
 31
0.0
  0
LINE
  5
11198
  8
0
  6
CONTINUOUS
 10
7.399857047913149
 20
1.414017577635424
 30
0.0
 11
6.324373773397875
 21
2.489500852150698
 31
0.0
  0
LINE
  5
11199
  8
0
  6
CONTINUOUS
 10
7.608097148725479
 20
1.879296685903281
 30
0.0
 11
6.53255635112961
 21
2.95483748349915
 31
0.0
  0
LINE
  5
1119A
  8
0
  6
CONTINUOUS
 10
7.816337249537808
 20
2.344575794171138
 30
0.0
 11
6.740738928861345
 21
3.420174114847601
 31
0.0
  0
LINE
  5
1119B
  8
0
  6
CONTINUOUS
 10
3.310241080789734
 20
4.830114335678653
 30
0.0
 11
2.298470085204666
 21
5.84188533126372
 31
0.0
  0
LINE
  5
1119C
  8
0
  6
CONTINUOUS
 10
3.60832983563551
 20
5.205544789913063
 30
0.0
 11
2.596566649299935
 21
6.217307976248638
 31
0.0
  0
LINE
  5
1119D
  8
0
  6
CONTINUOUS
 10
3.906418590481286
 20
5.580975244147473
 30
0.0
 11
2.894663213395203
 21
6.592730621233557
 31
0.0
  0
LINE
  5
1119E
  8
0
  6
CONTINUOUS
 10
4.204507345327062
 20
5.956405698381884
 30
0.0
 11
3.192759777490472
 21
6.968153266218474
 31
0.0
  0
LINE
  5
1119F
  8
0
  6
CONTINUOUS
 10
8.466032252791512
 20
2.368399999997621
 30
0.0
 11
6.948921506593081
 21
3.885510746196053
 31
0.0
  0
LINE
  5
111A0
  8
0
  6
CONTINUOUS
 10
9.139551461871699
 20
2.36839999999762
 30
0.0
 11
7.157104084324816
 21
4.350847377544504
 31
0.0
  0
LINE
  5
111A1
  8
0
  6
CONTINUOUS
 10
4.502596100172839
 20
6.331836152616295
 30
0.0
 11
3.49085634158574
 21
7.343575911203393
 31
0.0
  0
LINE
  5
111A2
  8
0
  6
CONTINUOUS
 10
4.800684855018615
 20
6.707266606850705
 30
0.0
 11
3.788952905681008
 21
7.718998556188312
 31
0.0
  0
LINE
  5
111A3
  8
0
  6
CONTINUOUS
 10
12.18154012887317
 20
-0.0000694579236642
 30
0.0
 11
11.32140332908496
 21
0.8600673418645499
 31
0.0
  0
LINE
  5
111A4
  8
0
  6
CONTINUOUS
 10
12.85501608323566
 20
-0.0000262032059659
 30
0.0
 11
10.77672456435345
 21
2.078265315676246
 31
0.0
  0
LINE
  5
111A5
  8
0
  6
CONTINUOUS
 10
9.813070670951886
 20
2.36839999999762
 30
0.0
 11
8.51047067095321
 21
3.670999999996297
 31
0.0
  0
LINE
  5
111A6
  8
0
  6
CONTINUOUS
 10
10.48658988003207
 20
2.36839999999762
 30
0.0
 11
9.183989880033396
 21
3.670999999996297
 31
0.0
  0
LINE
  5
111A7
  8
0
  6
CONTINUOUS
 10
8.441048632286794
 20
3.740422038662712
 30
0.0
 11
7.365286662056551
 21
4.816184008892956
 31
0.0
  0
LINE
  5
111A8
  8
0
  6
CONTINUOUS
 10
8.649187485808454
 20
4.205802394221237
 30
0.0
 11
7.573469239788285
 21
5.281520640241407
 31
0.0
  0
LINE
  5
111A9
  8
0
  6
CONTINUOUS
 10
5.098773609864391
 20
7.082697061085115
 30
0.0
 11
4.087049469776277
 21
8.09442120117323
 31
0.0
  0
LINE
  5
111AA
  8
0
  6
CONTINUOUS
 10
5.396862364710167
 20
7.458127515319526
 30
0.0
 11
4.385146033871544
 21
8.469843846158149
 31
0.0
  0
LINE
  5
111AB
  8
0
  6
CONTINUOUS
 10
13.04801363231285
 20
0.4804954567970334
 30
0.0
 11
9.85750908911358
 21
3.670999999996297
 31
0.0
  0
LINE
  5
111AC
  8
0
  6
CONTINUOUS
 10
8.857326339330116
 20
4.671182749779763
 30
0.0
 11
7.781651817520021
 21
5.746857271589858
 31
0.0
  0
LINE
  5
111AD
  8
0
  6
CONTINUOUS
 10
5.694951119555943
 20
7.833557969553937
 30
0.0
 11
4.765409089118624
 21
8.763099999991255
 31
0.0
  0
LINE
  5
111AE
  8
0
  6
CONTINUOUS
 10
12.50286117236978
 20
1.699167125820288
 30
0.0
 11
9.68611877250287
 21
4.515909525687196
 31
0.0
  0
LINE
  5
111AF
  8
0
  6
CONTINUOUS
 10
9.065465192851777
 20
5.136563105338288
 30
0.0
 11
7.989834395251757
 21
6.21219390293831
 31
0.0
  0
LINE
  5
111B0
  8
0
  6
CONTINUOUS
 10
5.993039874401719
 20
8.208988423788346
 30
0.0
 11
5.43892829819881
 21
8.763099999991255
 31
0.0
  0
LINE
  5
111B1
  8
0
  6
CONTINUOUS
 10
11.95770871242671
 20
2.917838794843543
 30
0.0
 11
8.19801697298349
 21
6.677530534286761
 31
0.0
  0
LINE
  5
111B2
  8
0
  6
CONTINUOUS
 10
6.291128629247495
 20
8.584418878022756
 30
0.0
 11
6.112447507278997
 21
8.763099999991255
 31
0.0
  0
LINE
  5
111B3
  8
0
  6
CONTINUOUS
 10
11.41255625248364
 20
4.136510463866797
 30
0.0
 11
8.406199550715227
 21
7.142867165635211
 31
0.0
  0
LINE
  5
111B4
  8
0
  6
CONTINUOUS
 10
10.86740379254057
 20
5.355182132890051
 30
0.0
 11
8.614382128446962
 21
7.608203796983664
 31
0.0
  0
LINE
  5
111B5
  8
0
  6
CONTINUOUS
 10
10.3222513325975
 20
6.573853801913305
 30
0.0
 11
8.822564706178696
 21
8.073540428332114
 31
0.0
  0
LINE
  5
111B6
  8
0
  6
CONTINUOUS
 10
9.777098872654436
 20
7.792525470936562
 30
0.0
 11
9.030747283910433
 21
8.538877059680566
 31
0.0
  0
ENDBLK
  5
112F7
  8
0
  0
BLOCK
  8
0
  2
*X1950
 70
     1
 10
0.0
 20
0.0
 30
0.0
  3
*X1950
  1

  0
LINE
  5
111B8
  8
0
  6
CONTINUOUS
 10
10.67292308101235
 20
8.445076852443387
 30
0.0
 11
10.99094622856022
 21
8.763099999991255
 31
0.0
  0
LINE
  5
111B9
  8
0
  6
CONTINUOUS
 10
10.87250383178748
 20
7.971138394138331
 30
0.0
 11
11.6644654376404
 21
8.763099999991255
 31
0.0
  0
LINE
  5
111BA
  8
0
  6
CONTINUOUS
 10
11.07208458256261
 20
7.497199935833273
 30
0.0
 11
12.12126590876355
 21
8.546381262034211
 31
0.0
  0
LINE
  5
111BB
  8
0
  6
CONTINUOUS
 10
11.27166533333774
 20
7.023261477528216
 30
0.0
 11
12.32085164573666
 21
8.072447789927136
 31
0.0
  0
LINE
  5
111BC
  8
0
  6
CONTINUOUS
 10
11.47124608411287
 20
6.549323019223158
 30
0.0
 11
12.52043738270977
 21
7.59851431782006
 31
0.0
  0
LINE
  5
111BD
  8
0
  6
CONTINUOUS
 10
11.670826834888
 20
6.075384560918101
 30
0.0
 11
12.72002311968288
 21
7.124580845712984
 31
0.0
  0
LINE
  5
111BE
  8
0
  6
CONTINUOUS
 10
11.87040758566313
 20
5.601446102613043
 30
0.0
 11
12.91960885665599
 21
6.650647373605907
 31
0.0
  0
LINE
  5
111BF
  8
0
  6
CONTINUOUS
 10
12.06998833643825
 20
5.127507644307986
 30
0.0
 11
13.1191945936291
 21
6.176713901498832
 31
0.0
  0
LINE
  5
111C0
  8
0
  6
CONTINUOUS
 10
12.26956908721338
 20
4.65356918600293
 30
0.0
 11
13.31878033060221
 21
5.702780429391757
 31
0.0
  0
LINE
  5
111C1
  8
0
  6
CONTINUOUS
 10
12.46914983798851
 20
4.179630727697873
 30
0.0
 11
13.51836606757532
 21
5.228846957284683
 31
0.0
  0
LINE
  5
111C2
  8
0
  6
CONTINUOUS
 10
12.66873058876364
 20
3.705692269392816
 30
0.0
 11
13.71795180454843
 21
4.754913485177607
 31
0.0
  0
LINE
  5
111C3
  8
0
  6
CONTINUOUS
 10
12.86831133953877
 20
3.231753811087759
 30
0.0
 11
13.91753754152154
 21
4.280980013070531
 31
0.0
  0
LINE
  5
111C4
  8
0
  6
CONTINUOUS
 10
13.0678920903139
 20
2.757815352782702
 30
0.0
 11
14.11712327849465
 21
3.807046540963456
 31
0.0
  0
LINE
  5
111C5
  8
0
  6
CONTINUOUS
 10
13.26747284108903
 20
2.283876894477644
 30
0.0
 11
14.31670901546777
 21
3.333113068856379
 31
0.0
  0
LINE
  5
111C6
  8
0
  6
CONTINUOUS
 10
16.36767838827179
 20
8.751678487061342
 30
0.0
 11
16.50332410898388
 21
8.887324207773432
 31
0.0
  0
LINE
  5
111C7
  8
0
  6
CONTINUOUS
 10
15.96190732182191
 20
7.67238821153127
 30
0.0
 11
16.68735328004734
 21
8.397834169756699
 31
0.0
  0
LINE
  5
111C8
  8
0
  6
CONTINUOUS
 10
15.55613625537202
 20
6.593097936001196
 30
0.0
 11
16.87138245111079
 21
7.908344131739965
 31
0.0
  0
LINE
  5
111C9
  8
0
  6
CONTINUOUS
 10
15.15036518892213
 20
5.513807660471122
 30
0.0
 11
17.05541162217424
 21
7.418854093723231
 31
0.0
  0
LINE
  5
111CA
  8
0
  6
CONTINUOUS
 10
14.74459412247225
 20
4.434517384941048
 30
0.0
 11
17.2394407932377
 21
6.929364055706499
 31
0.0
  0
LINE
  5
111CB
  8
0
  6
CONTINUOUS
 10
14.33882305602236
 20
3.355227109410975
 30
0.0
 11
17.42346996430115
 21
6.439874017689766
 31
0.0
  0
LINE
  5
111CC
  8
0
  6
CONTINUOUS
 10
13.46705359186416
 20
1.809938436172586
 30
0.0
 11
16.0819338255367
 21
4.424818669845129
 31
0.0
  0
LINE
  5
111CD
  8
0
  6
CONTINUOUS
 10
16.63283254238972
 20
4.975717386698149
 30
0.0
 11
17.60749913536461
 21
5.950383979673033
 31
0.0
  0
LINE
  5
111CE
  8
0
  6
CONTINUOUS
 10
13.66663434263929
 20
1.335999977867529
 30
0.0
 11
15.67604797733754
 21
3.345413612565779
 31
0.0
  0
LINE
  5
111CF
  8
0
  6
CONTINUOUS
 10
13.86621509341442
 20
0.8620615195624723
 30
0.0
 11
15.27016212913838
 21
2.26600855528643
 31
0.0
  0
LINE
  5
111D0
  8
0
  6
CONTINUOUS
 10
16.81682257348267
 20
4.486188208710908
 30
0.0
 11
17.79152830642806
 21
5.460893941656299
 31
0.0
  0
LINE
  5
111D1
  8
0
  6
CONTINUOUS
 10
17.00081260457561
 20
3.996659030723667
 30
0.0
 11
17.97555747749151
 21
4.971403903639565
 31
0.0
  0
LINE
  5
111D2
  8
0
  6
CONTINUOUS
 10
20.74362343514722
 20
8.412989070375462
 30
0.0
 11
21.09373436476302
 21
8.763099999991256
 31
0.0
  0
LINE
  5
111D3
  8
0
  6
CONTINUOUS
 10
20.25401257174777
 20
7.249858997895826
 30
0.0
 11
21.7672535738432
 21
8.763099999991255
 31
0.0
  0
LINE
  5
111D4
  8
0
  6
CONTINUOUS
 10
14.06579584418955
 20
0.3881230612574149
 30
0.0
 11
14.86427628093921
 21
1.186603498007082
 31
0.0
  0
LINE
  5
111D5
  8
0
  6
CONTINUOUS
 10
14.26537659496467
 20
-0.0858153970476412
 30
0.0
 11
14.45839043274005
 21
0.1071984407277329
 31
0.0
  0
LINE
  5
111D6
  8
0
  6
CONTINUOUS
 10
17.18480263566856
 20
3.507129852736426
 30
0.0
 11
18.15958664855496
 21
4.481913865622833
 31
0.0
  0
LINE
  5
111D7
  8
0
  6
CONTINUOUS
 10
17.3687926667615
 20
3.017600674749186
 30
0.0
 11
18.34361581961842
 21
3.9924238276061
 31
0.0
  0
LINE
  5
111D8
  8
0
  6
CONTINUOUS
 10
19.76440170834832
 20
6.086728925416191
 30
0.0
 11
22.33924590259489
 21
8.661573119662755
 31
0.0
  0
LINE
  5
111D9
  8
0
  6
CONTINUOUS
 10
19.27479084494887
 20
4.923598852936555
 30
0.0
 11
21.84929622842713
 21
7.498104236414807
 31
0.0
  0
LINE
  5
111DA
  8
0
  6
CONTINUOUS
 10
17.55278269785445
 20
2.528071496761945
 30
0.0
 11
18.52764499068187
 21
3.502933789589366
 31
0.0
  0
LINE
  5
111DB
  8
0
  6
CONTINUOUS
 10
18.78517998154942
 20
3.760468780456919
 30
0.0
 11
21.35934655425936
 21
6.33463535316686
 31
0.0
  0
LINE
  5
111DC
  8
0
  6
CONTINUOUS
 10
17.73677272894739
 20
2.038542318774704
 30
0.0
 11
20.8693968800916
 21
5.171166469918914
 31
0.0
  0
LINE
  5
111DD
  8
0
  6
CONTINUOUS
 10
17.92076276004034
 20
1.549013140787464
 30
0.0
 11
20.37944720592384
 21
4.007697586670968
 31
0.0
  0
LINE
  5
111DE
  8
0
  6
CONTINUOUS
 10
18.10475279113329
 20
1.059483962800223
 30
0.0
 11
19.88949753175608
 21
2.84422870342302
 31
0.0
  0
LINE
  5
111DF
  8
0
  6
CONTINUOUS
 10
18.28874282222623
 20
0.5699547848129822
 30
0.0
 11
19.39954785758832
 21
1.680759820175074
 31
0.0
  0
LINE
  5
111E0
  8
0
  6
CONTINUOUS
 10
18.47273285331918
 20
0.0804256068257416
 30
0.0
 11
18.90959818342056
 21
0.517290936927127
 31
0.0
  0
LINE
  5
111E1
  8
0
  6
CONTINUOUS
 10
14.3590401358224
 20
-0.1570118376323384
 30
0.0
 11
14.24903296539946
 21
-0.0470046672093929
 31
0.0
  0
LINE
  5
111E2
  8
0
  6
CONTINUOUS
 10
14.54309291258661
 20
0.332454594683643
 30
0.0
 11
13.75908329123172
 21
1.116464216038529
 31
0.0
  0
LINE
  5
111E3
  8
0
  6
CONTINUOUS
 10
14.72714568935081
 20
0.8219210269996244
 30
0.0
 11
13.26913361706399
 21
2.27993309928645
 31
0.0
  0
LINE
  5
111E4
  8
0
  6
CONTINUOUS
 10
14.91119846611502
 20
1.311387459315606
 30
0.0
 11
12.77918394289625
 21
3.443401982534371
 31
0.0
  0
LINE
  5
111E5
  8
0
  6
CONTINUOUS
 10
15.09525124287922
 20
1.800853891631587
 30
0.0
 11
12.28923426872852
 21
4.606870865782293
 31
0.0
  0
LINE
  5
111E6
  8
0
  6
CONTINUOUS
 10
15.27930401964343
 20
2.290320323947569
 30
0.0
 11
11.79928459456078
 21
5.770339749030213
 31
0.0
  0
LINE
  5
111E7
  8
0
  6
CONTINUOUS
 10
15.46335679640763
 20
2.77978675626355
 30
0.0
 11
14.48885470994921
 21
3.754288842721972
 31
0.0
  0
LINE
  5
111E8
  8
0
  6
CONTINUOUS
 10
13.88507249233704
 20
4.358071060334137
 30
0.0
 11
11.30933492039305
 21
6.933808632278135
 31
0.0
  0
LINE
  5
111E9
  8
0
  6
CONTINUOUS
 10
18.75840522805855
 20
0.1582575336928151
 30
0.0
 11
18.25383727664818
 21
0.6628254851031863
 31
0.0
  0
LINE
  5
111EA
  8
0
  6
CONTINUOUS
 10
15.64740957317184
 20
3.269253188579531
 30
0.0
 11
14.67288388101266
 21
4.243778880738705
 31
0.0
  0
LINE
  5
111EB
  8
0
  6
CONTINUOUS
 10
13.39509276772158
 20
5.521569994029786
 30
0.0
 11
10.81938524622531
 21
8.097277515526056
 31
0.0
  0
LINE
  5
111EC
  8
0
  6
CONTINUOUS
 10
18.95798597883369
 20
0.6321959919978686
 30
0.0
 11
17.84825644852853
 21
1.741925522303024
 31
0.0
  0
LINE
  5
111ED
  8
0
  6
CONTINUOUS
 10
19.15756672960882
 20
1.106134450302922
 30
0.0
 11
17.44267562040888
 21
2.821025559502861
 31
0.0
  0
LINE
  5
111EE
  8
0
  6
CONTINUOUS
 10
15.83146234993604
 20
3.758719620895513
 30
0.0
 11
14.85691305207612
 21
4.733268918755439
 31
0.0
  0
LINE
  5
111EF
  8
0
  6
CONTINUOUS
 10
16.01551512670025
 20
4.248186053211494
 30
0.0
 11
15.04094222313957
 21
5.222758956772172
 31
0.0
  0
LINE
  5
111F0
  8
0
  6
CONTINUOUS
 10
12.90511304310612
 20
6.685068927725435
 30
0.0
 11
10.8270819708403
 21
8.763099999991255
 31
0.0
  0
LINE
  5
111F1
  8
0
  6
CONTINUOUS
 10
12.41513331849066
 20
7.848567861421083
 30
0.0
 11
11.50060117992049
 21
8.763099999991255
 31
0.0
  0
LINE
  5
111F2
  8
0
  6
CONTINUOUS
 10
19.35714748038395
 20
1.580072908607975
 30
0.0
 11
17.03709479228923
 21
3.900125596702697
 31
0.0
  0
LINE
  5
111F3
  8
0
  6
CONTINUOUS
 10
19.55672823115909
 20
2.054011366913028
 30
0.0
 11
16.63151396416958
 21
4.979225633902534
 31
0.0
  0
LINE
  5
111F4
  8
0
  6
CONTINUOUS
 10
16.19956790346445
 20
4.737652485527476
 30
0.0
 11
15.22497139420302
 21
5.712248994788904
 31
0.0
  0
LINE
  5
111F5
  8
0
  6
CONTINUOUS
 10
16.38362068022866
 20
5.227118917843457
 30
0.0
 11
15.40900056526648
 21
6.201739032805637
 31
0.0
  0
LINE
  5
111F6
  8
0
  6
CONTINUOUS
 10
19.75630898193422
 20
2.527949825218081
 30
0.0
 11
18.70774536448286
 21
3.576513442669441
 31
0.0
  0
LINE
  5
111F7
  8
0
  6
CONTINUOUS
 10
19.95588973270936
 20
3.001888283523134
 30
0.0
 11
18.90726987211446
 21
4.050508144118028
 31
0.0
  0
LINE
  5
111F8
  8
0
  6
CONTINUOUS
 10
20.15547048348449
 20
3.475826741828186
 30
0.0
 11
19.10679437974606
 21
4.524502845566614
 31
0.0
  0
LINE
  5
111F9
  8
0
  6
CONTINUOUS
 10
20.35505123425962
 20
3.94976520013324
 30
0.0
 11
19.30631888737766
 21
4.998497547015201
 31
0.0
  0
LINE
  5
111FA
  8
0
  6
CONTINUOUS
 10
20.55463198503475
 20
4.423703658438292
 30
0.0
 11
19.50584339500926
 21
5.472492248463787
 31
0.0
  0
LINE
  5
111FB
  8
0
  6
CONTINUOUS
 10
18.37481191085755
 20
3.909446896294752
 30
0.0
 11
15.59302973632993
 21
6.691229070822371
 31
0.0
  0
LINE
  5
111FC
  8
0
  6
CONTINUOUS
 10
17.96904084440766
 20
4.988737171824825
 30
0.0
 11
15.77705890739338
 21
7.180719108839104
 31
0.0
  0
LINE
  5
111FD
  8
0
  6
CONTINUOUS
 10
17.56326977795777
 20
6.068027447354899
 30
0.0
 11
15.96108807845684
 21
7.670209146855838
 31
0.0
  0
LINE
  5
111FE
  8
0
  6
CONTINUOUS
 10
17.15749871150789
 20
7.147317722884972
 30
0.0
 11
16.14511724952029
 21
8.15969918487257
 31
0.0
  0
LINE
  5
111FF
  8
0
  6
CONTINUOUS
 10
16.751727645058
 20
8.226607998415046
 30
0.0
 11
16.32914642058374
 21
8.649189222889303
 31
0.0
  0
LINE
  5
11200
  8
0
  6
CONTINUOUS
 10
20.75421273580989
 20
4.897642116743345
 30
0.0
 11
19.70536790264086
 21
5.946486949912374
 31
0.0
  0
LINE
  5
11201
  8
0
  6
CONTINUOUS
 10
20.95379348658502
 20
5.371580575048398
 30
0.0
 11
19.90489241027246
 21
6.42048165136096
 31
0.0
  0
LINE
  5
11202
  8
0
  6
CONTINUOUS
 10
21.15337423736015
 20
5.845519033353452
 30
0.0
 11
20.10441691790406
 21
6.894476352809547
 31
0.0
  0
LINE
  5
11203
  8
0
  6
CONTINUOUS
 10
21.35295498813529
 20
6.319457491658505
 30
0.0
 11
20.30394142553566
 21
7.368471054258134
 31
0.0
  0
LINE
  5
11204
  8
0
  6
CONTINUOUS
 10
21.55253573891042
 20
6.793395949963558
 30
0.0
 11
20.50346593316726
 21
7.842465755706721
 31
0.0
  0
LINE
  5
11205
  8
0
  6
CONTINUOUS
 10
21.75211648968556
 20
7.267334408268612
 30
0.0
 11
20.70299044079886
 21
8.316460457155308
 31
0.0
  0
LINE
  5
11206
  8
0
  6
CONTINUOUS
 10
21.95169724046069
 20
7.741272866573663
 30
0.0
 11
20.9298701070431
 21
8.763099999991256
 31
0.0
  0
LINE
  5
11207
  8
0
  6
CONTINUOUS
 10
22.15127799123582
 20
8.215211324878716
 30
0.0
 11
21.60338931612328
 21
8.763099999991256
 31
0.0
  0
LINE
  5
11208
  8
0
  6
CONTINUOUS
 10
22.35085874201096
 20
8.689149783183769
 30
0.0
 11
22.27690852520347
 21
8.763099999991255
 31
0.0
  0
ENDBLK
  5
112F9
  8
0
  0
BLOCK
  8
0
  2
*X1951
 70
     1
 10
0.0
 20
0.0
 30
0.0
  3
*X1951
  1

  0
LINE
  5
1120A
  8
0
  6
CONTINUOUS
 10
23.19462913593892
 20
8.169917934846424
 30
0.0
 11
23.70775465517246
 21
8.683043454079957
 31
0.0
  0
LINE
  5
1120B
  8
0
  6
CONTINUOUS
 10
22.64923161835078
 20
6.951001208178088
 30
0.0
 11
23.9159364069932
 21
8.217705996820516
 31
0.0
  0
LINE
  5
1120C
  8
0
  6
CONTINUOUS
 10
22.10383410076263
 20
5.732084481509751
 30
0.0
 11
24.12411815881395
 21
7.752368539561078
 31
0.0
  0
LINE
  5
1120D
  8
0
  6
CONTINUOUS
 10
21.55843658317447
 20
4.513167754841414
 30
0.0
 11
24.3322999106347
 21
7.287031082301639
 31
0.0
  0
LINE
  5
1120E
  8
0
  6
CONTINUOUS
 10
21.01303906558632
 20
3.294251028173077
 30
0.0
 11
24.54048166245544
 21
6.821693625042199
 31
0.0
  0
LINE
  5
1120F
  8
0
  6
CONTINUOUS
 10
20.46764154799817
 20
2.075334301504738
 30
0.0
 11
23.28571549467848
 21
4.89340824818505
 31
0.0
  0
LINE
  5
11210
  8
0
  6
CONTINUOUS
 10
19.92224403041002
 20
0.8564175748364002
 30
0.0
 11
22.74075865492779
 21
3.674932199354171
 31
0.0
  0
LINE
  5
11211
  8
0
  6
CONTINUOUS
 10
23.67305085490148
 20
5.280743608408048
 30
0.0
 11
24.74866341427619
 21
6.356356167782759
 31
0.0
  0
LINE
  5
11212
  8
0
  6
CONTINUOUS
 10
23.88118970842314
 20
4.815363252849522
 30
0.0
 11
24.95684516609694
 21
5.89101871052332
 31
0.0
  0
LINE
  5
11213
  8
0
  6
CONTINUOUS
 10
19.73925852647308
 20
-0.0000871381807288
 30
0.0
 11
23.4103456646501
 21
3.670999999996297
 31
0.0
  0
LINE
  5
11214
  8
0
  6
CONTINUOUS
 10
24.0893285619448
 20
4.349982897290997
 30
0.0
 11
25.16502691791769
 21
5.42568125326388
 31
0.0
  0
LINE
  5
11215
  8
0
  6
CONTINUOUS
 10
20.41282099582748
 20
-0.0000438779065108
 30
0.0
 11
21.64944178675636
 21
1.236576913022366
 31
0.0
  0
LINE
  5
11216
  8
0
  6
CONTINUOUS
 10
22.78126487373161
 20
2.36839999999762
 30
0.0
 11
24.08386487373029
 21
3.670999999996297
 31
0.0
  0
LINE
  5
11217
  8
0
  6
CONTINUOUS
 10
24.29746741546646
 20
3.884602541732471
 30
0.0
 11
25.37320866973843
 21
4.960343796004441
 31
0.0
  0
LINE
  5
11218
  8
0
  6
CONTINUOUS
 10
21.08638346518189
 20
-0.0000006176322938
 30
0.0
 11
21.10379033335899
 21
0.0174062505448083
 31
0.0
  0
LINE
  5
11219
  8
0
  6
CONTINUOUS
 10
23.4547840828118
 20
2.36839999999762
 30
0.0
 11
25.58139042155918
 21
4.495006338745002
 31
0.0
  0
LINE
  5
1121A
  8
0
  6
CONTINUOUS
 10
29.30199999996933
 20
8.215615917155148
 30
0.0
 11
29.84948408280543
 21
8.763099999991255
 31
0.0
  0
LINE
  5
1121B
  8
0
  6
CONTINUOUS
 10
24.12830329189199
 20
2.36839999999762
 30
0.0
 11
25.78957217337993
 21
4.029668881485562
 31
0.0
  0
LINE
  5
1121C
  8
0
  6
CONTINUOUS
 10
29.30199999996933
 20
7.54209670807496
 30
0.0
 11
30.52300329188562
 21
8.763099999991255
 31
0.0
  0
LINE
  5
1121D
  8
0
  6
CONTINUOUS
 10
24.80182250097217
 20
2.36839999999762
 30
0.0
 11
25.99775392520067
 21
3.564331424226122
 31
0.0
  0
LINE
  5
1121E
  8
0
  6
CONTINUOUS
 10
29.30199999996933
 20
6.868577498994774
 30
0.0
 11
30.74199999996926
 21
8.308577498994712
 31
0.0
  0
LINE
  5
1121F
  8
0
  6
CONTINUOUS
 10
25.13028238392013
 20
2.023340673865392
 30
0.0
 11
26.20593567702142
 21
3.098993966966683
 31
0.0
  0
LINE
  5
11220
  8
0
  6
CONTINUOUS
 10
25.33838066033617
 20
1.557919741201244
 30
0.0
 11
26.41411742884217
 21
2.633656509707244
 31
0.0
  0
LINE
  5
11221
  8
0
  6
CONTINUOUS
 10
25.54647893675221
 20
1.092498808537098
 30
0.0
 11
26.62229918066291
 21
2.168319052447804
 31
0.0
  0
LINE
  5
11222
  8
0
  6
CONTINUOUS
 10
25.75457721316825
 20
0.62707787587295
 30
0.0
 11
26.83048093248366
 21
1.702981595188365
 31
0.0
  0
LINE
  5
11223
  8
0
  6
CONTINUOUS
 10
29.30199999996933
 20
6.195058289914587
 30
0.0
 11
30.74199999996926
 21
7.635058289914522
 31
0.0
  0
LINE
  5
11224
  8
0
  6
CONTINUOUS
 10
29.30199999996933
 20
5.521539080834401
 30
0.0
 11
30.74199999996926
 21
6.961539080834331
 31
0.0
  0
LINE
  5
11225
  8
0
  6
CONTINUOUS
 10
29.30199999996933
 20
4.848019871754214
 30
0.0
 11
30.74199999996925
 21
6.288019871754143
 31
0.0
  0
LINE
  5
11226
  8
0
  6
CONTINUOUS
 10
29.30199999996933
 20
4.174500662674028
 30
0.0
 11
30.74199999996925
 21
5.614500662673953
 31
0.0
  0
LINE
  5
11227
  8
0
  6
CONTINUOUS
 10
25.96267548958429
 20
0.1616569432088024
 30
0.0
 11
27.18411854636669
 21
1.383099999991207
 31
0.0
  0
LINE
  5
11228
  8
0
  6
CONTINUOUS
 10
29.30199999996933
 20
3.500981453593841
 30
0.0
 11
30.74199999996925
 21
4.940981453593762
 31
0.0
  0
LINE
  5
11229
  8
0
  6
CONTINUOUS
 10
26.50763775544691
 20
0.0330999999912356
 30
0.0
 11
27.85763775544689
 21
1.383099999991223
 31
0.0
  0
LINE
  5
1122A
  8
0
  6
CONTINUOUS
 10
29.30199999996933
 20
2.827462244513656
 30
0.0
 11
30.74199999996925
 21
4.267462244513574
 31
0.0
  0
LINE
  5
1122B
  8
0
  6
CONTINUOUS
 10
27.18115696452709
 20
0.0330999999912356
 30
0.0
 11
28.6224847300034
 21
1.474427765467545
 31
0.0
  0
LINE
  5
1122C
  8
0
  6
CONTINUOUS
 10
29.21067223449293
 20
2.062615269957069
 30
0.0
 11
30.74199999996924
 21
3.593943035433383
 31
0.0
  0
LINE
  5
1122D
  8
0
  6
CONTINUOUS
 10
27.85467617360728
 20
0.0330999999912356
 30
0.0
 11
30.74199999996924
 21
2.920423826353195
 31
0.0
  0
LINE
  5
1122E
  8
0
  6
CONTINUOUS
 10
28.61742899356196
 20
0.1223336108657271
 30
0.0
 11
30.65276638909473
 21
2.157671006398498
 31
0.0
  0
LINE
  5
1122F
  8
0
  6
CONTINUOUS
 10
29.76719820264213
 20
0.5985836108657137
 30
0.0
 11
30.17651638909472
 21
1.0079017973183
 31
0.0
  0
LINE
  5
11230
  8
0
  6
CONTINUOUS
 10
19.59027867740337
 20
-0.0000967065718083
 30
0.0
 11
19.55485265190471
 21
0.035329318926844
 31
0.0
  0
LINE
  5
11231
  8
0
  6
CONTINUOUS
 10
20.26375463176586
 20
-0.0000534518541091
 30
0.0
 11
19.76305575737534
 21
0.5006454225364014
 31
0.0
  0
LINE
  5
11232
  8
0
  6
CONTINUOUS
 10
20.93723058612834
 20
-0.0000101971364099
 30
0.0
 11
19.97125886284597
 21
0.965961526145958
 31
0.0
  0
LINE
  5
11233
  8
0
  6
CONTINUOUS
 10
21.25514828313686
 20
0.355591314935257
 30
0.0
 11
20.1794619683166
 21
1.431277629755512
 31
0.0
  0
LINE
  5
11234
  8
0
  6
CONTINUOUS
 10
21.46338838394921
 20
0.8208704232030986
 30
0.0
 11
20.38766507378723
 21
1.896593733365069
 31
0.0
  0
LINE
  5
11235
  8
0
  6
CONTINUOUS
 10
21.67162848476155
 20
1.28614953147094
 30
0.0
 11
20.59586817925786
 21
2.361909836974626
 31
0.0
  0
LINE
  5
11236
  8
0
  6
CONTINUOUS
 10
21.8798685855739
 20
1.751428639738782
 30
0.0
 11
20.80407128472849
 21
2.827225940584183
 31
0.0
  0
LINE
  5
11237
  8
0
  6
CONTINUOUS
 10
22.08810868638624
 20
2.216707748006623
 30
0.0
 11
21.01227439019912
 21
3.292542044193739
 31
0.0
  0
LINE
  5
11238
  8
0
  6
CONTINUOUS
 10
22.60993564347543
 20
2.36839999999762
 30
0.0
 11
21.22047749566975
 21
3.757858147803296
 31
0.0
  0
LINE
  5
11239
  8
0
  6
CONTINUOUS
 10
23.28345485255561
 20
2.36839999999762
 30
0.0
 11
21.42868060114038
 21
4.223174251412853
 31
0.0
  0
LINE
  5
1123A
  8
0
  6
CONTINUOUS
 10
26.29227406164219
 20
0.0330999999912356
 30
0.0
 11
25.80009199592872
 21
0.5252820657046957
 31
0.0
  0
LINE
  5
1123B
  8
0
  6
CONTINUOUS
 10
23.9569740616358
 20
2.36839999999762
 30
0.0
 11
21.63688370661101
 21
4.688490355022409
 31
0.0
  0
LINE
  5
1123C
  8
0
  6
CONTINUOUS
 10
26.96579327072237
 20
0.0330999999912356
 30
0.0
 11
25.2554132311971
 21
1.743480039516508
 31
0.0
  0
LINE
  5
1123D
  8
0
  6
CONTINUOUS
 10
24.63049327071599
 20
2.36839999999762
 30
0.0
 11
23.32789327071731
 21
3.670999999996297
 31
0.0
  0
LINE
  5
1123E
  8
0
  6
CONTINUOUS
 10
22.92098674744635
 20
4.077906523267254
 30
0.0
 11
21.84508681208164
 21
5.153806458631966
 31
0.0
  0
LINE
  5
1123F
  8
0
  6
CONTINUOUS
 10
27.63931247980256
 20
0.0330999999912356
 30
0.0
 11
24.0014124797975
 21
3.670999999996297
 31
0.0
  0
LINE
  5
11240
  8
0
  6
CONTINUOUS
 10
23.129125600968
 20
4.5432868788258
 30
0.0
 11
22.05328991755227
 21
5.619122562241522
 31
0.0
  0
LINE
  5
11241
  8
0
  6
CONTINUOUS
 10
28.31283168888275
 20
0.0330999999912356
 30
0.0
 11
24.16488385994816
 21
4.181047828925828
 31
0.0
  0
LINE
  5
11242
  8
0
  6
CONTINUOUS
 10
23.33726445448964
 20
5.008667234384345
 30
0.0
 11
22.2614930230229
 21
6.084438665851079
 31
0.0
  0
LINE
  5
11243
  8
0
  6
CONTINUOUS
 10
28.81519848253303
 20
0.2042524154211396
 30
0.0
 11
27.63635089796295
 21
1.383099999991217
 31
0.0
  0
LINE
  5
11244
  8
0
  6
CONTINUOUS
 10
26.43704649509776
 20
2.582404402856405
 30
0.0
 11
23.61992702019732
 21
5.399523877756844
 31
0.0
  0
LINE
  5
11245
  8
0
  6
CONTINUOUS
 10
23.54540330801128
 20
5.47404758994289
 30
0.0
 11
22.46969612849353
 21
6.549754769460635
 31
0.0
  0
LINE
  5
11246
  8
0
  6
CONTINUOUS
 10
29.29144848253303
 20
0.4015216245013242
 30
0.0
 11
28.30987010704312
 21
1.383099999991234
 31
0.0
  0
LINE
  5
11247
  8
0
  6
CONTINUOUS
 10
25.89179548232307
 20
3.801174624711282
 30
0.0
 11
22.67789923396416
 21
7.015070873070191
 31
0.0
  0
LINE
  5
11248
  8
0
  6
CONTINUOUS
 10
29.76769848253303
 20
0.5987908335815084
 30
0.0
 11
28.81310432793121
 21
1.553384988183336
 31
0.0
  0
LINE
  5
11249
  8
0
  6
CONTINUOUS
 10
25.34654446954838
 20
5.01994484656616
 30
0.0
 11
22.88610233943479
 21
7.480386976679748
 31
0.0
  0
LINE
  5
1124A
  8
0
  6
CONTINUOUS
 10
30.13421977859274
 20
0.9057887466019845
 30
0.0
 11
29.14234640337737
 21
1.897662121817355
 31
0.0
  0
LINE
  5
1124B
  8
0
  6
CONTINUOUS
 10
24.80129345677369
 20
6.238715068421037
 30
0.0
 11
23.09430544490542
 21
7.945703080289305
 31
0.0
  0
LINE
  5
1124C
  8
0
  6
CONTINUOUS
 10
30.33148898767293
 20
1.382038746601982
 30
0.0
 11
29.30199999996933
 21
2.411527734305588
 31
0.0
  0
LINE
  5
1124D
  8
0
  6
CONTINUOUS
 10
30.52875819675312
 20
1.85828874660198
 30
0.0
 11
29.30199999996933
 21
3.085046943385775
 31
0.0
  0
LINE
  5
1124E
  8
0
  6
CONTINUOUS
 10
24.256042443999
 20
7.457485290275915
 30
0.0
 11
23.30250855037605
 21
8.411019183898862
 31
0.0
  0
LINE
  5
1124F
  8
0
  6
CONTINUOUS
 10
23.71079143122431
 20
8.676255512130794
 30
0.0
 11
23.51071165584668
 21
8.876335287508418
 31
0.0
  0
LINE
  5
11250
  8
0
  6
CONTINUOUS
 10
30.72602740583331
 20
2.334538746601978
 30
0.0
 11
29.30199999996933
 21
3.758566152465961
 31
0.0
  0
LINE
  5
11251
  8
0
  6
CONTINUOUS
 10
30.74199999996924
 20
2.992085361546236
 30
0.0
 11
29.30199999996933
 21
4.432085361546148
 31
0.0
  0
LINE
  5
11252
  8
0
  6
CONTINUOUS
 10
30.74199999996924
 20
3.665604570626419
 30
0.0
 11
29.30199999996933
 21
5.105604570626333
 31
0.0
  0
LINE
  5
11253
  8
0
  6
CONTINUOUS
 10
30.74199999996925
 20
4.339123779706602
 30
0.0
 11
29.30199999996933
 21
5.77912377970652
 31
0.0
  0
LINE
  5
11254
  8
0
  6
CONTINUOUS
 10
30.74199999996925
 20
5.012642988786785
 30
0.0
 11
29.30199999996933
 21
6.452642988786707
 31
0.0
  0
LINE
  5
11255
  8
0
  6
CONTINUOUS
 10
30.74199999996925
 20
5.68616219786697
 30
0.0
 11
29.30199999996933
 21
7.126162197866894
 31
0.0
  0
LINE
  5
11256
  8
0
  6
CONTINUOUS
 10
30.74199999996925
 20
6.359681406947153
 30
0.0
 11
29.30199999996933
 21
7.799681406947081
 31
0.0
  0
LINE
  5
11257
  8
0
  6
CONTINUOUS
 10
30.74199999996926
 20
7.033200616027337
 30
0.0
 11
29.30199999996933
 21
8.473200616027269
 31
0.0
  0
LINE
  5
11258
  8
0
  6
CONTINUOUS
 10
30.74199999996926
 20
7.706719825107518
 30
0.0
 11
29.68561982508552
 21
8.763099999991255
 31
0.0
  0
LINE
  5
11259
  8
0
  6
CONTINUOUS
 10
30.74199999996926
 20
8.380239034187703
 30
0.0
 11
30.35913903416571
 21
8.763099999991255
 31
0.0
  0
ENDBLK
  5
112FB
  8
0
  0
BLOCK
  8
0
  2
*X1952
 70
     1
 10
0.0
 20
0.0
 30
0.0
  3
*X1952
  1

  0
LINE
  5
1125B
  8
0
  6
CONTINUOUS
 10
31.64199999996833
 20
8.535058289913598
 30
0.0
 11
31.87004171004599
 21
8.763099999991255
 31
0.0
  0
LINE
  5
1125C
  8
0
  6
CONTINUOUS
 10
31.64199999996833
 20
7.861539080833412
 30
0.0
 11
32.54356091912618
 21
8.763099999991255
 31
0.0
  0
LINE
  5
1125D
  8
0
  6
CONTINUOUS
 10
31.64199999996833
 20
7.188019871753226
 30
0.0
 11
33.08199999996839
 21
8.628019871753281
 31
0.0
  0
LINE
  5
1125E
  8
0
  6
CONTINUOUS
 10
31.64199999996833
 20
6.51450066267304
 30
0.0
 11
33.08199999996839
 21
7.954500662673095
 31
0.0
  0
LINE
  5
1125F
  8
0
  6
CONTINUOUS
 10
31.64199999996833
 20
5.840981453592853
 30
0.0
 11
33.08199999996839
 21
7.280981453592908
 31
0.0
  0
LINE
  5
11260
  8
0
  6
CONTINUOUS
 10
31.64199999996833
 20
5.167462244512667
 30
0.0
 11
33.08199999996839
 21
6.607462244512721
 31
0.0
  0
LINE
  5
11261
  8
0
  6
CONTINUOUS
 10
31.64199999996833
 20
4.493943035432481
 30
0.0
 11
33.08199999996839
 21
5.933943035432535
 31
0.0
  0
LINE
  5
11262
  8
0
  6
CONTINUOUS
 10
31.64199999996833
 20
3.820423826352293
 30
0.0
 11
33.08199999996839
 21
5.260423826352348
 31
0.0
  0
LINE
  5
11263
  8
0
  6
CONTINUOUS
 10
31.64199999996833
 20
3.146904617272106
 30
0.0
 11
33.08199999996839
 21
4.586904617272161
 31
0.0
  0
LINE
  5
11264
  8
0
  6
CONTINUOUS
 10
36.23199999996837
 20
8.410423826352325
 30
0.0
 11
36.5846761736073
 21
8.763099999991255
 31
0.0
  0
LINE
  5
11265
  8
0
  6
CONTINUOUS
 10
36.23199999996837
 20
7.73690461727214
 30
0.0
 11
37.25819538268748
 21
8.763099999991255
 31
0.0
  0
LINE
  5
11266
  8
0
  6
CONTINUOUS
 10
31.64374005202358
 20
2.475125460247167
 30
0.0
 11
33.08199999996839
 21
3.913385408191974
 31
0.0
  0
LINE
  5
11267
  8
0
  6
CONTINUOUS
 10
31.78607140823076
 20
1.943937607374161
 30
0.0
 11
33.08199999996839
 21
3.239866199111788
 31
0.0
  0
LINE
  5
11268
  8
0
  6
CONTINUOUS
 10
31.92840276443794
 20
1.412749754501155
 30
0.0
 11
33.08199999996839
 21
2.566346990031601
 31
0.0
  0
LINE
  5
11269
  8
0
  6
CONTINUOUS
 10
36.23199999996837
 20
7.063385408191953
 30
0.0
 11
37.67199999996831
 21
8.503385408191894
 31
0.0
  0
LINE
  5
1126A
  8
0
  6
CONTINUOUS
 10
36.23199999996837
 20
6.389866199111767
 30
0.0
 11
37.67199999996831
 21
7.829866199111708
 31
0.0
  0
LINE
  5
1126B
  8
0
  6
CONTINUOUS
 10
36.23199999996837
 20
5.71634699003158
 30
0.0
 11
37.67199999996831
 21
7.156346990031521
 31
0.0
  0
LINE
  5
1126C
  8
0
  6
CONTINUOUS
 10
32.1787326690177
 20
0.9895604500007256
 30
0.0
 11
33.20642631446081
 21
2.017254095443837
 31
0.0
  0
LINE
  5
1126D
  8
0
  6
CONTINUOUS
 10
36.23199999996837
 20
5.042827780951393
 30
0.0
 11
37.67199999996831
 21
6.482827780951334
 31
0.0
  0
LINE
  5
1126E
  8
0
  6
CONTINUOUS
 10
32.51549227355815
 20
0.652800845460991
 30
0.0
 11
33.49903056428258
 21
1.636339136185419
 31
0.0
  0
LINE
  5
1126F
  8
0
  6
CONTINUOUS
 10
36.23199999996837
 20
4.369308571871207
 30
0.0
 11
37.67199999996831
 21
5.809308571871147
 31
0.0
  0
LINE
  5
11270
  8
0
  6
CONTINUOUS
 10
32.8522518780986
 20
0.3160412409212565
 30
0.0
 11
33.93324121824649
 21
1.397030581069147
 31
0.0
  0
LINE
  5
11271
  8
0
  6
CONTINUOUS
 10
36.23199999996837
 20
3.69578936279102
 30
0.0
 11
37.67199999996831
 21
5.135789362790962
 31
0.0
  0
LINE
  5
11272
  8
0
  6
CONTINUOUS
 10
33.32873687730419
 20
0.1190070310466638
 30
0.0
 11
34.46442907112041
 21
1.254699224862875
 31
0.0
  0
LINE
  5
11273
  8
0
  6
CONTINUOUS
 10
36.23199999996837
 20
3.022270153710834
 30
0.0
 11
37.67199999996831
 21
4.462270153710775
 31
0.0
  0
LINE
  5
11274
  8
0
  6
CONTINUOUS
 10
33.85992473017767
 20
-0.0233243251600488
 30
0.0
 11
35.24350171668284
 21
1.360252661345124
 31
0.0
  0
LINE
  5
11275
  8
0
  6
CONTINUOUS
 10
36.18336676155003
 20
2.300117706212307
 30
0.0
 11
37.67199999996831
 21
3.788750944630588
 31
0.0
  0
LINE
  5
11276
  8
0
  6
CONTINUOUS
 10
34.39111258305115
 20
-0.1656556813667613
 30
0.0
 11
37.67199999996831
 21
3.115231735550401
 31
0.0
  0
LINE
  5
11277
  8
0
  6
CONTINUOUS
 10
35.11651383431612
 20
-0.1137736391819715
 30
0.0
 11
37.65739306207836
 21
2.427105588580266
 31
0.0
  0
LINE
  5
11278
  8
0
  6
CONTINUOUS
 10
36.03655818385387
 20
0.1327515012755951
 30
0.0
 11
37.41086792161699
 21
1.507061239038712
 31
0.0
  0
LINE
  5
11279
  8
0
  6
CONTINUOUS
 10
33.71988657648365
 20
0.0141987850318213
 30
0.0
 11
31.78457936207464
 21
1.949505999440826
 31
0.0
  0
LINE
  5
1127A
  8
0
  6
CONTINUOUS
 10
34.63993092602409
 20
-0.2323263554284312
 30
0.0
 11
31.64199999996833
 21
2.765604570627321
 31
0.0
  0
LINE
  5
1127B
  8
0
  6
CONTINUOUS
 10
35.17833301840466
 20
-0.0972092387288228
 30
0.0
 11
31.64199999996833
 21
3.439123779707508
 31
0.0
  0
LINE
  5
1127C
  8
0
  6
CONTINUOUS
 10
35.70952087127903
 20
0.0451221174769945
 30
0.0
 11
34.51294304365551
 21
1.241699945100516
 31
0.0
  0
LINE
  5
1127D
  8
0
  6
CONTINUOUS
 10
33.08199999996839
 20
2.67264298878764
 30
0.0
 11
31.64199999996833
 21
4.112642988787695
 31
0.0
  0
LINE
  5
1127E
  8
0
  6
CONTINUOUS
 10
36.2407087241534
 20
0.1874534736828117
 30
0.0
 11
35.10501653033629
 21
1.323145667499924
 31
0.0
  0
LINE
  5
1127F
  8
0
  6
CONTINUOUS
 10
33.08199999996839
 20
3.346162197867826
 30
0.0
 11
31.64199999996833
 21
4.786162197867881
 31
0.0
  0
LINE
  5
11280
  8
0
  6
CONTINUOUS
 10
36.62369414391585
 20
0.4779872630005553
 30
0.0
 11
35.63620438320989
 21
1.465477023706505
 31
0.0
  0
LINE
  5
11281
  8
0
  6
CONTINUOUS
 10
33.08199999996839
 20
4.019681406948012
 30
0.0
 11
31.64199999996833
 21
5.459681406948068
 31
0.0
  0
LINE
  5
11282
  8
0
  6
CONTINUOUS
 10
36.96045374845689
 20
0.8147468675397027
 30
0.0
 11
35.97691545773309
 21
1.798285158263504
 31
0.0
  0
LINE
  5
11283
  8
0
  6
CONTINUOUS
 10
33.08199999996839
 20
4.693200616028199
 30
0.0
 11
31.64199999996833
 21
6.133200616028255
 31
0.0
  0
LINE
  5
11284
  8
0
  6
CONTINUOUS
 10
37.29721335299792
 20
1.151506472078851
 30
0.0
 11
36.17602012811361
 21
2.272699696963168
 31
0.0
  0
LINE
  5
11285
  8
0
  6
CONTINUOUS
 10
33.08199999996839
 20
5.366719825108386
 30
0.0
 11
31.64199999996833
 21
6.80671982510844
 31
0.0
  0
LINE
  5
11286
  8
0
  6
CONTINUOUS
 10
37.45404367813572
 20
1.668195356021243
 30
0.0
 11
36.23199999996837
 21
2.890239034188594
 31
0.0
  0
LINE
  5
11287
  8
0
  6
CONTINUOUS
 10
37.5963750343428
 20
2.199383208894345
 30
0.0
 11
36.23199999996837
 21
3.56375824326878
 31
0.0
  0
LINE
  5
11288
  8
0
  6
CONTINUOUS
 10
33.08199999996839
 20
6.040239034188573
 30
0.0
 11
31.64199999996833
 21
7.480239034188627
 31
0.0
  0
LINE
  5
11289
  8
0
  6
CONTINUOUS
 10
33.08199999996839
 20
6.713758243268758
 30
0.0
 11
31.64199999996833
 21
8.153758243268815
 31
0.0
  0
LINE
  5
1128A
  8
0
  6
CONTINUOUS
 10
37.67199999996831
 20
2.797277452349026
 30
0.0
 11
36.23199999996837
 21
4.237277452348967
 31
0.0
  0
LINE
  5
1128B
  8
0
  6
CONTINUOUS
 10
37.67199999996831
 20
3.470796661429213
 30
0.0
 11
36.23199999996837
 21
4.910796661429154
 31
0.0
  0
LINE
  5
1128C
  8
0
  6
CONTINUOUS
 10
37.67199999996831
 20
4.144315870509399
 30
0.0
 11
36.23199999996837
 21
5.58431587050934
 31
0.0
  0
LINE
  5
1128D
  8
0
  6
CONTINUOUS
 10
33.08199999996839
 20
7.387277452348945
 30
0.0
 11
31.70617745232608
 21
8.763099999991255
 31
0.0
  0
LINE
  5
1128E
  8
0
  6
CONTINUOUS
 10
33.08199999996839
 20
8.060796661429132
 30
0.0
 11
32.37969666140626
 21
8.763099999991255
 31
0.0
  0
LINE
  5
1128F
  8
0
  6
CONTINUOUS
 10
33.08199999996839
 20
8.734315870509318
 30
0.0
 11
33.05321587048645
 21
8.763099999991255
 31
0.0
  0
LINE
  5
11290
  8
0
  6
CONTINUOUS
 10
37.67199999996831
 20
4.817835079589585
 30
0.0
 11
36.23199999996837
 21
6.257835079589526
 31
0.0
  0
LINE
  5
11291
  8
0
  6
CONTINUOUS
 10
37.67199999996831
 20
5.491354288669771
 30
0.0
 11
36.23199999996837
 21
6.931354288669713
 31
0.0
  0
LINE
  5
11292
  8
0
  6
CONTINUOUS
 10
37.67199999996831
 20
6.164873497749958
 30
0.0
 11
36.23199999996837
 21
7.6048734977499
 31
0.0
  0
LINE
  5
11293
  8
0
  6
CONTINUOUS
 10
37.67199999996831
 20
6.838392706830144
 30
0.0
 11
36.23199999996837
 21
8.278392706830086
 31
0.0
  0
LINE
  5
11294
  8
0
  6
CONTINUOUS
 10
37.67199999996831
 20
7.511911915910332
 30
0.0
 11
36.42081191588738
 21
8.763099999991255
 31
0.0
  0
LINE
  5
11295
  8
0
  6
CONTINUOUS
 10
37.67199999996831
 20
8.185431124990519
 30
0.0
 11
37.09433112496757
 21
8.763099999991255
 31
0.0
  0
ENDBLK
  5
112FD
  8
0
  0
BLOCK
  8
0
  2
*X1953
 70
     1
 10
0.0
 20
0.0
 30
0.0
  3
*X1953
  1

  0
LINE
  5
11297
  8
0
  6
CONTINUOUS
 10
38.60499999996136
 20
8.762866199104765
 30
0.0
 11
38.71672554182345
 21
8.874591740966855
 31
0.0
  0
LINE
  5
11298
  8
0
  6
CONTINUOUS
 10
38.60499999996136
 20
8.089346990024577
 30
0.0
 11
39.03418785440363
 21
8.518534844466847
 31
0.0
  0
LINE
  5
11299
  8
0
  6
CONTINUOUS
 10
38.60499999996136
 20
7.41582778094439
 30
0.0
 11
39.35165016698382
 21
8.16247794796684
 31
0.0
  0
LINE
  5
1129A
  8
0
  6
CONTINUOUS
 10
38.60499999996136
 20
6.742308571864204
 30
0.0
 11
39.66911247956399
 21
7.806421051466834
 31
0.0
  0
LINE
  5
1129B
  8
0
  6
CONTINUOUS
 10
38.60499999996136
 20
6.068789362784018
 30
0.0
 11
39.98657479214418
 21
7.450364154966827
 31
0.0
  0
LINE
  5
1129C
  8
0
  6
CONTINUOUS
 10
38.60499999996136
 20
5.395270153703832
 30
0.0
 11
40.30403710472435
 21
7.09430725846682
 31
0.0
  0
LINE
  5
1129D
  8
0
  6
CONTINUOUS
 10
38.60499999996136
 20
4.721750944623645
 30
0.0
 11
40.62149941730453
 21
6.738250361966813
 31
0.0
  0
LINE
  5
1129E
  8
0
  6
CONTINUOUS
 10
38.60499999996136
 20
4.048231735543458
 30
0.0
 11
40.93896172988471
 21
6.382193465466806
 31
0.0
  0
LINE
  5
1129F
  8
0
  6
CONTINUOUS
 10
38.60499999996136
 20
3.374712526463272
 30
0.0
 11
40.02599999995994
 21
4.795712526461843
 31
0.0
  0
LINE
  5
112A0
  8
0
  6
CONTINUOUS
 10
38.60499999996136
 20
2.701193317383085
 30
0.0
 11
40.02599999995994
 21
4.122193317381657
 31
0.0
  0
LINE
  5
112A1
  8
0
  6
CONTINUOUS
 10
40.28339754687704
 20
5.053110073378947
 30
0.0
 11
41.25642404246489
 21
6.026136568966799
 31
0.0
  0
LINE
  5
112A2
  8
0
  6
CONTINUOUS
 10
40.60085985945722
 20
4.697053176878939
 30
0.0
 11
41.57388635504507
 21
5.670079672466793
 31
0.0
  0
LINE
  5
112A3
  8
0
  6
CONTINUOUS
 10
43.57899999995641
 20
8.348712526458318
 30
0.0
 11
43.99338747348935
 21
8.763099999991255
 31
0.0
  0
LINE
  5
112A4
  8
0
  6
CONTINUOUS
 10
43.57899999995641
 20
7.675193317378131
 30
0.0
 11
44.66690668256953
 21
8.763099999991255
 31
0.0
  0
LINE
  5
112A5
  8
0
  6
CONTINUOUS
 10
38.60499999996136
 20
2.027674108302898
 30
0.0
 11
40.02599999995994
 21
3.44867410830147
 31
0.0
  0
LINE
  5
112A6
  8
0
  6
CONTINUOUS
 10
38.60499999996136
 20
1.354154899222712
 30
0.0
 11
40.02599999995994
 21
2.775154899221284
 31
0.0
  0
LINE
  5
112A7
  8
0
  6
CONTINUOUS
 10
38.60499999996136
 20
0.6806356901425255
 30
0.0
 11
40.02599999995994
 21
2.101635690141098
 31
0.0
  0
LINE
  5
112A8
  8
0
  6
CONTINUOUS
 10
38.60499999996136
 20
0.0071164810623383
 30
0.0
 11
40.02599999995994
 21
1.428116481060911
 31
0.0
  0
LINE
  5
112A9
  8
0
  6
CONTINUOUS
 10
40.9183221720374
 20
4.340996280378933
 30
0.0
 11
41.89134866762525
 21
5.314022775966786
 31
0.0
  0
LINE
  5
112AA
  8
0
  6
CONTINUOUS
 10
41.23578448461758
 20
3.984939383878926
 30
0.0
 11
42.20881098020543
 21
4.957965879466778
 31
0.0
  0
LINE
  5
112AB
  8
0
  6
CONTINUOUS
 10
41.55324679719776
 20
3.628882487378919
 30
0.0
 11
42.52627329278561
 21
4.601908982966772
 31
0.0
  0
LINE
  5
112AC
  8
0
  6
CONTINUOUS
 10
41.87070910977793
 20
3.272825590878912
 30
0.0
 11
42.84373560536579
 21
4.245852086466765
 31
0.0
  0
LINE
  5
112AD
  8
0
  6
CONTINUOUS
 10
43.57899999995641
 20
7.001674108297943
 30
0.0
 11
44.99999999995498
 21
8.422674108296516
 31
0.0
  0
LINE
  5
112AE
  8
0
  6
CONTINUOUS
 10
43.57899999995641
 20
6.328154899217758
 30
0.0
 11
44.99999999995498
 21
7.749154899216329
 31
0.0
  0
LINE
  5
112AF
  8
0
  6
CONTINUOUS
 10
43.57899999995641
 20
5.654635690137571
 30
0.0
 11
44.99999999995498
 21
7.075635690136142
 31
0.0
  0
LINE
  5
112B0
  8
0
  6
CONTINUOUS
 10
43.57899999995641
 20
4.981116481057384
 30
0.0
 11
44.99999999995498
 21
6.402116481055955
 31
0.0
  0
LINE
  5
112B1
  8
0
  6
CONTINUOUS
 10
39.27140272797921
 20
-0.0000000000000009
 30
0.0
 11
40.02599999995994
 21
0.7545972719807246
 31
0.0
  0
LINE
  5
112B2
  8
0
  6
CONTINUOUS
 10
39.9449219370594
 20
-0.0000000000000009
 30
0.0
 11
40.02599999995994
 21
0.0810780629005379
 31
0.0
  0
LINE
  5
112B3
  8
0
  6
CONTINUOUS
 10
42.18817142235812
 20
2.916768694378905
 30
0.0
 11
43.16119791794597
 21
3.889795189966758
 31
0.0
  0
LINE
  5
112B4
  8
0
  6
CONTINUOUS
 10
42.50563373493829
 20
2.560711797878898
 30
0.0
 11
43.47866023052615
 21
3.533738293466751
 31
0.0
  0
LINE
  5
112B5
  8
0
  6
CONTINUOUS
 10
43.57899999995641
 20
4.307597271977198
 30
0.0
 11
44.99999999995498
 21
5.728597271975769
 31
0.0
  0
LINE
  5
112B6
  8
0
  6
CONTINUOUS
 10
43.57899999995641
 20
3.634078062897011
 30
0.0
 11
44.99999999995498
 21
5.055078062895582
 31
0.0
  0
LINE
  5
112B7
  8
0
  6
CONTINUOUS
 10
42.82309604751848
 20
2.204654901378891
 30
0.0
 11
44.99999999995498
 21
4.381558853815395
 31
0.0
  0
LINE
  5
112B8
  8
0
  6
CONTINUOUS
 10
43.14055836009865
 20
1.848598004878885
 30
0.0
 11
44.99999999995498
 21
3.70803964473521
 31
0.0
  0
LINE
  5
112B9
  8
0
  6
CONTINUOUS
 10
43.45802067267883
 20
1.492541108378878
 30
0.0
 11
44.99999999995498
 21
3.034520435655023
 31
0.0
  0
LINE
  5
112BA
  8
0
  6
CONTINUOUS
 10
43.77548298525902
 20
1.136484211878871
 30
0.0
 11
44.99999999995498
 21
2.361001226574837
 31
0.0
  0
LINE
  5
112BB
  8
0
  6
CONTINUOUS
 10
44.09294529783919
 20
0.7804273153788639
 30
0.0
 11
44.99999999995498
 21
1.687482017494649
 31
0.0
  0
LINE
  5
112BC
  8
0
  6
CONTINUOUS
 10
44.41040761041938
 20
0.4243704188788566
 30
0.0
 11
44.99999999995498
 21
1.013962808414463
 31
0.0
  0
LINE
  5
112BD
  8
0
  6
CONTINUOUS
 10
44.72786992299955
 20
0.0683135223788494
 30
0.0
 11
44.99999999995498
 21
0.340443599334276
 31
0.0
  0
LINE
  5
112BE
  8
0
  6
CONTINUOUS
 10
39.12223903415696
 20
-0.0000000000000009
 30
0.0
 11
38.60499999996136
 21
0.5172390341955961
 31
0.0
  0
LINE
  5
112BF
  8
0
  6
CONTINUOUS
 10
39.79575824323715
 20
-0.0000000000000009
 30
0.0
 11
38.60499999996136
 21
1.190758243275783
 31
0.0
  0
LINE
  5
112C0
  8
0
  6
CONTINUOUS
 10
40.02599999995994
 20
0.443277452357397
 30
0.0
 11
38.60499999996136
 21
1.864277452355969
 31
0.0
  0
LINE
  5
112C1
  8
0
  6
CONTINUOUS
 10
40.02599999995994
 20
1.116796661437583
 30
0.0
 11
38.60499999996136
 21
2.537796661436155
 31
0.0
  0
LINE
  5
112C2
  8
0
  6
CONTINUOUS
 10
40.02599999995994
 20
1.79031587051777
 30
0.0
 11
38.60499999996136
 21
3.211315870516341
 31
0.0
  0
LINE
  5
112C3
  8
0
  6
CONTINUOUS
 10
40.02599999995994
 20
2.463835079597956
 30
0.0
 11
38.60499999996136
 21
3.884835079596527
 31
0.0
  0
LINE
  5
112C4
  8
0
  6
CONTINUOUS
 10
40.02599999995994
 20
3.137354288678143
 30
0.0
 11
38.60499999996136
 21
4.558354288676714
 31
0.0
  0
LINE
  5
112C5
  8
0
  6
CONTINUOUS
 10
40.02599999995994
 20
3.810873497758329
 30
0.0
 11
38.60499999996136
 21
5.2318734977569
 31
0.0
  0
LINE
  5
112C6
  8
0
  6
CONTINUOUS
 10
40.02599999995994
 20
4.484392706838515
 30
0.0
 11
38.60499999996136
 21
5.905392706837086
 31
0.0
  0
LINE
  5
112C7
  8
0
  6
CONTINUOUS
 10
44.99999999995498
 20
0.183911915923658
 30
0.0
 11
41.53858364506288
 21
3.64532827081576
 31
0.0
  0
LINE
  5
112C8
  8
0
  6
CONTINUOUS
 10
40.02599999995994
 20
5.157911915918703
 30
0.0
 11
38.60499999996136
 21
6.578911915917274
 31
0.0
  0
LINE
  5
112C9
  8
0
  6
CONTINUOUS
 10
44.99999999995498
 20
0.8574311250038447
 30
0.0
 11
38.60499999996136
 21
7.25243112499746
 31
0.0
  0
LINE
  5
112CA
  8
0
  6
CONTINUOUS
 10
44.99999999995498
 20
1.530950334084031
 30
0.0
 11
38.60499999996136
 21
7.925950334077647
 31
0.0
  0
LINE
  5
112CB
  8
0
  6
CONTINUOUS
 10
44.99999999995498
 20
2.204469543164218
 30
0.0
 11
43.57899999995641
 21
3.625469543162789
 31
0.0
  0
LINE
  5
112CC
  8
0
  6
CONTINUOUS
 10
41.89876730984767
 20
5.305702233271528
 30
0.0
 11
38.60499999996136
 21
8.599469543157834
 31
0.0
  0
LINE
  5
112CD
  8
0
  6
CONTINUOUS
 10
44.99999999995498
 20
2.877988752244405
 30
0.0
 11
43.57899999995641
 21
4.298988752242975
 31
0.0
  0
LINE
  5
112CE
  8
0
  6
CONTINUOUS
 10
44.99999999995498
 20
3.551507961324591
 30
0.0
 11
43.57899999995641
 21
4.972507961323163
 31
0.0
  0
LINE
  5
112CF
  8
0
  6
CONTINUOUS
 10
44.99999999995498
 20
4.225027170404777
 30
0.0
 11
43.57899999995641
 21
5.646027170403348
 31
0.0
  0
LINE
  5
112D0
  8
0
  6
CONTINUOUS
 10
44.99999999995498
 20
4.898546379484964
 30
0.0
 11
43.57899999995641
 21
6.319546379483535
 31
0.0
  0
LINE
  5
112D1
  8
0
  6
CONTINUOUS
 10
44.99999999995498
 20
5.572065588565151
 30
0.0
 11
43.57899999995641
 21
6.993065588563722
 31
0.0
  0
LINE
  5
112D2
  8
0
  6
CONTINUOUS
 10
44.99999999995498
 20
6.245584797645336
 30
0.0
 11
43.57899999995641
 21
7.666584797643908
 31
0.0
  0
LINE
  5
112D3
  8
0
  6
CONTINUOUS
 10
44.99999999995498
 20
6.919104006725522
 30
0.0
 11
43.57899999995641
 21
8.340104006724093
 31
0.0
  0
LINE
  5
112D4
  8
0
  6
CONTINUOUS
 10
44.99999999995498
 20
7.592623215805709
 30
0.0
 11
43.82952321576943
 21
8.763099999991255
 31
0.0
  0
LINE
  5
112D5
  8
0
  6
CONTINUOUS
 10
44.99999999995498
 20
8.266142424885896
 30
0.0
 11
44.50304242484962
 21
8.763099999991255
 31
0.0
  0
ENDBLK
  5
112FF
  8
0
  0
BLOCK
  8
0
  2
*X1954
 70
     1
 10
0.0
 20
0.0
 30
0.0
  3
*X1954
  1

  0
LINE
  5
112D7
  8
0
  6
CONTINUOUS
 10
0.0
 20
8.548461116714023
 30
0.0
 11
0.2146388832772324
 21
8.763099999991255
 31
0.0
  0
LINE
  5
112D8
  8
0
  6
CONTINUOUS
 10
-0.0000000000000002
 20
7.874941907633837
 30
0.0
 11
0.8881580923574184
 21
8.763099999991255
 31
0.0
  0
LINE
  5
112D9
  8
0
  6
CONTINUOUS
 10
0.0
 20
7.20142269855365
 30
0.0
 11
1.420999999998572
 21
8.622422698552223
 31
0.0
  0
LINE
  5
112DA
  8
0
  6
CONTINUOUS
 10
-0.0000000000000001
 20
6.527903489473465
 30
0.0
 11
1.420999999998571
 21
7.948903489472036
 31
0.0
  0
LINE
  5
112DB
  8
0
  6
CONTINUOUS
 10
-0.0000000000000002
 20
5.854384280393278
 30
0.0
 11
1.420999999998571
 21
7.275384280391849
 31
0.0
  0
LINE
  5
112DC
  8
0
  6
CONTINUOUS
 10
-0.0000000000000002
 20
5.180865071313091
 30
0.0
 11
1.420999999998571
 21
6.601865071311663
 31
0.0
  0
LINE
  5
112DD
  8
0
  6
CONTINUOUS
 10
0.0
 20
4.507345862232905
 30
0.0
 11
1.420999999998571
 21
5.928345862231477
 31
0.0
  0
LINE
  5
112DE
  8
0
  6
CONTINUOUS
 10
-0.0000000000000003
 20
3.833826653152718
 30
0.0
 11
1.420999999998571
 21
5.25482665315129
 31
0.0
  0
LINE
  5
112DF
  8
0
  6
CONTINUOUS
 10
-0.0000000000000002
 20
3.160307444072532
 30
0.0
 11
1.420999999998571
 21
4.581307444071103
 31
0.0
  0
LINE
  5
112E0
  8
0
  6
CONTINUOUS
 10
-0.0000000000000001
 20
2.486788234992345
 30
0.0
 11
1.420999999998571
 21
3.907788234990917
 31
0.0
  0
LINE
  5
112E1
  8
0
  6
CONTINUOUS
 10
-0.0000000000000006
 20
1.813269025912159
 30
0.0
 11
1.420999999998571
 21
3.234269025910731
 31
0.0
  0
LINE
  5
112E2
  8
0
  6
CONTINUOUS
 10
0.0
 20
1.139749816831973
 30
0.0
 11
1.420999999998571
 21
2.560749816830544
 31
0.0
  0
LINE
  5
112E3
  8
0
  6
CONTINUOUS
 10
0.0000000000000002
 20
0.466230607751787
 30
0.0
 11
1.420999999998571
 21
1.887230607750358
 31
0.0
  0
LINE
  5
112E4
  8
0
  6
CONTINUOUS
 10
0.2072886013284003
 20
-0.0000000000000009
 30
0.0
 11
1.420999999998571
 21
1.213711398670171
 31
0.0
  0
LINE
  5
112E5
  8
0
  6
CONTINUOUS
 10
0.8808078104085864
 20
-0.0000000000000009
 30
0.0
 11
1.420999999998571
 21
0.5401921895899839
 31
0.0
  0
LINE
  5
112E6
  8
0
  6
CONTINUOUS
 10
0.0581249075061505
 20
-0.0000000000000009
 30
0.0
 11
-0.0000000000000002
 21
0.0581249075061496
 31
0.0
  0
LINE
  5
112E7
  8
0
  6
CONTINUOUS
 10
0.7316441165863372
 20
-0.0000000000000009
 30
0.0
 11
-0.0000000000000002
 21
0.7316441165863363
 31
0.0
  0
LINE
  5
112E8
  8
0
  6
CONTINUOUS
 10
1.405163325666523
 20
-0.0000000000000009
 30
0.0
 11
-0.0000000000000002
 21
1.405163325666523
 31
0.0
  0
LINE
  5
112E9
  8
0
  6
CONTINUOUS
 10
1.420999999998572
 20
0.6576825347481381
 30
0.0
 11
-0.0000000000000001
 21
2.07868253474671
 31
0.0
  0
LINE
  5
112EA
  8
0
  6
CONTINUOUS
 10
1.420999999998571
 20
1.331201743828324
 30
0.0
 11
-0.0000000000000001
 21
2.752201743826896
 31
0.0
  0
LINE
  5
112EB
  8
0
  6
CONTINUOUS
 10
1.420999999998571
 20
2.004720952908511
 30
0.0
 11
-0.0000000000000002
 21
3.425720952907082
 31
0.0
  0
LINE
  5
112EC
  8
0
  6
CONTINUOUS
 10
1.420999999998571
 20
2.678240161988697
 30
0.0
 11
-0.0000000000000001
 21
4.099240161987269
 31
0.0
  0
LINE
  5
112ED
  8
0
  6
CONTINUOUS
 10
1.420999999998572
 20
3.351759371068884
 30
0.0
 11
0.0
 21
4.772759371067455
 31
0.0
  0
LINE
  5
112EE
  8
0
  6
CONTINUOUS
 10
1.420999999998571
 20
4.02527858014907
 30
0.0
 11
-0.0000000000000003
 21
5.446278580147642
 31
0.0
  0
LINE
  5
112EF
  8
0
  6
CONTINUOUS
 10
1.420999999998571
 20
4.698797789229257
 30
0.0
 11
0.0
 21
6.119797789227828
 31
0.0
  0
LINE
  5
112F0
  8
0
  6
CONTINUOUS
 10
1.420999999998571
 20
5.372316998309444
 30
0.0
 11
-0.0000000000000001
 21
6.793316998308015
 31
0.0
  0
LINE
  5
112F1
  8
0
  6
CONTINUOUS
 10
1.420999999998572
 20
6.045836207389629
 30
0.0
 11
-0.0000000000000004
 21
7.466836207388202
 31
0.0
  0
LINE
  5
112F2
  8
0
  6
CONTINUOUS
 10
1.420999999998571
 20
6.719355416469816
 30
0.0
 11
0.0
 21
8.140355416468388
 31
0.0
  0
LINE
  5
112F3
  8
0
  6
CONTINUOUS
 10
1.420999999998571
 20
7.392874625550003
 30
0.0
 11
0.0507746255573185
 21
8.763099999991255
 31
0.0
  0
LINE
  5
112F4
  8
0
  6
CONTINUOUS
 10
1.420999999998571
 20
8.06639383463019
 30
0.0
 11
0.7242938346375052
 21
8.763099999991255
 31
0.0
  0
LINE
  5
112F5
  8
0
  6
CONTINUOUS
 10
1.420999999998571
 20
8.739913043710375
 30
0.0
 11
1.397813043717691
 21
8.763099999991255
 31
0.0
  0
ENDBLK
  5
11301
  8
0
  0
ENDSEC
  0
SECTION
  2
ENTITIES
  0
LINE
  5
1083A
  8
1CENTER
 10
-337.4835317429814
 20
5788.978393570336
 30
0.0
 11
-337.4835317429814
 21
5862.748898830093
 31
0.0
  0
LINE
  5
1083B
  8
1CENTER
 10
-266.9408704160845
 20
5842.092197499115
 30
0.0
 11
-164.5940362874939
 21
5842.092197499114
 31
0.0
  0
LINE
  5
1083C
  8
01
 10
-220.6274858206592
 20
5854.5914427384
 30
0.0
 11
-220.6274847278941
 21
5829.5914427384
 31
0.0
  0
LINE
  5
1083D
  8
01
 10
-348.9838823035687
 20
5799.0914427384
 30
0.0
 11
-325.9838823035669
 21
5799.0914427384
 31
0.0
  0
LINE
  5
1083E
  8
01
 10
-220.3274844966555
 20
5831.091577439591
 30
0.0
 11
-220.3274835350006
 21
5853.091577439591
 31
0.0
  0
LINE
  5
1083F
  8
01
  6
BYBLOCK
 10
-208.3274840157995
 20
5849.842197499115
 30
0.0
 11
-220.3274840157995
 21
5849.842196450041
 31
0.0
  0
LINE
  5
10840
  8
01
  6
BYBLOCK
 10
-220.3274840157986
 20
5834.342196450042
 30
0.0
 11
-208.3274840157995
 21
5834.342197499115
 31
0.0
  0
LINE
  5
10841
  8
01
  6
BYBLOCK
 10
-208.3274841250794
 20
5831.091577439591
 30
0.0
 11
-208.0274841250802
 21
5831.091577439591
 31
0.0
  0
LINE
  5
10842
  8
01
  6
BYBLOCK
 10
-208.0274841250802
 20
5853.091577439591
 30
0.0
 11
-208.3274841250794
 21
5853.091577439591
 31
0.0
  0
LINE
  5
10843
  8
01
  6
BYBLOCK
 10
-208.3274841250803
 20
5831.091577439591
 30
0.0
 11
-208.327484125079
 21
5853.091577439591
 31
0.0
  0
LINE
  5
10844
  8
01
 10
-168.0274841250774
 20
5801.091442738403
 30
0.0
 11
-168.0274841250802
 21
5852.591442738403
 31
0.0
  0
ARC
  5
10845
  8
01
 10
-170.0274841250802
 20
5852.591442738403
 30
0.0
 40
2.0
 50
0.0
 51
90.0
  0
LINE
  5
10846
  8
01
 10
-184.0274841250774
 20
5801.091442738401
 30
0.0
 11
-184.0274841250792
 21
5823.591442738402
 31
0.0
  0
ARC
  5
10847
  8
01
 10
-182.0274841250774
 20
5801.091442738402
 30
0.0
 40
2.0
 50
180.0
 51
270.0
  0
ARC
  5
10848
  8
01
 10
-190.0274841250792
 20
5823.591442738401
 30
0.0
 40
6.0
 50
0.0
 51
90.0
  0
LINE
  5
10849
  8
01
 10
-208.0274841250788
 20
5854.5914427384
 30
0.0
 11
-170.0274841250802
 21
5854.591442738403
 31
0.0
  0
LINE
  5
1084A
  8
01
 10
-182.0274841250774
 20
5799.091442738402
 30
0.0
 11
-170.0274841250774
 21
5799.091442738403
 31
0.0
  0
ARC
  5
1084B
  8
01
 10
-170.0274841250774
 20
5801.091442738403
 30
0.0
 40
2.0
 50
270.0
 51
0.0
  0
LINE
  5
1084C
  8
01
 10
-208.0274841250792
 20
5829.5914427384
 30
0.0
 11
-190.0274841250797
 21
5829.5914427384
 31
0.0
  0
LINE
  5
1084D
  8
01
 10
-208.0274841250788
 20
5829.5914427384
 30
0.0
 11
-208.0274841250788
 21
5854.5914427384
 31
0.0
  0
LINE
  5
1084E
  8
01
 10
-220.3274844966555
 20
5831.091577439591
 30
0.0
 11
-220.6274847934618
 21
5831.091577439591
 31
0.0
  0
LINE
  5
1084F
  8
01
 10
-220.3274835350006
 20
5853.091577439591
 30
0.0
 11
-220.6274857550992
 21
5853.091577439591
 31
0.0
  0
LINE
  5
10850
  8
01
 10
-220.6274847278941
 20
5829.5914427384
 30
0.0
 11
-238.6274859650824
 21
5829.5914427384
 31
0.0
  0
LINE
  5
10851
  8
01
 10
-220.6274858206592
 20
5854.5914427384
 30
0.0
 11
-258.6274859650779
 21
5854.5914427384
 31
0.0
  0
LINE
  5
10852
  8
1HIDDEN
 10
-184.3276023459688
 20
5832.592354553698
 30
0.0
 11
-184.3273659089895
 21
5851.590647936685
 31
0.0
  0
LINE
  5
10853
  8
1HIDDEN
 10
-185.3276147910614
 20
5831.592366998944
 30
0.0
 11
-184.3276023459688
 21
5832.592354553698
 31
0.0
  0
LINE
  5
10854
  8
1HIDDEN
 10
-207.3276247682028
 20
5830.790816032992
 30
0.0
 11
-207.3275338969337
 21
5838.092546210277
 31
0.0
  0
LINE
  5
10855
  8
1HIDDEN
 10
-207.3274343355787
 20
5846.092546211577
 30
0.0
 11
-207.3273435073746
 21
5853.390816031242
 31
0.0
  0
LINE
  5
10856
  8
1HIDDEN
 10
-207.3273435073746
 20
5853.390816031242
 30
0.0
 11
-205.3273435075283
 21
5853.390791140903
 31
0.0
  0
LINE
  5
10857
  8
1HIDDEN
 10
-207.3276247682028
 20
5830.790816032992
 30
0.0
 11
-205.3276247683565
 21
5830.790791142649
 31
0.0
  0
LINE
  5
10858
  8
1CENTER
 10
-192.7273172514905
 20
5853.630633828745
 30
0.0
 11
-192.7276065329864
 21
5830.386153359371
 31
0.0
  0
LINE
  5
10859
  8
1HIDDEN
 10
-205.3276147895125
 20
5831.592615902332
 30
0.0
 11
-185.3276147910605
 21
5831.592366998945
 31
0.0
  0
LINE
  5
1085A
  8
1HIDDEN
 10
-205.3273534621934
 20
5852.590909285164
 30
0.0
 11
-185.3273534637423
 21
5852.590660381776
 31
0.0
  0
LINE
  5
1085B
  8
1HIDDEN
 10
-184.3273659089895
 20
5851.590647936685
 30
0.0
 11
-185.3273534637423
 21
5852.590660381776
 31
0.0
  0
LINE
  5
1085C
  8
1HIDDEN
 10
-205.3276247683538
 20
5830.790791142649
 30
0.0
 11
-205.3276147895089
 21
5831.592615902333
 31
0.0
  0
LINE
  5
1085D
  8
1HIDDEN
 10
-205.3273534621943
 20
5852.590909285166
 30
0.0
 11
-205.3273435075283
 21
5853.390791140903
 31
0.0
  0
LINE
  5
1085E
  8
1HIDDEN
 10
-207.327546363635
 20
5837.090816032514
 30
0.0
 11
-204.5275463638512
 21
5837.090781186041
 31
0.0
  0
LINE
  5
1085F
  8
1HIDDEN
 10
-207.3274219119415
 20
5847.09081603174
 30
0.0
 11
-204.5274219121587
 21
5847.090781185266
 31
0.0
  0
LINE
  5
10860
  8
1HIDDEN
 10
-204.5275774540654
 20
5834.592605945964
 30
0.0
 11
-184.3275774556299
 21
5834.592354553542
 31
0.0
  0
LINE
  5
10861
  8
1HIDDEN
 10
-204.5273907977647
 20
5849.590899329261
 30
0.0
 11
-184.3273907993283
 21
5849.59064793684
 31
0.0
  0
LINE
  5
10862
  8
1HIDDEN
 10
-204.5273907977647
 20
5849.590899329261
 30
0.0
 11
-204.5274219121583
 21
5847.090781185266
 31
0.0
  0
LINE
  5
10863
  8
1HIDDEN
 10
-204.5275338963851
 20
5838.092572794306
 30
0.0
 11
-204.5275774540654
 21
5834.592605945964
 31
0.0
  0
LINE
  5
10864
  8
1HIDDEN
 10
-201.0273838175593
 20
5835.092197499116
 30
0.0
 11
-202.2273907978264
 21
5835.092197499116
 31
0.0
  0
LINE
  5
10865
  8
1HIDDEN
 10
-204.5273907978293
 20
5845.517197499117
 30
0.0
 11
-237.2273907978268
 21
5845.517197499116
 31
0.0
  0
LINE
  5
10866
  8
1HIDDEN
 10
-204.5273907978293
 20
5838.667197499116
 30
0.0
 11
-237.2273907978264
 21
5838.667197499116
 31
0.0
  0
LINE
  5
10867
  8
1HIDDEN
 10
-204.5273907978293
 20
5846.092197499117
 30
0.0
 11
-236.6523907978275
 21
5846.092197499116
 31
0.0
  0
LINE
  5
10868
  8
1HIDDEN
 10
-204.5273907978293
 20
5838.092197499116
 30
0.0
 11
-236.652390797827
 21
5838.092197499116
 31
0.0
  0
ARC
  5
10869
  8
1HIDDEN
 10
-201.0273838175593
 20
5839.092197499116
 30
0.0
 40
4.0
 50
270.0
 51
0.0001333155250614
  0
LINE
  5
1086A
  8
1HIDDEN
 10
-197.0273977783394
 20
5845.092206806296
 30
0.0
 11
-197.0273838175702
 21
5839.092206806296
 31
0.0
  0
ARC
  5
1086B
  8
1HIDDEN
 10
-201.0273977783285
 20
5845.092197499116
 30
0.0
 40
4.0
 50
0.0001333155250614
 51
90.0
  0
LINE
  5
1086C
  8
1HIDDEN
 10
-201.0273977783285
 20
5849.092197499116
 30
0.0
 11
-202.2273907978264
 21
5849.092197499116
 31
0.0
  0
LINE
  5
1086D
  8
1HIDDEN
 10
-204.5273907978293
 20
5848.492147151643
 30
0.0
 11
-202.2273907978264
 21
5848.492147151645
 31
0.0
  0
LINE
  5
1086E
  8
1HIDDEN
 10
-202.2273907978264
 20
5835.692147151643
 30
0.0
 11
-204.5273907978293
 21
5835.692147151643
 31
0.0
  0
LINE
  5
1086F
  8
1HIDDEN
 10
-204.5273907978293
 20
5848.492147151643
 30
0.0
 11
-204.5273907978293
 21
5835.692147151643
 31
0.0
  0
LINE
  5
10870
  8
1HIDDEN
 10
-202.2273907978264
 20
5835.092197499116
 30
0.0
 11
-202.2273907978264
 21
5849.092197499116
 31
0.0
  0
LINE
  5
10871
  8
1HIDDEN
 10
-237.2273907978264
 20
5838.667197499116
 30
0.0
 11
-237.2273907978268
 21
5845.517197499116
 31
0.0
  0
LINE
  5
10872
  8
1HIDDEN
 10
-202.2273907978264
 20
5841.992592428738
 30
0.0
 11
-204.5273907978293
 21
5841.724643236308
 31
0.0
  0
LINE
  5
10873
  8
1HIDDEN
 10
-202.2273907978264
 20
5842.442903078974
 30
0.0
 11
-204.5273907978293
 21
5842.174953886544
 31
0.0
  0
LINE
  5
10874
  8
1HIDDEN
 10
-237.2273907978264
 20
5838.667197499116
 30
0.0
 11
-236.652390797827
 21
5838.092197499116
 31
0.0
  0
LINE
  5
10875
  8
1HIDDEN
 10
-237.2273907978268
 20
5845.517197499116
 30
0.0
 11
-236.652390797827
 21
5846.092197499116
 31
0.0
  0
LINE
  5
10876
  8
1HIDDEN
 10
-236.652390797827
 20
5838.092197499116
 30
0.0
 11
-236.652390797827
 21
5846.092197499116
 31
0.0
  0
LINE
  5
10877
  8
1HIDDEN
 10
-194.7274608575984
 20
5834.592483981854
 30
0.0
 11
-194.7274608575984
 21
5831.592483981622
 31
0.0
  0
LINE
  5
10878
  8
1HIDDEN
 10
-190.7274608574193
 20
5834.592434201176
 30
0.0
 11
-190.7274608574193
 21
5831.592434200944
 31
0.0
  0
LINE
  5
10879
  8
1HIDDEN
 10
-191.0774608574342
 20
5834.592438556985
 30
0.0
 11
-191.0774608574342
 21
5831.592438556753
 31
0.0
  0
LINE
  5
1087A
  8
1HIDDEN
 10
-194.3774608575831
 20
5834.592479626044
 30
0.0
 11
-194.3774608575831
 21
5831.592479625812
 31
0.0
  0
LINE
  5
1087B
  8
1HIDDEN
 10
-194.7278483661138
 20
5849.591373622644
 30
0.0
 11
-194.7280033809947
 21
5852.591373618871
 31
0.0
  0
LINE
  5
1087C
  8
1HIDDEN
 10
-190.7278483738468
 20
5849.59163008983
 30
0.0
 11
-190.7280033887276
 21
5852.591630086057
 31
0.0
  0
LINE
  5
1087D
  8
1HIDDEN
 10
-191.0778483731691
 20
5849.591607648951
 30
0.0
 11
-191.07800338805
 21
5852.591607645179
 31
0.0
  0
LINE
  5
1087E
  8
1HIDDEN
 10
-194.3778483667905
 20
5849.591396063523
 30
0.0
 11
-194.3780033816714
 21
5852.591396059751
 31
0.0
  0
LINE
  5
1087F
  8
01
 10
-324.9838823035669
 20
5800.0914427384
 30
0.0
 11
-324.9838823035669
 21
5853.5914427384
 31
0.0
  0
LINE
  5
10880
  8
01
 10
-349.9838823035687
 20
5800.0914427384
 30
0.0
 11
-349.9838823035687
 21
5853.5914427384
 31
0.0
  0
ARC
  5
10881
  8
01
 10
-325.9838823035651
 20
5800.0914427384
 30
0.0
 40
1.0
 50
269.9999999998957
 51
0.0
  0
ARC
  5
10882
  8
01
 10
-348.9838823035697
 20
5800.0914427384
 30
0.0
 40
1.0
 50
180.0
 51
270.0000000000521
  0
LINE
  5
10883
  8
01
 10
-325.9838823035669
 20
5854.5914427384
 30
0.0
 11
-348.9838823035687
 21
5854.5914427384
 31
0.0
  0
ARC
  5
10884
  8
01
 10
-325.9838823035651
 20
5853.591442738401
 30
0.0
 40
1.0
 50
0.0000000000521102
 51
90.00000000010422
  0
ARC
  5
10885
  8
01
 10
-348.9838823035697
 20
5853.5914427384
 30
0.0
 40
1.0
 50
89.99999999994789
 51
180.0
  0
LINE
  5
10886
  8
1HIDDEN
 10
-194.3775946416553
 20
5831.441442700975
 30
0.0
 11
-194.7275946416552
 21
5831.091442875049
 31
0.0
  0
LINE
  5
10887
  8
1HIDDEN
 10
-190.7275946416552
 20
5831.091442875049
 30
0.0
 11
-191.0775946416555
 21
5831.441442700975
 31
0.0
  0
LINE
  5
10888
  8
1HIDDEN
 10
-195.7275946416552
 20
5830.091442710976
 30
0.0
 11
-189.7275946416552
 21
5830.091442710976
 31
0.0
  0
LINE
  5
10889
  8
1HIDDEN
 10
-194.7275946416552
 20
5837.441442700975
 30
0.0
 11
-190.7275946416552
 21
5837.441442700975
 31
0.0
  0
LINE
  5
1088B
  8
1HIDDEN
 10
-191.0775946416555
 20
5837.791442700975
 30
0.0
 11
-191.0775946416555
 21
5831.441442700975
 31
0.0
  0
LINE
  5
1088C
  8
1HIDDEN
 10
-194.3775946416553
 20
5837.791442700975
 30
0.0
 11
-194.3775946416553
 21
5831.441442700975
 31
0.0
  0
LINE
  5
1088D
  8
1CENTER
 10
-192.7275946416552
 20
5839.393117700975
 30
0.0
 11
-192.7275946416552
 21
5828.232673800975
 31
0.0
  0
LINE
  5
1088E
  8
01
 10
-260.6274859650879
 20
5801.091442738409
 30
0.0
 11
-260.6274859650779
 21
5852.591442738409
 31
0.0
  0
ARC
  5
1088F
  8
01
 10
-258.6274859650779
 20
5852.591442738409
 30
0.0
 40
2.0
 50
90.0
 51
180.0
  0
LINE
  5
10890
  8
01
 10
-244.6274859650879
 20
5801.091442738405
 30
0.0
 11
-244.6274859650829
 21
5823.591442738406
 31
0.0
  0
ARC
  5
10891
  8
01
 10
-246.6274859650879
 20
5801.091442738406
 30
0.0
 40
2.0
 50
270.0
 51
0.0
  0
ARC
  5
10892
  8
01
 10
-238.6274859650829
 20
5823.591442738404
 30
0.0
 40
6.0
 50
90.0
 51
180.0
  0
LINE
  5
10893
  8
01
 10
-246.6274859650879
 20
5799.091442738406
 30
0.0
 11
-258.6274859650879
 21
5799.091442738409
 31
0.0
  0
ARC
  5
10894
  8
01
 10
-258.6274859650879
 20
5801.091442738409
 30
0.0
 40
2.0
 50
180.0
 51
270.0
  0
LINE
  5
10895
  8
01
 10
-324.9838823035622
 20
5930.835036082055
 30
0.0
 11
-349.9838823035624
 21
5930.835037174818
 31
0.0
  0
LINE
  5
10896
  8
01
 10
-329.7335312184395
 20
5931.135038455181
 30
0.0
 11
-329.7335317429769
 21
5943.135038455181
 31
0.0
  0
LINE
  5
10897
  8
01
 10
-345.233531742976
 20
5943.135037777651
 30
0.0
 11
-345.2335312184395
 21
5931.135037777651
 31
0.0
  0
LINE
  5
10898
  8
01
 10
-324.9838823035622
 20
5943.435037775056
 30
0.0
 11
-324.9838823035622
 21
5982.435037775056
 31
0.0
  0
ARC
  5
10899
  8
01
 10
-325.9838823035622
 20
5982.435037775056
 30
0.0
 40
1.0
 50
0.0
 51
90.0
  0
LINE
  5
1089A
  8
01
 10
-349.9838823035615
 20
5943.43503777506
 30
0.0
 11
-349.9838823035624
 21
5982.435037775056
 31
0.0
  0
ARC
  5
1089B
  8
01
 10
-348.9838823035624
 20
5982.435037775056
 30
0.0
 40
1.0
 50
90.0
 51
180.0
  0
LINE
  5
1089C
  8
01
 10
-325.9838823035622
 20
5983.435037775056
 30
0.0
 11
-348.9838823035624
 21
5983.43503777506
 31
0.0
  0
LINE
  5
1089D
  8
01
 10
-349.9838823035615
 20
5943.43503777506
 30
0.0
 11
-324.9838823035622
 21
5943.435037775056
 31
0.0
  0
LINE
  5
1089E
  8
1CENTER
 10
-342.743637149725
 20
5958.735126511983
 30
0.0
 11
-331.8689489584111
 21
5958.734991174646
 31
0.0
  0
LINE
  5
1089F
  8
01
 10
-348.4841831336761
 20
5943.135037777651
 30
0.0
 11
-348.4841831336761
 21
5943.43503777506
 31
0.0
  0
LINE
  5
108A0
  8
01
 10
-326.4841831336759
 20
5943.435037775056
 30
0.0
 11
-326.4841831336759
 21
5943.135037777653
 31
0.0
  0
LINE
  5
108A1
  8
01
 10
-348.4841831336761
 20
5943.135037777651
 30
0.0
 11
-326.4841831336759
 21
5943.135037777653
 31
0.0
  0
LINE
  5
108A2
  8
01
 10
-324.9838823035622
 20
5930.835036082055
 30
0.0
 11
-324.9838823035624
 21
5891.835035960696
 31
0.0
  0
LINE
  5
108A3
  8
1CENTER
 10
-337.4838823035642
 20
5989.136367446497
 30
0.0
 11
-337.4838823035612
 21
5884.120993988376
 31
0.0
  0
LINE
  5
108A4
  8
01
 10
-349.9838823035624
 20
5930.835037174818
 30
0.0
 11
-349.9838823035615
 21
5891.835035960696
 31
0.0
  0
LINE
  5
108A5
  8
01
 10
-348.4841831336761
 20
5931.135035947875
 30
0.0
 11
-348.4841831336761
 21
5930.835037109266
 31
0.0
  0
LINE
  5
108A6
  8
01
 10
-326.4841831336759
 20
5930.835036147633
 30
0.0
 11
-326.4841831336759
 21
5931.135035947875
 31
0.0
  0
LINE
  5
108A7
  8
01
 10
-348.4841831336761
 20
5931.135035947875
 30
0.0
 11
-326.4841831336759
 21
5931.135035947875
 31
0.0
  0
LINE
  5
108A8
  8
1PHANTOM
 10
-280.1145868570449
 20
5943.135037787875
 30
0.0
 11
-387.9400649942769
 21
5943.135037787875
 31
0.0
  0
LINE
  5
108A9
  8
1PHANTOM
 10
-280.1145868570449
 20
5931.135035958099
 30
0.0
 11
-388.7394151272684
 21
5931.135035958099
 31
0.0
  0
ARC
  5
108AA
  8
01
 10
-325.9838823035622
 20
5891.835035960696
 30
0.0
 40
1.0
 50
270.0
 51
0.0
  0
ARC
  5
108AB
  8
01
 10
-348.9838823035624
 20
5891.835035960696
 30
0.0
 40
1.0
 50
180.0
 51
270.0
  0
LINE
  5
108AC
  8
01
 10
-325.9838823035622
 20
5890.835035960694
 30
0.0
 11
-348.9838823035624
 21
5890.835035960692
 31
0.0
  0
LINE
  5
108AD
  8
1PHANTOM
 10
-208.3274869055771
 20
5809.315930379707
 30
0.0
 11
-208.3274869055771
 21
5868.952371942092
 31
0.0
  0
LINE
  5
108AE
  8
1PHANTOM
 10
-220.327485954855
 20
5809.315930379707
 30
0.0
 11
-220.327485954855
 21
5868.952371942092
 31
0.0
  0
LINE
  5
108B5
  8
1HIDDEN
 10
-330.4838823035626
 20
5950.435140359287
 30
0.0
 11
-330.4838823035626
 21
5949.23513337902
 31
0.0
  0
LINE
  5
108B6
  8
1HIDDEN
 10
-340.9088823035637
 20
5946.935133379016
 30
0.0
 11
-340.9088823035637
 21
5914.235133379019
 31
0.0
  0
LINE
  5
108B7
  8
1HIDDEN
 10
-334.0588823035615
 20
5946.935133379017
 30
0.0
 11
-334.0588823035615
 21
5914.235133379019
 31
0.0
  0
LINE
  5
108B8
  8
1HIDDEN
 10
-341.4838823035644
 20
5946.935133379016
 30
0.0
 11
-341.4838823035626
 21
5914.810133379019
 31
0.0
  0
LINE
  5
108B9
  8
1HIDDEN
 10
-333.4838823035626
 20
5946.935133379017
 30
0.0
 11
-333.4838823035626
 21
5914.810133379019
 31
0.0
  0
ARC
  5
108BA
  8
1HIDDEN
 10
-334.4838823035626
 20
5950.435140359287
 30
0.0
 40
4.0
 50
0.0
 51
90.00013331542084
  0
LINE
  5
108BB
  8
1HIDDEN
 10
-340.483891610742
 20
5954.435126398507
 30
0.0
 11
-334.483891610742
 21
5954.435140359276
 31
0.0
  0
ARC
  5
108BC
  8
1HIDDEN
 10
-340.4838823035626
 20
5950.435126398518
 30
0.0
 40
4.0
 50
90.00013331542084
 51
180.0
  0
LINE
  5
108BD
  8
1HIDDEN
 10
-344.4838823035626
 20
5950.435126398518
 30
0.0
 11
-344.4838823035626
 21
5949.23513337902
 31
0.0
  0
LINE
  5
108BE
  8
1HIDDEN
 10
-343.8838319560892
 20
5946.935133379017
 30
0.0
 11
-343.8838319560911
 21
5949.23513337902
 31
0.0
  0
LINE
  5
108BF
  8
1HIDDEN
 10
-331.08383195609
 20
5949.23513337902
 30
0.0
 11
-331.08383195609
 21
5946.935133379017
 31
0.0
  0
LINE
  5
108C0
  8
1HIDDEN
 10
-343.8838319560892
 20
5946.935133379017
 30
0.0
 11
-331.08383195609
 21
5946.935133379017
 31
0.0
  0
LINE
  5
108C1
  8
1HIDDEN
 10
-330.4838823035626
 20
5949.23513337902
 30
0.0
 11
-344.4838823035626
 21
5949.23513337902
 31
0.0
  0
LINE
  5
108C2
  8
1HIDDEN
 10
-334.0588823035615
 20
5914.235133379019
 30
0.0
 11
-340.9088823035637
 21
5914.235133379019
 31
0.0
  0
LINE
  5
108C3
  8
1HIDDEN
 10
-337.3842772331847
 20
5949.23513337902
 30
0.0
 11
-337.1163280407546
 21
5946.935133379017
 31
0.0
  0
LINE
  5
108C4
  8
1HIDDEN
 10
-337.8345878834208
 20
5949.23513337902
 30
0.0
 11
-337.5666386909908
 21
5946.935133379017
 31
0.0
  0
LINE
  5
108C5
  8
1HIDDEN
 10
-334.0588823035615
 20
5914.235133379019
 30
0.0
 11
-333.4838823035626
 21
5914.810133379019
 31
0.0
  0
LINE
  5
108C6
  8
1HIDDEN
 10
-340.9088823035637
 20
5914.235133379019
 30
0.0
 11
-341.4838823035626
 21
5914.810133379019
 31
0.0
  0
LINE
  5
108C7
  8
1HIDDEN
 10
-333.4838823035626
 20
5914.810133379019
 30
0.0
 11
-341.4838823035626
 21
5914.810133379019
 31
0.0
  0
TEXT
  5
108D3
  8
1TEXT
 10
-232.6874264494926
 20
5986.132355528862
 30
0.0
 40
7.9999999992
  1
SH-016-XX-5
 41
0.8
  0
LINE
  5
108D4
  8
1DIM
 10
-232.6874264494926
 20
5974.132355530061
 30
0.0
 11
-197.6874264529928
 21
5974.132355530061
 31
0.0
  0
LINE
  5
108D5
  8
1DIM
 10
-197.6874264529923
 20
5974.132355530061
 30
0.0
 11
-162.6874264564925
 21
5974.132355530061
 31
0.0
  0
TEXT
  5
108D6
  8
1TEXT
 10
-230.4966857089708
 20
5975.632355529911
 30
0.0
 40
3.9999999996
  1
Finish:Leg
 72
     1
 11
-215.1874264512425
 21
5975.632355529911
 31
0.0
  0
LINE
  5
108D7
  8
1DIM
 10
-232.6874264494926
 20
5981.132355529362
 30
0.0
 11
-197.6874264529923
 21
5981.132355529362
 31
0.0
  0
LINE
  5
108D8
  8
1DIM
 10
-197.6874264529923
 20
5981.132355529362
 30
0.0
 11
-162.6874264564925
 21
5981.132355529362
 31
0.0
  0
TEXT
  5
108D9
  8
1TEXT
 10
-187.6207597873321
 20
5975.632355529911
 30
0.0
 40
3.9999999996
  1
Code
 72
     1
 11
-180.2874264547321
 21
5975.632355529911
 31
0.0
  0
LINE
  5
108DA
  8
1DIM
 10
-197.6874264529923
 20
5967.132355530761
 30
0.0
 11
-162.6874264564925
 21
5967.132355530762
 31
0.0
  0
LINE
  5
108DC
  8
1DIM
 10
-197.6874264529923
 20
5981.132355529362
 30
0.0
 11
-197.6874264529932
 21
5953.13235553216
 31
0.0
  0
LINE
  5
108DD
  8
1DIM
 10
-232.6874264494926
 20
5981.132355529362
 30
0.0
 11
-232.6874264494926
 21
5953.132355532161
 31
0.0
  0
LINE
  5
108DF
  8
1DIM
 10
-232.687426449494
 20
5967.132355530761
 30
0.0
 11
-197.6874264529932
 21
5967.132355530761
 31
0.0
  0
LINE
  5
108E0
  8
1DIM
 10
-162.6874264564921
 20
5981.132355529362
 30
0.0
 11
-162.6874264564921
 21
5953.132355532161
 31
0.0
  0
LINE
  5
108E1
  8
1DIM
 10
-197.6874264529923
 20
5960.132355531461
 30
0.0
 11
-162.6874264564925
 21
5960.132355531461
 31
0.0
  0
LINE
  5
108E4
  8
1DIM
 10
-232.687426449494
 20
5960.132355531461
 30
0.0
 11
-197.6874264529932
 21
5960.13235553146
 31
0.0
  0
LINE
  5
108E5
  8
1DIM
 10
-197.6874264529923
 20
5953.13235553216
 30
0.0
 11
-162.6874264564925
 21
5953.132355532161
 31
0.0
  0
TEXT
  5
108E6
  8
1TEXT
 10
-230.9652968200337
 20
5968.654460510624
 30
0.0
 40
3.9999999996
  1
Blasted Black
 41
0.7
 72
     1
 11
-215.1874264512411
 21
5968.654460510624
 31
0.0
  0
TEXT
  5
108E7
  8
1TEXT
 10
-194.5304820088611
 20
5968.417998546983
 30
0.0
 40
3.9999999996
  1
SH-016-XK-5
 41
0.7
 72
     1
 11
-180.2874264547298
 21
5968.417998546983
 31
0.0
  0
LINE
  5
108E8
  8
1DIM
 10
-232.687426449494
 20
5953.13235553216
 30
0.0
 11
-197.6874264529932
 21
5953.13235553216
 31
0.0
  0
TEXT
  5
10C99
  8
1TEXT
 10
-229.984399001243
 20
5961.95759480244
 30
0.0
 40
3.9999999996
  1
Satin Bronze
 41
0.7
 72
     1
 11
-215.1534730768002
 21
5961.95759480244
 31
0.0
  0
TEXT
  5
10C9A
  8
1TEXT
 10
-194.4965286344202
 20
5961.721132838799
 30
0.0
 40
3.9999999996
  1
SH-016-3U-5
 41
0.7
 72
     1
 11
-180.253473080289
 21
5961.721132838799
 31
0.0
  0
LINE
  5
110C1
  8
1HIDDEN
 10
-194.7275946416553
 20
5837.441442700976
 30
0.0
 11
-194.7275946416553
 21
5831.091442875049
 31
0.0
  0
LINE
  5
110C2
  8
1HIDDEN
 10
-194.7275946416553
 20
5831.091442875049
 30
0.0
 11
-195.7275946416553
 21
5830.091442800976
 31
0.0
  0
LINE
  5
110C3
  8
1HIDDEN
 10
-195.7275946416553
 20
5830.091442800976
 30
0.0
 11
-195.7275946416553
 21
5829.791442700975
 31
0.0
  0
LINE
  5
110C4
  8
1HIDDEN
 10
-195.7275946416553
 20
5829.791442700975
 30
0.0
 11
-189.7275946416553
 21
5829.791442700975
 31
0.0
  0
LINE
  5
110C5
  8
1HIDDEN
 10
-189.7275946416553
 20
5830.091442710976
 30
0.0
 11
-189.7275946416553
 21
5829.791442700975
 31
0.0
  0
LINE
  5
110C6
  8
1HIDDEN
 10
-190.7275946416553
 20
5831.091442875049
 30
0.0
 11
-189.7275945966553
 21
5830.091442755976
 31
0.0
  0
LINE
  5
110C7
  8
1HIDDEN
 10
-190.7275946416553
 20
5837.441442700976
 30
0.0
 11
-190.7275946416553
 21
5831.091442875049
 31
0.0
  0
LINE
  5
110C8
  8
1HIDDEN
 10
-191.0775946416557
 20
5837.791442700975
 30
0.0
 11
-190.7275946416553
 21
5837.441442700975
 31
0.0
  0
LINE
  5
110C9
  8
1HIDDEN
 10
-194.3775946416554
 20
5837.791442700975
 30
0.0
 11
-191.0775946416557
 21
5837.791442700975
 31
0.0
  0
LINE
  5
110CA
  8
1HIDDEN
 10
-194.7275946416553
 20
5837.441442700976
 30
0.0
 11
-194.3775946416554
 21
5837.791442700975
 31
0.0
  0
LINE
  5
110CB
  8
1DIM
 10
-208.3274869055771
 20
5809.315930379707
 30
0.0
 11
-208.3274869055771
 21
5785.962194847684
 31
0.0
1001
ACAD
1000
DSTYLE
1002
{
1070
   271
1070
     0
1002
}
  0
LINE
  5
110CC
  8
1DIM
 10
-184.0274841250774
 20
5801.091442738402
 30
0.0
 11
-184.0274841250774
 21
5785.962194847684
 31
0.0
1001
ACAD
1000
DSTYLE
1002
{
1070
   271
1070
     0
1002
}
  0
LINE
  5
110CD
  8
1DIM
 10
-206.3274869055771
 20
5786.962194847684
 30
0.0
 11
-186.0274841250774
 21
5786.962194847684
 31
0.0
1001
ACAD
1000
DSTYLE
1002
{
1070
   271
1070
     0
1002
}
  0
LINE
  5
110D1
  8
1DIM
 10
-220.327485954855
 20
5809.315930379707
 30
0.0
 11
-220.327485954855
 21
5785.962194847684
 31
0.0
1001
ACAD
1000
DSTYLE
1002
{
1070
   271
1070
     0
1002
}
  0
LINE
  5
110D2
  8
1DIM
 10
-244.6274859650879
 20
5801.091442738405
 30
0.0
 11
-244.6274859650879
 21
5785.962194847684
 31
0.0
1001
ACAD
1000
DSTYLE
1002
{
1070
   271
1070
     0
1002
}
  0
LINE
  5
110D3
  8
1DIM
 10
-222.327485954855
 20
5786.962194847684
 30
0.0
 11
-242.6274859650879
 21
5786.962194847684
 31
0.0
1001
ACAD
1000
DSTYLE
1002
{
1070
   271
1070
     0
1002
}
  0
LINE
  5
110D7
  8
1DIM
 10
-258.6274859650883
 20
5799.091442738409
 30
0.0
 11
-281.2561321130414
 21
5799.091442738409
 31
0.0
  0
LINE
  5
110D8
  8
1DIM
 10
-258.6274859650883
 20
5854.591442738409
 30
0.0
 11
-281.2561321130414
 21
5854.591442738409
 31
0.0
  0
LINE
  5
110D9
  8
1DIM
 10
-280.2561321130414
 20
5801.091442738409
 30
0.0
 11
-280.2561321130414
 21
5852.591442738409
 31
0.0
  0
LINE
  5
110DD
  8
1DIM
 10
-170.027484125077
 20
5799.091442738403
 30
0.0
 11
-142.8578683235236
 21
5799.091442738403
 31
0.0
  0
LINE
  5
110DE
  8
1DIM
 10
-170.0274841250806
 20
5854.591442738403
 30
0.0
 11
-142.8578683235236
 21
5854.591442738403
 31
0.0
  0
LINE
  5
110DF
  8
1DIM
 10
-143.8578683235236
 20
5801.091442738403
 30
0.0
 11
-143.8578683235236
 21
5852.591442738403
 31
0.0
  0
TEXT
  5
110E3
  8
1DIM
  6
CONTINUOUS
 10
-274.4645287101449
 20
5921.309343085536
 30
0.0
 40
3.5
  1
Glass door thickness
  0
TEXT
  5
110E4
  8
1DIM
  6
CONTINUOUS
 10
-274.4645287101449
 20
5915.476009752203
 30
0.0
 40
3.5
  1
8~12mm
  0
LINE
  5
110E6
  8
1DIM
 10
-291.5769441923463
 20
5931.768614146964
 30
0.0
 11
-277.1645287101449
 21
5914.776009752202
 31
0.0
1001
ACAD
1000
DSTYLE
1002
{
1070
    40
1040
1.0
1002
}
  0
LINE
  5
110E7
  8
1DIM
 10
-277.1645287101449
 20
5914.776009752202
 30
0.0
 11
-221.7645287101449
 21
5914.776009752202
 31
0.0
1001
ACAD
1000
DSTYLE
1002
{
1070
    40
1040
1.0
1002
}
  0
TEXT
  5
110E8
  8
1DIM
  6
CONTINUOUS
 10
-315.515985335299
 20
5995.891829197104
 30
0.0
 40
3.5
  1
Material：Aluminium
  0
TEXT
  5
110E9
  8
1DIM
  6
CONTINUOUS
 10
-315.515985335299
 20
5990.058495863771
 30
0.0
 40
3.5
  1
Finish：Various Finish
  0
LINE
  5
110EB
  8
1DIM
 10
-323.966837767475
 20
5980.132315328566
 30
0.0
 11
-318.215985335299
 21
5989.35849586377
 31
0.0
1001
ACAD
1000
DSTYLE
1002
{
1070
    40
1040
1.0
1002
}
  0
LINE
  5
110EC
  8
1DIM
 10
-318.215985335299
 20
5989.35849586377
 30
0.0
 11
-262.0493186686323
 21
5989.35849586377
 31
0.0
1001
ACAD
1000
DSTYLE
1002
{
1070
    40
1040
1.0
1002
}
  0
LINE
  5
110ED
  8
1DIM
 10
-345.2338823035647
 20
5943.13503943981
 30
0.0
 11
-320.462622900668
 21
5972.656276826296
 31
0.0
1001
ACAD
1000
DSTYLE
1002
{
1070
    40
1040
1.0
1002
}
  0
LINE
  5
110EE
  8
1DIM
 10
-329.7338823035665
 20
5943.135038762282
 30
0.0
 11
-304.9626223321563
 21
5972.656276826296
 31
0.0
1001
ACAD
1000
DSTYLE
1002
{
1070
    40
1040
1.0
1002
}
  0
LINE
  5
110EF
  8
1DIM
 10
-305.8017219633336
 20
5971.656276826296
 30
0.0
 11
-243.2501091083217
 21
5971.656276826296
 31
0.0
1001
ACAD
1000
DSTYLE
1002
{
1070
    40
1040
1.0
1002
}
  0
LINE
  5
110F0
  8
1DIM
 10
-319.3017225318453
 20
5971.656276826296
 30
0.0
 11
-307.8017219633336
 21
5971.656276826296
 31
0.0
1001
ACAD
1000
DSTYLE
1002
{
1070
    40
1040
1.0
1002
}
  0
TEXT
  5
110F4
  8
1DIM
  6
CONTINUOUS
 10
-401.9881900471317
 20
5963.491568572172
 30
0.0
 40
3.5
  1
Material：Rubber
  0
TEXT
  5
110F5
  8
1DIM
  6
CONTINUOUS
 10
-401.9881900471317
 20
5957.658235238839
 30
0.0
 40
3.5
  1
Finish：Black
  0
LINE
  5
110F7
  8
1DIM
 10
-343.8243750290985
 20
5938.729145140871
 30
0.0
 11
-360.1845540709971
 21
5956.958235238839
 31
0.0
1001
ACAD
1000
DSTYLE
1002
{
1070
    40
1040
1.0
1002
}
  0
LINE
  5
110F8
  8
1DIM
 10
-360.1845540709971
 20
5956.958235238839
 30
0.0
 11
-404.5845540709971
 21
5956.958235238839
 31
0.0
1001
ACAD
1000
DSTYLE
1002
{
1070
    40
1040
1.0
1002
}
  0
TEXT
  5
110F9
  8
1DIM
  6
CONTINUOUS
 10
-312.0155927558457
 20
5902.936168865785
 30
0.0
 40
3.5
  1
Material：Aluminium
  0
TEXT
  5
110FA
  8
1DIM
  6
CONTINUOUS
 10
-312.0155927558457
 20
5897.102835532452
 30
0.0
 40
3.5
  1
Finish：Various Finish
  0
LINE
  5
110FC
  8
1DIM
 10
-327.1746542971691
 20
5911.276565689359
 30
0.0
 11
-314.7155927558456
 21
5896.402835532452
 31
0.0
1001
ACAD
1000
DSTYLE
1002
{
1070
    40
1040
1.0
1002
}
  0
LINE
  5
110FD
  8
1DIM
 10
-314.7155927558456
 20
5896.402835532452
 30
0.0
 11
-258.548926089179
 21
5896.402835532452
 31
0.0
1001
ACAD
1000
DSTYLE
1002
{
1070
    40
1040
1.0
1002
}
  0
LINE
  5
110FE
  8
1DIM
 10
-170.0274841250806
 20
5854.591442738403
 30
0.0
 11
-151.7478813951428
 21
5854.591442738403
 31
0.0
  0
LINE
  5
110FF
  8
1DIM
 10
-190.0274841250797
 20
5829.5914427384
 30
0.0
 11
-151.7478813951428
 21
5829.5914427384
 31
0.0
  0
LINE
  5
11100
  8
1DIM
 10
-152.7478813951428
 20
5852.591442738403
 30
0.0
 11
-152.7478813951428
 21
5831.5914427384
 31
0.0
  0
LINE
  5
11104
  8
1DIM
 10
-349.9838823035697
 20
5853.5914427384
 30
0.0
 11
-349.9838823035697
 21
5873.982723238219
 31
0.0
  0
LINE
  5
11105
  8
1DIM
 10
-324.9838823035651
 20
5853.5914427384
 30
0.0
 11
-324.9838823035651
 21
5873.982723238219
 31
0.0
  0
LINE
  5
11106
  8
1DIM
 10
-347.9838823035697
 20
5872.982723238219
 30
0.0
 11
-326.9838823035651
 21
5872.982723238219
 31
0.0
  0
LINE
  5
1110A
  8
1DIM
 10
-260.6274859650779
 20
5852.591442738409
 30
0.0
 11
-260.6274859650779
 21
5873.982723238219
 31
0.0
1001
ACAD
1000
DSTYLE
1002
{
1070
    40
1040
1.0
1070
   271
1070
     0
1002
}
  0
LINE
  5
1110B
  8
1DIM
 10
-220.327485954855
 20
5868.952371942092
 30
0.0
 11
-220.327485954855
 21
5873.982723238219
 31
0.0
1001
ACAD
1000
DSTYLE
1002
{
1070
    40
1040
1.0
1070
   271
1070
     0
1002
}
  0
LINE
  5
1110C
  8
1DIM
 10
-258.6274859650779
 20
5872.982723238219
 30
0.0
 11
-222.327485954855
 21
5872.982723238219
 31
0.0
1001
ACAD
1000
DSTYLE
1002
{
1070
    40
1040
1.0
1070
   271
1070
     0
1002
}
  0
LINE
  5
11110
  8
1DIM
 10
-208.3274869055771
 20
5868.952371942092
 30
0.0
 11
-208.3274869055771
 21
5873.982723238219
 31
0.0
1001
ACAD
1000
DSTYLE
1002
{
1070
    40
1040
1.0
1070
   271
1070
     0
1002
}
  0
LINE
  5
11111
  8
1DIM
 10
-168.0274841250802
 20
5852.591442738403
 30
0.0
 11
-168.0274841250802
 21
5873.982723238219
 31
0.0
1001
ACAD
1000
DSTYLE
1002
{
1070
    40
1040
1.0
1070
   271
1070
     0
1002
}
  0
LINE
  5
11112
  8
1DIM
 10
-206.3274869055771
 20
5872.982723238219
 30
0.0
 11
-170.0274841250802
 21
5872.982723238219
 31
0.0
1001
ACAD
1000
DSTYLE
1002
{
1070
    40
1040
1.0
1070
   271
1070
     0
1002
}
  0
LINE
  5
11116
  8
0
  6
BYBLOCK
 10
-206.3274869055771
 20
5786.426296847684
 30
0.0
 11
-208.3274869055771
 21
5786.962194847684
 31
0.0
  0
LINE
  5
11117
  8
0
  6
BYBLOCK
 10
-208.3274869055771
 20
5786.962194847684
 30
0.0
 11
-206.3274869055771
 21
5787.498092847684
 31
0.0
  0
LINE
  5
11118
  8
0
  6
BYBLOCK
 10
-208.3274869055771
 20
5786.962194847684
 30
0.0
 11
-206.3274869055771
 21
5786.962194847684
 31
0.0
  0
LINE
  5
11119
  8
0
  6
BYBLOCK
 10
-186.0274841250774
 20
5787.498092847684
 30
0.0
 11
-184.0274841250774
 21
5786.962194847684
 31
0.0
  0
LINE
  5
1111A
  8
0
  6
BYBLOCK
 10
-184.0274841250774
 20
5786.962194847684
 30
0.0
 11
-186.0274841250774
 21
5786.426296847684
 31
0.0
  0
LINE
  5
1111B
  8
0
  6
BYBLOCK
 10
-184.0274841250774
 20
5786.962194847684
 30
0.0
 11
-186.0274841250774
 21
5786.962194847684
 31
0.0
  0
TEXT
  5
1111C
  8
1DIM
  6
CONTINUOUS
 10
-199.0941521819939
 20
5787.662194847684
 30
0.0
 40
3.5
  1
24
1001
ACAD
1000
DSTYLE
1002
{
1070
   271
1070
     0
1002
}
  0
LINE
  5
1111D
  8
0
  6
BYBLOCK
 10
-222.327485954855
 20
5787.498092847684
 30
0.0
 11
-220.327485954855
 21
5786.962194847684
 31
0.0
  0
LINE
  5
1111E
  8
0
  6
BYBLOCK
 10
-220.327485954855
 20
5786.962194847684
 30
0.0
 11
-222.327485954855
 21
5786.426296847684
 31
0.0
  0
LINE
  5
1111F
  8
0
  6
BYBLOCK
 10
-220.327485954855
 20
5786.962194847684
 30
0.0
 11
-222.327485954855
 21
5786.962194847684
 31
0.0
  0
LINE
  5
11120
  8
0
  6
BYBLOCK
 10
-242.6274859650879
 20
5786.426296847684
 30
0.0
 11
-244.6274859650879
 21
5786.962194847684
 31
0.0
  0
LINE
  5
11121
  8
0
  6
BYBLOCK
 10
-244.6274859650879
 20
5786.962194847684
 30
0.0
 11
-242.6274859650879
 21
5787.498092847684
 31
0.0
  0
LINE
  5
11122
  8
0
  6
BYBLOCK
 10
-244.6274859650879
 20
5786.962194847684
 30
0.0
 11
-242.6274859650879
 21
5786.962194847684
 31
0.0
  0
TEXT
  5
11123
  8
1DIM
  6
CONTINUOUS
 10
-235.3941526266381
 20
5787.662194847684
 30
0.0
 40
3.5
  1
24
1001
ACAD
1000
DSTYLE
1002
{
1070
   271
1070
     0
1002
}
  0
LINE
  5
11124
  8
0
  6
BYBLOCK
 10
-279.7202341130414
 20
5801.091442738409
 30
0.0
 11
-280.2561321130414
 21
5799.091442738409
 31
0.0
  0
LINE
  5
11125
  8
0
  6
BYBLOCK
 10
-280.2561321130414
 20
5799.091442738409
 30
0.0
 11
-280.7920301130414
 21
5801.091442738409
 31
0.0
  0
LINE
  5
11126
  8
0
  6
BYBLOCK
 10
-280.2561321130414
 20
5799.091442738409
 30
0.0
 11
-280.2561321130414
 21
5801.091442738409
 31
0.0
  0
LINE
  5
11127
  8
0
  6
BYBLOCK
 10
-280.7920301130414
 20
5852.591442738409
 30
0.0
 11
-280.2561321130414
 21
5854.591442738409
 31
0.0
  0
LINE
  5
11128
  8
0
  6
BYBLOCK
 10
-280.2561321130414
 20
5854.591442738409
 30
0.0
 11
-279.7202341130414
 21
5852.591442738409
 31
0.0
  0
LINE
  5
11129
  8
0
  6
BYBLOCK
 10
-280.2561321130414
 20
5854.591442738409
 30
0.0
 11
-280.2561321130414
 21
5852.591442738409
 31
0.0
  0
TEXT
  5
1112A
  8
1DIM
  6
CONTINUOUS
 10
-280.9561321130413
 20
5821.567137182853
 30
0.0
 40
3.5
  1
55.5
 50
90.0
  0
LINE
  5
1112B
  8
0
  6
BYBLOCK
 10
-143.3219703235236
 20
5801.091442738403
 30
0.0
 11
-143.8578683235236
 21
5799.091442738403
 31
0.0
  0
LINE
  5
1112C
  8
0
  6
BYBLOCK
 10
-143.8578683235236
 20
5799.091442738403
 30
0.0
 11
-144.3937663235236
 21
5801.091442738403
 31
0.0
  0
LINE
  5
1112D
  8
0
  6
BYBLOCK
 10
-143.8578683235236
 20
5799.091442738403
 30
0.0
 11
-143.8578683235236
 21
5801.091442738403
 31
0.0
  0
LINE
  5
1112E
  8
0
  6
BYBLOCK
 10
-144.3937663235236
 20
5852.591442738403
 30
0.0
 11
-143.8578683235236
 21
5854.591442738403
 31
0.0
  0
LINE
  5
1112F
  8
0
  6
BYBLOCK
 10
-143.8578683235236
 20
5854.591442738403
 30
0.0
 11
-143.3219703235236
 21
5852.591442738403
 31
0.0
  0
LINE
  5
11130
  8
0
  6
BYBLOCK
 10
-143.8578683235236
 20
5854.591442738403
 30
0.0
 11
-143.8578683235236
 21
5852.591442738403
 31
0.0
  0
TEXT
  5
11131
  8
1DIM
  6
CONTINUOUS
 10
-144.5578683235235
 20
5821.567137182848
 30
0.0
 40
3.5
  1
55.5
 50
90.0
  0
LINE
  5
11132
  8
0
  6
BYBLOCK
 10
-291.9856371792511
 20
5931.421977869493
 30
0.0
 11
-292.870609320676
 21
5933.293878234178
 31
0.0
  0
LINE
  5
11133
  8
0
  6
BYBLOCK
 10
-292.870609320676
 20
5933.293878234178
 30
0.0
 11
-291.1682512054415
 21
5932.115250424436
 31
0.0
  0
LINE
  5
11134
  8
0
  6
BYBLOCK
 10
-292.870609320676
 20
5933.293878234178
 30
0.0
 11
-291.5769441923463
 21
5931.768614146964
 31
0.0
  0
LINE
  5
11135
  8
0
  6
BYBLOCK
 10
-323.5120538867238
 20
5979.848839953598
 30
0.0
 11
-325.0247830293243
 21
5978.435037560217
 31
0.0
  0
LINE
  5
11136
  8
0
  6
BYBLOCK
 10
-325.0247830293243
 20
5978.435037560217
 30
0.0
 11
-324.4216216482263
 21
5980.415790703533
 31
0.0
  0
LINE
  5
11137
  8
0
  6
BYBLOCK
 10
-325.0247830293243
 20
5978.435037560217
 30
0.0
 11
-323.966837767475
 21
5980.132315328566
 31
0.0
  0
LINE
  5
11138
  8
0
  6
BYBLOCK
 10
-319.3017225318453
 20
5971.120378826296
 30
0.0
 11
-321.3017225318453
 21
5971.656276826296
 31
0.0
  0
LINE
  5
11139
  8
0
  6
BYBLOCK
 10
-321.3017225318453
 20
5971.656276826296
 30
0.0
 11
-319.3017225318453
 21
5972.192174826296
 31
0.0
  0
LINE
  5
1113A
  8
0
  6
BYBLOCK
 10
-321.3017225318453
 20
5971.656276826296
 30
0.0
 11
-319.3017225318453
 21
5971.656276826296
 31
0.0
  0
LINE
  5
1113B
  8
0
  6
BYBLOCK
 10
-307.8017219633336
 20
5972.192174826296
 30
0.0
 11
-305.8017219633336
 21
5971.656276826296
 31
0.0
  0
LINE
  5
1113C
  8
0
  6
BYBLOCK
 10
-305.8017219633336
 20
5971.656276826296
 30
0.0
 11
-307.8017219633336
 21
5971.120378826296
 31
0.0
  0
LINE
  5
1113D
  8
0
  6
BYBLOCK
 10
-305.8017219633336
 20
5971.656276826296
 30
0.0
 11
-307.8017219633336
 21
5971.656276826296
 31
0.0
  0
TEXT
  5
1113E
  8
1DIM
  6
CONTINUOUS
 10
-304.3902479972106
 20
5973.522943492962
 30
0.0
 40
3.5
  1
Glass door hole processing:φ16
 41
0.7
1001
ACAD
1000
DSTYLE
1002
{
1070
    40
1040
1.0
1002
}
  0
LINE
  5
1113F
  8
0
  6
BYBLOCK
 10
-343.4255451172382
 20
5939.087085593753
 30
0.0
 11
-342.4885221134979
 21
5937.240690577278
 31
0.0
  0
LINE
  5
11140
  8
0
  6
BYBLOCK
 10
-342.4885221134979
 20
5937.240690577278
 30
0.0
 11
-344.2232049409587
 21
5938.371204687989
 31
0.0
  0
LINE
  5
11141
  8
0
  6
BYBLOCK
 10
-342.4885221134979
 20
5937.240690577278
 30
0.0
 11
-343.8243750290985
 21
5938.729145140871
 31
0.0
  0
LINE
  5
11142
  8
0
  6
BYBLOCK
 10
-327.5854679668813
 20
5910.932445368568
 30
0.0
 11
-328.4589297405986
 21
5912.80974427824
 31
0.0
  0
LINE
  5
11143
  8
0
  6
BYBLOCK
 10
-328.4589297405986
 20
5912.80974427824
 30
0.0
 11
-326.763840627457
 21
5911.62068601015
 31
0.0
  0
LINE
  5
11144
  8
0
  6
BYBLOCK
 10
-328.4589297405986
 20
5912.80974427824
 30
0.0
 11
-327.1746542971691
 21
5911.276565689359
 31
0.0
  0
LINE
  5
11145
  8
0
  6
BYBLOCK
 10
-153.2837793951428
 20
5852.591442738403
 30
0.0
 11
-152.7478813951428
 21
5854.591442738403
 31
0.0
  0
LINE
  5
11146
  8
0
  6
BYBLOCK
 10
-152.7478813951428
 20
5854.591442738403
 30
0.0
 11
-152.2119833951428
 21
5852.591442738403
 31
0.0
  0
LINE
  5
11147
  8
0
  6
BYBLOCK
 10
-152.7478813951428
 20
5854.591442738403
 30
0.0
 11
-152.7478813951428
 21
5852.591442738403
 31
0.0
  0
LINE
  5
11148
  8
0
  6
BYBLOCK
 10
-152.2119833951428
 20
5831.5914427384
 30
0.0
 11
-152.7478813951428
 21
5829.5914427384
 31
0.0
  0
LINE
  5
11149
  8
0
  6
BYBLOCK
 10
-152.7478813951428
 20
5829.5914427384
 30
0.0
 11
-153.2837793951428
 21
5831.5914427384
 31
0.0
  0
LINE
  5
1114A
  8
0
  6
BYBLOCK
 10
-152.7478813951428
 20
5829.5914427384
 30
0.0
 11
-152.7478813951428
 21
5831.5914427384
 31
0.0
  0
TEXT
  5
1114B
  8
1DIM
  6
CONTINUOUS
 10
-153.4478813951418
 20
5839.174776071734
 30
0.0
 40
3.5
  1
25
 50
90.0
  0
LINE
  5
1114C
  8
0
  6
BYBLOCK
 10
-347.9838823035697
 20
5872.446825238219
 30
0.0
 11
-349.9838823035697
 21
5872.982723238219
 31
0.0
  0
LINE
  5
1114D
  8
0
  6
BYBLOCK
 10
-349.9838823035697
 20
5872.982723238219
 30
0.0
 11
-347.9838823035697
 21
5873.51862123822
 31
0.0
  0
LINE
  5
1114E
  8
0
  6
BYBLOCK
 10
-349.9838823035697
 20
5872.982723238219
 30
0.0
 11
-347.9838823035697
 21
5872.982723238219
 31
0.0
  0
LINE
  5
1114F
  8
0
  6
BYBLOCK
 10
-326.9838823035651
 20
5873.51862123822
 30
0.0
 11
-324.9838823035651
 21
5872.982723238219
 31
0.0
  0
LINE
  5
11150
  8
0
  6
BYBLOCK
 10
-324.9838823035651
 20
5872.982723238219
 30
0.0
 11
-326.9838823035651
 21
5872.446825238219
 31
0.0
  0
LINE
  5
11151
  8
0
  6
BYBLOCK
 10
-324.9838823035651
 20
5872.982723238219
 30
0.0
 11
-326.9838823035651
 21
5872.982723238219
 31
0.0
  0
TEXT
  5
11152
  8
1DIM
  6
CONTINUOUS
 10
-340.4005489702341
 20
5873.682723238218
 30
0.0
 40
3.5
  1
25
  0
LINE
  5
11153
  8
0
  6
BYBLOCK
 10
-258.6274859650779
 20
5872.446825238219
 30
0.0
 11
-260.6274859650779
 21
5872.982723238219
 31
0.0
  0
LINE
  5
11154
  8
0
  6
BYBLOCK
 10
-260.6274859650779
 20
5872.982723238219
 30
0.0
 11
-258.6274859650779
 21
5873.51862123822
 31
0.0
  0
LINE
  5
11155
  8
0
  6
BYBLOCK
 10
-260.6274859650779
 20
5872.982723238219
 30
0.0
 11
-258.6274859650779
 21
5872.982723238219
 31
0.0
  0
LINE
  5
11156
  8
0
  6
BYBLOCK
 10
-222.327485954855
 20
5873.51862123822
 30
0.0
 11
-220.327485954855
 21
5872.982723238219
 31
0.0
  0
LINE
  5
11157
  8
0
  6
BYBLOCK
 10
-220.327485954855
 20
5872.982723238219
 30
0.0
 11
-222.327485954855
 21
5872.446825238219
 31
0.0
  0
LINE
  5
11158
  8
0
  6
BYBLOCK
 10
-220.327485954855
 20
5872.982723238219
 30
0.0
 11
-222.327485954855
 21
5872.982723238219
 31
0.0
  0
TEXT
  5
11159
  8
1DIM
  6
CONTINUOUS
 10
-243.1754026266331
 20
5873.682723238219
 30
0.0
 40
3.5
  1
40
1001
ACAD
1000
DSTYLE
1002
{
1070
    40
1040
1.0
1070
   271
1070
     0
1002
}
  0
LINE
  5
1115A
  8
0
  6
BYBLOCK
 10
-206.3274869055771
 20
5872.446825238219
 30
0.0
 11
-208.3274869055771
 21
5872.982723238219
 31
0.0
  0
LINE
  5
1115B
  8
0
  6
BYBLOCK
 10
-208.3274869055771
 20
5872.982723238219
 30
0.0
 11
-206.3274869055771
 21
5873.51862123822
 31
0.0
  0
LINE
  5
1115C
  8
0
  6
BYBLOCK
 10
-208.3274869055771
 20
5872.982723238219
 30
0.0
 11
-206.3274869055771
 21
5872.982723238219
 31
0.0
  0
LINE
  5
1115D
  8
0
  6
BYBLOCK
 10
-170.0274841250802
 20
5873.51862123822
 30
0.0
 11
-168.0274841250802
 21
5872.982723238219
 31
0.0
  0
LINE
  5
1115E
  8
0
  6
BYBLOCK
 10
-168.0274841250802
 20
5872.982723238219
 30
0.0
 11
-170.0274841250802
 21
5872.446825238219
 31
0.0
  0
LINE
  5
1115F
  8
0
  6
BYBLOCK
 10
-168.0274841250802
 20
5872.982723238219
 30
0.0
 11
-170.0274841250802
 21
5872.982723238219
 31
0.0
  0
TEXT
  5
11160
  8
1DIM
  6
CONTINUOUS
 10
-190.8754021819953
 20
5873.682723238219
 30
0.0
 40
3.5
  1
40
1001
ACAD
1000
DSTYLE
1002
{
1070
    40
1040
1.0
1070
   271
1070
     0
1002
}
  0
VIEWPORT
  5
F74B
 67
     1
  8
0
 10
0.0
 20
0.0
 30
0.0
 40
667.0958549222798
 41
297.0
 68
     1
 69
     1
1001
ACAD
1000
MVIEW
1002
{
1070
    16
1010
0.0
1020
0.0
1030
0.0
1010
0.0
1020
0.0
1030
1.0
1040
0.0
1040
297.0
1040
-4.300000000000011
1040
12.7999999999999
1040
50.0
1040
0.0
1040
0.0
1070
    16
1070
   100
1070
     0
1070
     3
1070
     0
1070
     0
1070
     0
1070
     0
1040
0.0
1040
0.0
1040
0.0
1040
10.0
1040
10.0
1040
10.0
1040
10.0
1070
     0
1002
{
1002
}
1002
}
  0
ENDSEC
  0
EOF
