  0
SECTION
  2
HEADER
  9
$ACADVER
  1
AC1009
  9
$DWGCODEPAGE
  3
ansi_932
  9
$INSBASE
 10
0.0
 20
0.0
 30
0.0
  9
$EXTMIN
 10
-2067.962961233775
 20
5712.115064191494
 30
0.0
  9
$EXTMAX
 10
-1348.515345500189
 20
6163.990925484823
 30
0.0
  9
$LIMMIN
 10
0.0
 20
0.0
  9
$LIMMAX
 10
420.0
 20
297.0
  9
$ORTHOMODE
 70
     0
  9
$REGENMODE
 70
     1
  9
$FILLMODE
 70
     1
  9
$QTEXTMODE
 70
     0
  9
$MIRRTEXT
 70
     0
  9
$DRAGMODE
 70
     2
  9
$LTSCALE
 40
0.5
  9
$OSMODE
 70
  2815
  9
$ATTMODE
 70
     1
  9
$TEXTSIZE
 40
2.0
  9
$TRACEWID
 40
1.0
  9
$TEXTSTYLE
  7
STANDARD
  9
$CLAYER
  8
1TEXT
  9
$CELTYPE
  6
BYLAYER
  9
$CECOLOR
 62
   256
  9
$DIMSCALE
 40
1.0
  9
$DIMASZ
 40
2.0
  9
$DIMEXO
 40
0.0
  9
$DIMDLI
 40
7.0
  9
$DIMRND
 40
0.0
  9
$DIMDLE
 40
0.0
  9
$DIMEXE
 40
1.0
  9
$DIMTP
 40
0.0
  9
$DIMTM
 40
0.0
  9
$DIMTXT
 40
3.5
  9
$DIMCEN
 40
0.0
  9
$DIMTSZ
 40
0.0
  9
$DIMTOL
 70
     0
  9
$DIMLIM
 70
     0
  9
$DIMTIH
 70
     0
  9
$DIMTOH
 70
     0
  9
$DIMSE1
 70
     0
  9
$DIMSE2
 70
     0
  9
$DIMTAD
 70
     1
  9
$DIMZIN
 70
     8
  9
$DIMBLK
  1

  9
$DIMASO
 70
     1
  9
$DIMSHO
 70
     1
  9
$DIMPOST
  1
 
  9
$DIMAPOST
  1

  9
$DIMALT
 70
     0
  9
$DIMALTD
 70
     2
  9
$DIMALTF
 40
25.4
  9
$DIMLFAC
 40
1.0
  9
$DIMTOFL
 70
     1
  9
$DIMTVP
 40
0.0
  9
$DIMTIX
 70
     0
  9
$DIMSOXD
 70
     0
  9
$DIMSAH
 70
     1
  9
$DIMBLK1
  1
OPEN30
  9
$DIMBLK2
  1
OPEN30
  9
$DIMSTYLE
  2
NEWX10
  9
$DIMCLRD
 70
   256
  9
$DIMCLRE
 70
   256
  9
$DIMCLRT
 70
   201
  9
$DIMTFAC
 40
0.7
  9
$DIMGAP
 40
0.7
  9
$LUNITS
 70
     2
  9
$LUPREC
 70
     4
  9
$SKETCHINC
 40
1.0
  9
$FILLETRAD
 40
0.3
  9
$AUNITS
 70
     0
  9
$AUPREC
 70
     2
  9
$MENU
  1
acad
  9
$ELEVATION
 40
0.0
  9
$PELEVATION
 40
0.0
  9
$THICKNESS
 40
0.0
  9
$LIMCHECK
 70
     0
  9
$CHAMFERA
 40
1.0
  9
$CHAMFERB
 40
1.0
  9
$SKPOLY
 70
     0
  9
$TDCREATE
 40
2459653.47493669
  9
$TDUPDATE
 40
2459781.587833947
  9
$TDINDWG
 40
0.0163383565
  9
$TDUSRTIMER
 40
0.0163383565
  9
$USRTIMER
 70
     1
  9
$ANGBASE
 50
0.0
  9
$ANGDIR
 70
     0
  9
$PDMODE
 70
     0
  9
$PDSIZE
 40
0.0
  9
$PLINEWID
 40
0.0
  9
$COORDS
 70
     2
  9
$SPLFRAME
 70
     0
  9
$SPLINETYPE
 70
     6
  9
$SPLINESEGS
 70
     8
  9
$ATTDIA
 70
     0
  9
$ATTREQ
 70
     1
  9
$HANDLING
 70
     1
  9
$HANDSEED
  5
1144D
  9
$SURFTAB1
 70
     6
  9
$SURFTAB2
 70
     6
  9
$SURFTYPE
 70
     6
  9
$SURFU
 70
     6
  9
$SURFV
 70
     6
  9
$UCSNAME
  2

  9
$UCSORG
 10
0.0
 20
0.0
 30
0.0
  9
$UCSXDIR
 10
1.0
 20
0.0
 30
0.0
  9
$UCSYDIR
 10
0.0
 20
1.0
 30
0.0
  9
$PUCSNAME
  2

  9
$PUCSORG
 10
0.0
 20
0.0
 30
0.0
  9
$PUCSXDIR
 10
1.0
 20
0.0
 30
0.0
  9
$PUCSYDIR
 10
0.0
 20
1.0
 30
0.0
  9
$USERI1
 70
     0
  9
$USERI2
 70
     0
  9
$USERI3
 70
     0
  9
$USERI4
 70
     0
  9
$USERI5
 70
     0
  9
$USERR1
 40
0.0
  9
$USERR2
 40
0.0
  9
$USERR3
 40
0.0
  9
$USERR4
 40
0.0
  9
$USERR5
 40
4.5
  9
$WORLDVIEW
 70
     1
  9
$SHADEDGE
 70
     1
  9
$SHADEDIF
 70
    70
  9
$TILEMODE
 70
     1
  9
$MAXACTVP
 70
    48
  9
$PLIMCHECK
 70
     0
  9
$PEXTMIN
 10
1.000000000000000E+20
 20
1.000000000000000E+20
 30
1.000000000000000E+20
  9
$PEXTMAX
 10
-1.000000000000000E+20
 20
-1.000000000000000E+20
 30
-1.000000000000000E+20
  9
$PLIMMIN
 10
-20.0
 20
-7.5
  9
$PLIMMAX
 10
277.0
 20
202.5
  9
$UNITMODE
 70
     0
  9
$VISRETAIN
 70
     1
  9
$PLINEGEN
 70
     0
  9
$PSLTSCALE
 70
     1
  0
ENDSEC
  0
SECTION
  2
TABLES
  0
TABLE
  2
VPORT
 70
     1
  0
VPORT
  2
*ACTIVE
 70
     0
 10
0.0
 20
0.0
 11
1.0
 21
1.0
 12
-12769.89969836698
 22
-1548.530654161841
 13
0.0
 23
0.0
 14
10.0
 24
10.0
 15
10.0
 25
10.0
 16
0.0
 26
0.0
 36
1.0
 17
11061.660545
 27
7486.583649
 37
474.311593
 40
485.1719773886278
 41
2.12079701120797
 42
50.0
 43
0.0
 44
0.0
 50
0.0
 51
0.0
 71
    16
 72
    20
 73
     1
 74
     1
 75
     0
 76
     0
 77
     0
 78
     0
  0
ENDTAB
  0
TABLE
  2
LTYPE
 70
    12
  0
LTYPE
  2
CONTINUOUS
 70
     0
  3
Solid line
 72
    65
 73
     0
 40
0.0
  0
LTYPE
  2
CENTER2
 70
     0
  3
Center (.5x) ___ _ ___ _ ___ _ ___ _ ___ _ ___
 72
    65
 73
     4
 40
28.575
 49
19.05
 49
-3.175
 49
3.175
 49
-3.175
  0
LTYPE
  2
HIDDEN
 70
     0
  3
Hidden __ __ __ __ __ __ __ __ __ __ __ __ __ _
 72
    65
 73
     2
 40
9.524999999999999
 49
6.35
 49
-3.175
  0
LTYPE
  2
PHANTOM2
 70
     0
  3
Phantom (0.5x) ___ _ _ ___ _ _ ___ _ _ ___ _ _
 72
    65
 73
     6
 40
31.75
 49
15.875
 49
-3.175
 49
3.175
 49
-3.175
 49
3.175
 49
-3.175
  0
ENDTAB
  0
TABLE
  2
LAYER
 70
    49
  0
LAYER
  2
0
 70
     0
 62
     7
  6
CONTINUOUS
  0
LAYER
  2
01
 70
     0
 62
     1
  6
CONTINUOUS
  0
LAYER
  2
1CENTER
 70
     0
 62
     7
  6
CENTER2
  0
LAYER
  2
1DIM
 70
     0
 62
     7
  6
CONTINUOUS
  0
LAYER
  2
1TEXT
 70
     0
 62
     7
  6
CONTINUOUS
  0
LAYER
  2
1HATCH
 70
     0
 62
     7
  6
CONTINUOUS
  0
LAYER
  2
1HIDDEN
 70
     0
 62
     7
  6
HIDDEN
  0
LAYER
  2
1PHANTOM
 70
     0
 62
     7
  6
PHANTOM2
  0
ENDTAB
  0
TABLE
  2
STYLE
 70
    18
  0
STYLE
  2
STANDARD
 70
     0
 40
0.0
 41
1.0
 50
0.0
 71
     0
 42
2.0
  3
txt.shx
  4
extfont.shx
  0
ENDTAB
  0
TABLE
  2
VIEW
 70
     0
  0
ENDTAB
  0
TABLE
  2
UCS
 70
     0
  0
ENDTAB
  0
TABLE
  2
APPID
 70
    23
  0
APPID
  2
ACAD
 70
     0
  0
APPID
  2
ACAD_PSEXT
 70
     0
  0
APPID
  2
ACAD_DSTYLE_DIMRADIAL_EXTE
 70
     0
  0
APPID
  2
ACDBBLOCKREPETAG
 70
     0
  0
APPID
  2
ACDBDYNAMICBLOCKGUID
 70
     0
  0
APPID
  2
ACADANNOTATIVE
 70
     0
  0
APPID
  2
ACLAYERTOOLS
 70
     0
  0
APPID
  2
ACAD_NAV_VCDISPLAY
 70
     0
  0
APPID
  2
ACADSTRINGINFO
 70
     0
  0
APPID
  2
GRADIENTCOLOR1ACI
 70
     0
  0
APPID
  2
GRADIENTCOLOR2ACI
 70
     0
  0
APPID
  2
CONTENTTABDATA
 70
     0
  0
APPID
  2
CONTENTCURRENTTAB
 70
     0
  0
APPID
  2
CONTENTBLOCKDESCRIPTION
 70
     0
  0
APPID
  2
CONTENTBLOCKICON
 70
     0
  0
APPID
  2
DRAWINGVARIABLESXDATA
 70
     0
  0
APPID
  2
CONTENTLONGBLOCKNAME
 70
     0
  0
APPID
  2
ACAD_MLEADERVER
 70
     0
  0
APPID
  2
ACAD_OBJECT_CHANGE_GUID
 70
     0
  0
APPID
  2
ACAD_DSTYLE_DIMJOGGED_JOGA
 70
     0
  0
APPID
  2
ACAD_DSTYLE_DIM_LINETYPE
 70
     0
  0
APPID
  2
ACAD_DSTYLE_DIM_EXT1_LINET
 70
     0
  0
APPID
  2
ACAD_DSTYLE_DIM_EXT2_LINET
 70
     0
  0
ENDTAB
  0
TABLE
  2
DIMSTYLE
 70
     3
  0
DIMSTYLE
  2
NEWX10
 70
     0
  3
 
  4

  5

  6
OPEN30
  7
OPEN30
 40
1.0
 41
2.0
 42
0.0
 43
7.0
 44
1.0
 45
0.0
 46
0.0
 47
0.0
 48
0.0
140
3.5
141
0.0
142
0.0
143
25.4
144
1.0
145
0.0
146
0.7
147
0.7
 71
     0
 72
     0
 73
     0
 74
     0
 75
     0
 76
     0
 77
     1
 78
     8
170
     0
171
     2
172
     1
173
     1
174
     0
175
     0
176
   256
177
   256
178
   201
  0
DIMSTYLE
  2
ISO-25
 70
     0
  3

  4

  5

  6

  7

 40
1.0
 41
20.0
 42
3.0
 43
3.75
 44
2.0
 45
0.0
 46
0.0
 47
0.0
 48
0.0
140
30.0
141
5.0
142
0.0
143
0.03937
144
1.0
145
0.0
146
1.0
147
8.0
 71
     0
 72
     0
 73
     0
 74
     0
 75
     0
 76
     0
 77
     1
 78
     8
170
     0
171
     3
172
     1
173
     0
174
     0
175
     0
176
     1
177
     1
178
     1
  0
ENDTAB
  0
ENDSEC
  0
SECTION
  2
BLOCKS
  0
BLOCK
  8
0
  2
$MODEL_SPACE
 70
     0
 10
0.0
 20
0.0
 30
0.0
  3
$MODEL_SPACE
  1

  0
ENDBLK
  5
F764
  8
0
  0
BLOCK
 67
     1
  8
0
  2
$PAPER_SPACE
 70
     0
 10
0.0
 20
0.0
 30
0.0
  3
$PAPER_SPACE
  1

  0
ENDBLK
  5
FB7D
 67
     1
  8
0
  0
BLOCK
  8
0
  2
_OPEN30
 70
     0
 10
0.0
 20
0.0
 30
0.0
  3
_OPEN30
  1

  0
LINE
  5
29
  8
0
  6
BYBLOCK
 62
     0
 10
-1.0
 20
0.267949
 30
0.0
 11
0.0
 21
0.0
 31
0.0
  0
LINE
  5
2A
  8
0
  6
BYBLOCK
 62
     0
 10
0.0
 20
0.0
 30
0.0
 11
-1.0
 21
-0.267949
 31
0.0
  0
LINE
  5
2B
  8
0
  6
BYBLOCK
 62
     0
 10
0.0
 20
0.0
 30
0.0
 11
-1.0
 21
0.0
 31
0.0
  0
ENDBLK
  5
F762
  8
0
  0
BLOCK
  8
0
  2
A3WAKUKAWAJUN2017_HYOUDAI_
 70
     0
 10
0.0
 20
0.0
 30
0.0
  3
A3WAKUKAWAJUN2017_HYOUDAI_
  1

  0
LINE
  5
6D9B
  8
0
 10
13.26299999998673
 20
-0.0001000000000317
 30
0.0
 11
9.236999999990758
 21
8.999899999990987
 31
0.0
1001
ACAD
1000
ASC_BOUNDS
1002
{
1070
    19
1005
6DDC
1002
}
  0
LINE
  5
6D9C
  8
0
 10
5.657999999994331
 20
0.9999999999989768
 30
0.0
 11
9.236999999990758
 21
8.999999999991019
 31
0.0
1001
ACAD
1000
ASC_BOUNDS
1002
{
1070
    19
1005
6DDC
1002
}
  0
LINE
  5
6D9D
  8
0
 10
18.59199999998134
 20
-0.2368999999997641
 30
0.0
 11
16.46099999998353
 21
5.432899999994561
 31
0.0
1001
ACAD
1000
ASC_BOUNDS
1002
{
1070
    19
1005
6DDD
1002
}
  0
LINE
  5
6D9E
  8
0
 10
18.59199999998134
 20
-0.2368999999997641
 30
0.0
 11
22.38199999997767
 21
8.763099999991255
 31
0.0
1001
ACAD
1000
ASC_BOUNDS
1002
{
1070
    19
1005
6DDD
1002
}
  0
LINE
  5
6D9F
  8
0
 10
14.32899999998563
 20
-0.2368999999997641
 30
0.0
 11
16.46099999998353
 21
5.432899999994561
 31
0.0
1001
ACAD
1000
ASC_BOUNDS
1002
{
1070
    19
1005
6DDD
1002
}
  0
LINE
  5
6DA0
  8
0
 10
14.32899999998563
 20
-0.2368999999997641
 30
0.0
 11
10.53899999998941
 21
8.763099999991255
 31
0.0
1001
ACAD
1000
ASC_BOUNDS
1002
{
1070
    19
1005
6DDD
1002
}
  0
LINE
  5
6DA1
  8
0
 10
19.53899999998043
 20
-0.0001000000000317
 30
0.0
 11
23.56599999997638
 21
8.999899999990987
 31
0.0
1001
ACAD
1000
ASC_BOUNDS
1002
{
1070
    19
1005
6DDE
1002
}
  0
LINE
  5
6DA2
  8
0
 10
26.97358892824991
 20
1.383099999991202
 30
0.0
 11
23.56599999997638
 21
8.999899999990987
 31
0.0
1001
ACAD
1000
ASC_BOUNDS
1002
{
1070
    19
1005
6DDE
1002
}
  0
LINE
  5
6DA3
  8
0
 10
5.657999999994331
 20
0.9999999999989768
 30
0.0
 11
3.181999999996833
 21
4.668599999995308
 31
0.0
1001
ACAD
1000
ASC_BOUNDS
1002
{
1070
    19
1005
6DDC
1002
}
  0
LINE
  5
6DA4
  8
0
 10
4.617999999995391
 20
-0.0001000000000317
 30
0.0
 11
1.420999999998571
 21
4.736799999995242
 31
0.0
1001
ACAD
1000
ASC_BOUNDS
1002
{
1070
    19
1005
6DDC
1002
}
  0
LINE
  5
6DA5
  8
0
 10
1.420999999998571
 20
8.763099999991255
 30
0.0
 11
1.420999999998571
 21
0.0
 31
0.0
1001
ACAD
1000
ASC_BOUNDS
1002
{
1070
    19
1005
6DE1
1002
}
  0
LINE
  5
6DA6
  8
0
 10
0.0
 20
8.763099999991255
 30
0.0
 11
0.0
 21
0.0
 31
0.0
1001
ACAD
1000
ASC_BOUNDS
1002
{
1070
    19
1005
6DE1
1002
}
  0
LINE
  5
6DA7
  8
0
 10
6.766999999993232
 20
-0.0001000000000317
 30
0.0
 11
7.826999999992154
 21
2.368399999997621
 31
0.0
1001
ACAD
1000
ASC_BOUNDS
1002
{
1070
    19
1005
6DDC
1002
}
  0
LINE
  5
6DA8
  8
0
 10
0.0
 20
0.0
 30
0.0
 11
1.420999999998571
 21
0.0
 31
0.0
1001
ACAD
1000
ASC_BOUNDS
1002
{
1070
    19
1005
6DE1
1002
}
  0
LINE
  5
6DA9
  8
0
 10
4.617999999995391
 20
0.0
 30
0.0
 11
6.766999999993232
 21
0.0
 31
0.0
1001
ACAD
1000
ASC_BOUNDS
1002
{
1070
    19
1005
6DDC
1002
}
  0
LINE
  5
6DAA
  8
0
 10
11.70599999998831
 20
-0.0001000000000317
 30
0.0
 11
10.64699999998936
 21
2.368399999997621
 31
0.0
1001
ACAD
1000
ASC_BOUNDS
1002
{
1070
    19
1005
6DDC
1002
}
  0
LINE
  5
6DAB
  8
0
 10
7.826999999992154
 20
2.368399999997621
 30
0.0
 11
10.64699999998936
 21
2.368399999997621
 31
0.0
1001
ACAD
1000
ASC_BOUNDS
1002
{
1070
    19
1005
6DDC
1002
}
  0
LINE
  5
6DAC
  8
0
 10
11.70599999998831
 20
0.0
 30
0.0
 11
13.26299999998673
 21
0.0
 31
0.0
1001
ACAD
1000
ASC_BOUNDS
1002
{
1070
    19
1005
6DDC
1002
}
  0
LINE
  5
6DAD
  8
0
 10
22.15599999997789
 20
2.368399999997621
 30
0.0
 11
24.97599999997499
 21
2.368399999997621
 31
0.0
1001
ACAD
1000
ASC_BOUNDS
1002
{
1070
    19
1005
6DDE
1002
}
  0
LINE
  5
6DAE
  8
0
 10
19.53899999998043
 20
0.0
 30
0.0
 11
21.09599999997886
 21
0.0
 31
0.0
1001
ACAD
1000
ASC_BOUNDS
1002
{
1070
    19
1005
6DDE
1002
}
  0
LINE
  5
6DAF
  8
0
 10
21.09599999997886
 20
-0.0001000000000317
 30
0.0
 11
22.15599999997789
 21
2.368399999997621
 31
0.0
1001
ACAD
1000
ASC_BOUNDS
1002
{
1070
    19
1005
6DDE
1002
}
  0
LINE
  5
6DB0
  8
0
 10
26.02015566812236
 20
0.0330999999912365
 30
0.0
 11
24.97599999997499
 21
2.368399999997621
 31
0.0
1001
ACAD
1000
ASC_BOUNDS
1002
{
1070
    19
1005
6DDE
1002
}
  0
LINE
  5
6DB1
  8
0
 10
14.32399999998563
 20
3.315799999996671
 30
0.0
 11
16.46099999998353
 21
8.999899999990987
 31
0.0
1001
ACAD
1000
ASC_BOUNDS
1002
{
1070
    19
1005
6DDD
1002
}
  0
LINE
  5
6DB2
  8
0
 10
6.432999999993513
 20
8.763099999991255
 30
0.0
 11
3.181999999996833
 21
4.668599999995308
 31
0.0
1001
ACAD
1000
ASC_BOUNDS
1002
{
1070
    19
1005
6DDC
1002
}
  0
LINE
  5
6DB3
  8
0
 10
4.617999999995391
 20
8.763099999991255
 30
0.0
 11
1.420999999998571
 21
4.736799999995242
 31
0.0
1001
ACAD
1000
ASC_BOUNDS
1002
{
1070
    19
1005
6DDC
1002
}
  0
LINE
  5
6DB4
  8
0
 10
0.0
 20
8.763099999991255
 30
0.0
 11
1.420999999998571
 21
8.763099999991255
 31
0.0
1001
ACAD
1000
ASC_BOUNDS
1002
{
1070
    19
1005
6DE1
1002
}
  0
LINE
  5
6DB5
  8
0
 10
4.617999999995391
 20
8.763099999991255
 30
0.0
 11
6.432999999993513
 21
8.763099999991255
 31
0.0
1001
ACAD
1000
ASC_BOUNDS
1002
{
1070
    19
1005
6DDC
1002
}
  0
LINE
  5
6DB6
  8
0
 10
14.32399999998563
 20
3.315799999996671
 30
0.0
 11
12.02999999998792
 21
8.763099999991255
 31
0.0
1001
ACAD
1000
ASC_BOUNDS
1002
{
1070
    19
1005
6DDD
1002
}
  0
LINE
  5
6DB7
  8
0
 10
10.06399999998996
 20
3.670999999996297
 30
0.0
 11
9.236999999990758
 21
5.5200999999945
 31
0.0
1001
ACAD
1000
ASC_BOUNDS
1002
{
1070
    19
1005
6DDC
1002
}
  0
LINE
  5
6DB8
  8
0
 10
8.409999999991555
 20
3.670999999996297
 30
0.0
 11
9.236999999990758
 21
5.5200999999945
 31
0.0
1001
ACAD
1000
ASC_BOUNDS
1002
{
1070
    19
1005
6DDC
1002
}
  0
LINE
  5
6DB9
  8
0
 10
8.409999999991555
 20
3.670999999996297
 30
0.0
 11
10.06399999998996
 21
3.670999999996297
 31
0.0
1001
ACAD
1000
ASC_BOUNDS
1002
{
1070
    19
1005
6DDC
1002
}
  0
LINE
  5
6DBA
  8
0
 10
10.53899999998941
 20
8.763099999991255
 30
0.0
 11
12.02999999998792
 21
8.763099999991255
 31
0.0
1001
ACAD
1000
ASC_BOUNDS
1002
{
1070
    19
1005
6DDD
1002
}
  0
LINE
  5
6DBB
  8
0
 10
22.7389999999773
 20
3.670999999996297
 30
0.0
 11
23.56599999997638
 21
5.5200999999945
 31
0.0
1001
ACAD
1000
ASC_BOUNDS
1002
{
1070
    19
1005
6DDE
1002
}
  0
LINE
  5
6DBC
  8
0
 10
22.7389999999773
 20
3.670999999996297
 30
0.0
 11
24.39299999997559
 21
3.670999999996297
 31
0.0
1001
ACAD
1000
ASC_BOUNDS
1002
{
1070
    19
1005
6DDE
1002
}
  0
LINE
  5
6DBD
  8
0
 10
18.59799999998143
 20
3.315799999996671
 30
0.0
 11
20.89099999997916
 21
8.763099999991255
 31
0.0
1001
ACAD
1000
ASC_BOUNDS
1002
{
1070
    19
1005
6DDD
1002
}
  0
LINE
  5
6DBE
  8
0
 10
18.59799999998143
 20
3.315799999996671
 30
0.0
 11
16.46099999998353
 21
8.999899999990987
 31
0.0
1001
ACAD
1000
ASC_BOUNDS
1002
{
1070
    19
1005
6DDD
1002
}
  0
LINE
  5
6DBF
  8
0
 10
20.89099999997916
 20
8.763099999991255
 30
0.0
 11
22.38199999997767
 21
8.763099999991255
 31
0.0
1001
ACAD
1000
ASC_BOUNDS
1002
{
1070
    19
1005
6DDD
1002
}
  0
LINE
  5
6DC0
  8
0
 10
24.39299999997559
 20
3.670999999996297
 30
0.0
 11
23.56599999997638
 21
5.5200999999945
 31
0.0
1001
ACAD
1000
ASC_BOUNDS
1002
{
1070
    19
1005
6DDE
1002
}
  0
LINE
  5
6DC1
  8
0
 10
44.99999999995498
 20
-0.2368999999997641
 30
0.0
 11
40.02599999995994
 21
5.341799999994635
 31
0.0
1001
ACAD
1000
ASC_BOUNDS
1002
{
1070
    19
1005
6DE0
1002
}
  0
LINE
  5
6DC2
  8
0
 10
40.02599999995994
 20
5.341799999994635
 30
0.0
 11
40.02599999995994
 21
0.0
 31
0.0
1001
ACAD
1000
ASC_BOUNDS
1002
{
1070
    19
1005
6DE0
1002
}
  0
LINE
  5
6DC3
  8
0
 10
38.60499999996136
 20
8.999999999991019
 30
0.0
 11
38.60499999996136
 21
0.0
 31
0.0
1001
ACAD
1000
ASC_BOUNDS
1002
{
1070
    19
1005
6DE0
1002
}
  0
LINE
  5
6DC4
  8
0
 10
44.99999999995498
 20
8.763099999991255
 30
0.0
 11
44.99999999995498
 21
-0.2368999999997641
 31
0.0
1001
ACAD
1000
ASC_BOUNDS
1002
{
1070
    19
1005
6DE0
1002
}
  0
LINE
  5
6DC5
  8
0
 10
38.60499999996136
 20
0.0
 30
0.0
 11
40.02599999995994
 21
0.0
 31
0.0
1001
ACAD
1000
ASC_BOUNDS
1002
{
1070
    19
1005
6DE0
1002
}
  0
LINE
  5
6DC6
  8
0
 10
43.57899999995641
 20
3.421199999996588
 30
0.0
 11
38.60499999996136
 21
8.999899999990987
 31
0.0
1001
ACAD
1000
ASC_BOUNDS
1002
{
1070
    19
1005
6DE0
1002
}
  0
LINE
  5
6DC7
  8
0
 10
43.57899999995641
 20
8.763099999991255
 30
0.0
 11
43.57899999995641
 21
3.421199999996588
 31
0.0
1001
ACAD
1000
ASC_BOUNDS
1002
{
1070
    19
1005
6DE0
1002
}
  0
LINE
  5
6DC8
  8
0
 10
43.57899999995641
 20
8.763099999991255
 30
0.0
 11
44.99999999995498
 21
8.763099999991255
 31
0.0
1001
ACAD
1000
ASC_BOUNDS
1002
{
1070
    19
1005
6DE0
1002
}
  0
LINE
  5
6DC9
  8
0
 10
37.67199999996831
 20
8.763099999991255
 30
0.0
 11
36.23199999996837
 21
8.763099999991255
 31
0.0
  0
LINE
  5
6DCA
  8
0
 10
31.64199999996833
 20
8.763099999991255
 30
0.0
 11
31.64199999996833
 21
2.481619422925121
 31
0.0
  0
LINE
  5
6DCB
  8
0
 10
37.67199999996831
 20
8.763099999991255
 30
0.0
 11
37.67199999996831
 21
2.481619422925121
 31
0.0
  0
LINE
  5
6DCC
  8
0
 10
36.23199999996837
 20
8.763099999991255
 30
0.0
 11
36.23199999996837
 21
2.481619422925064
 31
0.0
  0
LINE
  5
6DCD
  8
0
 10
33.08199999996839
 20
8.763099999991255
 30
0.0
 11
33.08199999996839
 21
2.481619422925121
 31
0.0
  0
ARC
  5
6DCE
  8
0
 10
34.65699999996832
 20
3.183099999991214
 30
0.0
 40
3.420000000000007
 50
240.0000000000255
 51
299.9999999999766
  0
ARC
  5
6DCF
  8
0
 10
34.65699999996832
 20
3.183099999991214
 30
0.0
 40
1.97999999999999
 50
240.000000000026
 51
299.9999999999703
  0
LINE
  5
6DD0
  8
0
 10
33.08199999996828
 20
8.763099999991255
 30
0.0
 11
31.64199999996833
 21
8.763099999991255
 31
0.0
  0
ARC
  5
6DD1
  8
0
 10
35.06199999996829
 20
2.481619422925064
 30
0.0
 40
1.17
 50
299.9999999999699
 51
0.0
  0
ARC
  5
6DD2
  8
0
 10
34.25199999996835
 20
2.481619422925121
 30
0.0
 40
1.17
 50
180.0
 51
240.0000000000238
  0
ARC
  5
6DD3
  8
0
 10
35.06199999996841
 20
2.481619422925121
 30
0.0
 40
2.61
 50
299.9999999999756
 51
0.0
  0
ARC
  5
6DD4
  8
0
 10
34.25199999996835
 20
2.481619422925121
 30
0.0
 40
2.61
 50
180.0
 51
240.0000000000244
  0
LINE
  5
6DD5
  8
0
 10
29.30199999996933
 20
8.763099999991255
 30
0.0
 11
30.74199999996927
 21
8.763099999991255
 31
0.0
1001
ACAD
1000
ASC_BOUNDS
1002
{
1070
    19
1005
6DDE
1002
}
  0
LINE
  5
6DD6
  8
0
 10
30.74199999996927
 20
8.763099999991255
 30
0.0
 11
30.74199999996927
 21
2.373099999991211
 31
0.0
1001
ACAD
1000
ASC_BOUNDS
1002
{
1070
    19
1005
6DDE
1002
}
  0
LINE
  5
6DD7
  8
0
 10
26.02015566812236
 20
0.0330999999912365
 30
0.0
 11
28.40199999996923
 21
0.0330999999912365
 31
0.0
1001
ACAD
1000
ASC_BOUNDS
1002
{
1070
    19
1005
6DDE
1002
}
  0
LINE
  5
6DD8
  8
0
 10
29.30199999996933
 20
8.763099999991255
 30
0.0
 11
29.30199999996933
 21
2.283099999991236
 31
0.0
1001
ACAD
1000
ASC_BOUNDS
1002
{
1070
    19
1005
6DDE
1002
}
  0
LINE
  5
6DD9
  8
0
 10
26.97358892824991
 20
1.383099999991202
 30
0.0
 11
28.40199999996923
 21
1.383099999991202
 31
0.0
1001
ACAD
1000
ASC_BOUNDS
1002
{
1070
    19
1005
6DDE
1002
}
  0
ARC
  5
6DDA
  8
0
 10
28.40199999996923
 20
2.283099999991236
 30
0.0
 40
0.9
 50
270.0
 51
0.0
1001
ACAD
1000
ASC_BOUNDS
1002
{
1070
    19
1005
6DDE
1002
}
  0
ARC
  5
6DDB
  8
0
 10
28.40199999996923
 20
2.373099999991211
 30
0.0
 40
2.34
 50
270.0
 51
0.0
1001
ACAD
1000
ASC_BOUNDS
1002
{
1070
    19
1005
6DDE
1002
}
  0
INSERT
  5
6DDC
  8
0
  2
*X1930
 10
0.0
 20
0.0
 30
0.0
1001
ACAD
1000
HATCH
1002
{
1070
    19
1000
ANSI37
1040
0.15
1040
0.0
1000
ASC_BOUNDS
1070
     2
1070
     2
1070
    12
1005
6D9B
1005
6D9C
1005
6DA3
1005
6DB2
1005
6DB5
1005
6DB3
1005
6DA4
1005
6DA9
1005
6DA7
1005
6DAB
1005
6DAA
1005
6DAC
1070
     2
1070
     3
1005
6DB7
1005
6DB9
1005
6DB8
1000
ASC_SEEDPOINT
1011
3.614004224891801
1021
2.996669441146025
1031
0.0
1021
2.996669441146025
1031
0.0
1000
R14_HATCH_DATA
1000
6DDC
1011
1.0
1021
0.0
1031
0.0
1021
0.0
1031
0.0
1011
0.0
1021
1.0
1031
0.0
1021
1.0
1031
0.0
1011
0.0
1021
0.0
1031
1.0
1021
0.0
1031
1.0
1040
0.0
1010
0.0
1020
0.0
1030
1.0
1000
ANSI37
1070
     0
1070
     1
1071
        2
1071
        7
1070
     0
1070
     1
1071
       17
1040
13.26299999998673
1040
-0.0001000000000317
1040
9.236999999990758
1040
8.999899999990987
1040
9.236999999990758
1040
8.999999999991019
1040
5.657999999994331
1040
0.9999999999989768
1040
3.181999999996833
1040
4.668599999995308
1040
6.432999999993513
1040
8.763099999991255
1040
4.617999999995391
1040
8.763099999991255
1040
1.420999999998571
1040
4.736799999995242
1040
4.617999999995391
1040
-0.0001000000000317
1040
4.617999999995391
1040
0.0
1040
6.766999999993232
1040
0.0
1040
6.766999999993232
1040
-0.0001000000000317
1040
7.826999999992154
1040
2.368399999997621
1040
10.64699999998936
1040
2.368399999997621
1040
11.70599999998831
1040
-0.0001000000000317
1040
11.70599999998831
1040
0.0
1040
13.26299999998673
1040
0.0
1071
       12
1005
6D9B
1005
6D9C
1005
6DA3
1005
6DB2
1005
6DB5
1005
6DB3
1005
6DA4
1005
6DA9
1005
6DA7
1005
6DAB
1005
6DAA
1005
6DAC
1071
       22
1070
     0
1070
     1
1071
        3
1040
9.236999999990758
1040
5.5200999999945
1040
10.06399999998996
1040
3.670999999996297
1040
8.409999999991555
1040
3.670999999996297
1071
        3
1005
6DB7
1005
6DB9
1005
6DB8
1070
     0
1070
     1
1040
0.0
1040
0.15
1070
     0
1070
     2
1040
0.7853981633974483
1040
49.29960901727088
1040
-10.17736998311392
1040
-0.3367596045400932
1040
0.3367596045400932
1070
     0
1040
2.356194490192345
1040
49.29960901727088
1040
-10.17736998311392
1040
-0.3367596045400932
1040
-0.3367596045400932
1070
     0
1040
0.0110235143455945
1071
        2
1040
3.614004224891801
1040
2.996669441146025
1040
0.0
1040
3.614004224891801
1040
2.996669441146025
1040
0.0
1002
}
  0
INSERT
  5
6DDD
  8
0
  2
*X1931
 10
0.0
 20
0.0
 30
0.0
1001
ACAD
1000
HATCH
1002
{
1070
    19
1000
ANSI37
1040
0.15
1040
0.0
1000
ASC_BOUNDS
1070
     1
1070
     2
1070
    10
1005
6D9D
1005
6D9E
1005
6DBF
1005
6DBD
1005
6DBE
1005
6DB1
1005
6DB6
1005
6DBA
1005
6DA0
1005
6D9F
1000
ASC_SEEDPOINT
1011
14.73245321214324
1021
2.798246178283421
1031
0.0
1021
2.798246178283421
1031
0.0
1000
R14_HATCH_DATA
1000
6DDD
1011
1.0
1021
0.0
1031
0.0
1021
0.0
1031
0.0
1011
0.0
1021
1.0
1031
0.0
1021
1.0
1031
0.0
1011
0.0
1021
0.0
1031
1.0
1021
0.0
1031
1.0
1040
0.0
1010
0.0
1020
0.0
1030
1.0
1000
ANSI37
1070
     0
1070
     1
1071
        1
1071
        7
1070
     0
1070
     1
1071
       10
1040
16.46099999998353
1040
5.432899999994561
1040
18.59199999998134
1040
-0.2368999999997641
1040
22.38199999997767
1040
8.763099999991255
1040
20.89099999997916
1040
8.763099999991255
1040
18.59799999998143
1040
3.315799999996671
1040
16.46099999998353
1040
8.999899999990987
1040
14.32399999998563
1040
3.315799999996671
1040
12.02999999998792
1040
8.763099999991255
1040
10.53899999998941
1040
8.763099999991255
1040
14.32899999998563
1040
-0.2368999999997641
1071
       10
1005
6D9D
1005
6D9E
1005
6DBF
1005
6DBD
1005
6DBE
1005
6DB1
1005
6DB6
1005
6DBA
1005
6DA0
1005
6D9F
1070
     0
1070
     1
1040
0.0
1040
0.15
1070
     0
1070
     2
1040
0.7853981633974483
1040
49.29960901727088
1040
-10.17736998311392
1040
-0.3367596045400932
1040
0.3367596045400932
1070
     0
1040
2.356194490192345
1040
49.29960901727088
1040
-10.17736998311392
1040
-0.3367596045400932
1040
-0.3367596045400932
1070
     0
1040
0.0110235143455945
1071
        1
1040
14.73245321214324
1040
2.798246178283421
1040
0.0
1002
}
  0
INSERT
  5
6DDE
  8
0
  2
*X1932
 10
0.0
 20
0.0
 30
0.0
1001
ACAD
1000
HATCH
1002
{
1070
    19
1000
ANSI37
1040
0.15
1040
0.0
1000
ASC_BOUNDS
1070
     2
1070
     2
1070
    13
1005
6DA1
1005
6DAE
1005
6DAF
1005
6DAD
1005
6DB0
1005
6DD7
1005
6DDB
1005
6DD6
1005
6DD5
1005
6DD8
1005
6DDA
1005
6DD9
1005
6DA2
1070
     2
1070
     3
1005
6DBB
1005
6DC0
1005
6DBC
1000
ASC_SEEDPOINT
1011
21.97929957367762
1021
3.294304244259308
1031
0.0
1021
3.294304244259308
1031
0.0
1000
R14_HATCH_DATA
1000
6DDE
1011
1.0
1021
0.0
1031
0.0
1021
0.0
1031
0.0
1011
0.0
1021
1.0
1031
0.0
1021
1.0
1031
0.0
1011
0.0
1021
0.0
1031
1.0
1021
0.0
1031
1.0
1040
0.0
1010
0.0
1020
0.0
1030
1.0
1000
ANSI37
1070
     0
1070
     1
1071
        2
1071
        7
1070
     1
1070
     1
1071
       15
1040
23.56599999997638
1040
8.999899999990987
1040
0.0
1040
19.53899999998043
1040
-0.0001000000000317
1040
0.0
1040
19.53899999998043
1040
0.0
1040
0.0
1040
21.09599999997886
1040
0.0
1040
0.0
1040
21.09599999997886
1040
-0.0001000000000317
1040
0.0
1040
22.15599999997789
1040
2.368399999997621
1040
0.0
1040
24.97599999997499
1040
2.368399999997621
1040
0.0
1040
26.02015566812236
1040
0.0330999999912365
1040
0.0
1040
28.40199999996923
1040
0.0330999999912365
1040
0.414213562373095
1040
30.74199999996923
1040
2.373099999991211
1040
0.0
1040
30.74199999996927
1040
8.763099999991255
1040
0.0
1040
29.30199999996933
1040
8.763099999991255
1040
0.0
1040
29.30199999996933
1040
2.283099999991236
1040
-0.414213562373095
1040
28.40199999996923
1040
1.383099999991237
1040
0.0
1040
26.97358892824991
1040
1.383099999991202
1040
0.0
1071
       13
1005
6DA1
1005
6DAE
1005
6DAF
1005
6DAD
1005
6DB0
1005
6DD7
1005
6DDB
1005
6DD6
1005
6DD5
1005
6DD8
1005
6DDA
1005
6DD9
1005
6DA2
1071
       22
1070
     0
1070
     1
1071
        3
1040
22.7389999999773
1040
3.670999999996297
1040
23.56599999997638
1040
5.5200999999945
1040
24.39299999997559
1040
3.670999999996297
1071
        3
1005
6DBB
1005
6DC0
1005
6DBC
1070
     0
1070
     1
1040
0.0
1040
0.15
1070
     0
1070
     2
1040
0.7853981633974483
1040
49.29960901727088
1040
-10.17736998311392
1040
-0.3367596045400932
1040
0.3367596045400932
1070
     0
1040
2.356194490192345
1040
49.29960901727088
1040
-10.17736998311392
1040
-0.3367596045400932
1040
-0.3367596045400932
1070
     0
1040
0.0110235143455945
1071
        2
1040
21.97929957367762
1040
3.294304244259308
1040
0.0
1040
21.97929957367762
1040
3.294304244259308
1040
0.0
1002
}
  0
INSERT
  5
6DDF
  8
0
  2
*X1933
 10
0.0
 20
0.0
 30
0.0
1001
ACAD
1000
HATCH
1002
{
1070
    19
1000
ANSI37
1040
0.15
1040
0.0
1000
R14_HATCH_DATA
1000
6DDF
1011
1.0
1021
0.0
1031
0.0
1021
0.0
1031
0.0
1011
0.0
1021
1.0
1031
0.0
1021
1.0
1031
0.0
1011
0.0
1021
0.0
1031
1.0
1021
0.0
1031
1.0
1040
0.0
1010
0.0
1020
0.0
1030
1.0
1000
ANSI37
1070
     0
1070
     1
1071
        1
1071
        7
1070
     1
1070
     1
1071
       12
1040
31.64199999996833
1040
2.481619422925121
1040
0.2679491924310942
1040
32.94699999997067
1040
0.2212931190493919
1040
0.2679491924301353
1040
36.36699999995983
1040
0.2212931190459813
1040
0.2679491924321411
1040
37.67199999996831
1040
2.481619422928361
1040
0.0
1040
37.67199999996831
1040
8.763099999991255
1040
0.0
1040
36.23199999996837
1040
8.763099999991255
1040
0.0
1040
36.23199999996837
1040
2.481619422925064
1040
-0.2679491924310291
1040
35.64699999996708
1040
1.468369700498386
1040
-0.267949192430519
1040
33.66699999997093
1040
1.468369700497703
1040
-0.267949192431809
1040
33.08199999996839
1040
2.481619422926997
1040
0.0
1040
33.08199999996839
1040
8.763099999991255
1040
0.0
1040
31.64199999996833
1040
8.763099999991255
1040
0.0
1071
        0
1070
     0
1070
     1
1040
0.0
1040
0.15
1070
     0
1070
     2
1040
0.7853981633974483
1040
49.29960901727088
1040
-10.17736998311392
1040
-0.3367596045400932
1040
0.3367596045400932
1070
     0
1040
2.356194490192345
1040
49.29960901727088
1040
-10.17736998311392
1040
-0.3367596045400932
1040
-0.3367596045400932
1070
     0
1040
0.0110235143455945
1071
        1
1040
32.30357378967278
1040
3.988785755459219
1040
0.0
1002
}
  0
INSERT
  5
6DE0
  8
0
  2
*X1934
 10
0.0
 20
0.0
 30
0.0
1001
ACAD
1000
HATCH
1002
{
1070
    19
1000
ANSI37
1040
0.15
1040
0.0
1000
ASC_BOUNDS
1070
     1
1070
     2
1070
     8
1005
6DC1
1005
6DC4
1005
6DC8
1005
6DC7
1005
6DC6
1005
6DC3
1005
6DC5
1005
6DC2
1000
ASC_SEEDPOINT
1011
39.74896370716704
1021
4.484843821435049
1031
0.0
1021
4.484843821435049
1031
0.0
1000
R14_HATCH_DATA
1000
6DE0
1011
1.0
1021
0.0
1031
0.0
1021
0.0
1031
0.0
1011
0.0
1021
1.0
1031
0.0
1021
1.0
1031
0.0
1011
0.0
1021
0.0
1031
1.0
1021
0.0
1031
1.0
1040
0.0
1010
0.0
1020
0.0
1030
1.0
1000
ANSI37
1070
     0
1070
     1
1071
        1
1071
        7
1070
     0
1070
     1
1071
        9
1040
40.02599999995994
1040
5.341799999994635
1040
44.99999999995498
1040
-0.2368999999997641
1040
44.99999999995498
1040
8.763099999991255
1040
43.57899999995641
1040
8.763099999991255
1040
43.57899999995641
1040
3.421199999996588
1040
38.60499999996136
1040
8.999899999990987
1040
38.60499999996136
1040
8.999999999991019
1040
38.60499999996136
1040
0.0
1040
40.02599999995994
1040
0.0
1071
        8
1005
6DC1
1005
6DC4
1005
6DC8
1005
6DC7
1005
6DC6
1005
6DC3
1005
6DC5
1005
6DC2
1070
     0
1070
     1
1040
0.0
1040
0.15
1070
     0
1070
     2
1040
0.7853981633974483
1040
49.29960901727088
1040
-10.17736998311392
1040
-0.3367596045400932
1040
0.3367596045400932
1070
     0
1040
2.356194490192345
1040
49.29960901727088
1040
-10.17736998311392
1040
-0.3367596045400932
1040
-0.3367596045400932
1070
     0
1040
0.0110235143455945
1071
        1
1040
39.74896370716704
1040
4.484843821435049
1040
0.0
1002
}
  0
INSERT
  5
6DE1
  8
0
  2
*X1935
 10
0.0
 20
0.0
 30
0.0
1001
ACAD
1000
HATCH
1002
{
1070
    19
1000
ANSI37
1040
0.15
1040
0.0
1000
ASC_BOUNDS
1070
     1
1070
     2
1070
     4
1005
6DA5
1005
6DB4
1005
6DA6
1005
6DA8
1000
ASC_SEEDPOINT
1011
1.079051535452663
1021
4.148538732891836
1031
0.0
1021
4.148538732891836
1031
0.0
1000
R14_HATCH_DATA
1000
6DE1
1011
1.0
1021
0.0
1031
0.0
1021
0.0
1031
0.0
1011
0.0
1021
1.0
1031
0.0
1021
1.0
1031
0.0
1011
0.0
1021
0.0
1031
1.0
1021
0.0
1031
1.0
1040
0.0
1010
0.0
1020
0.0
1030
1.0
1000
ANSI37
1070
     0
1070
     1
1071
        1
1071
        7
1070
     0
1070
     1
1071
        4
1040
1.420999999998571
1040
0.0
1040
1.420999999998571
1040
8.763099999991255
1040
0.0
1040
8.763099999991255
1040
0.0
1040
0.0
1071
        4
1005
6DA5
1005
6DB4
1005
6DA6
1005
6DA8
1070
     0
1070
     1
1040
0.0
1040
0.15
1070
     0
1070
     2
1040
0.7853981633974483
1040
49.29960901727088
1040
-10.17736998311392
1040
-0.3367596045400932
1040
0.3367596045400932
1070
     0
1040
2.356194490192345
1040
49.29960901727088
1040
-10.17736998311392
1040
-0.3367596045400932
1040
-0.3367596045400932
1070
     0
1040
0.0053004257112761
1071
        1
1040
1.079051535452663
1040
4.148538732891836
1040
0.0
1002
}
  0
ENDBLK
  5
FB1D
  8
0
  0
BLOCK
  8
0
  2
*X1930
 70
     1
 10
0.0
 20
0.0
 30
0.0
  3
*X1930
  1

  0
LINE
  5
112B2
  8
0
  6
CONTINUOUS
 10
3.418023043697893
 20
7.251849696850613
 30
0.0
 11
4.929273346838536
 21
8.763099999991255
 31
0.0
  0
LINE
  5
112B3
  8
0
  6
CONTINUOUS
 10
1.483656411257782
 20
4.643963855330318
 30
0.0
 11
5.60279255591872
 21
8.763099999991255
 31
0.0
  0
LINE
  5
112B4
  8
0
  6
CONTINUOUS
 10
1.755053947328235
 20
4.241842182320584
 30
0.0
 11
6.276311764998907
 21
8.763099999991255
 31
0.0
  0
LINE
  5
112B5
  8
0
  6
CONTINUOUS
 10
2.026451483398688
 20
3.839720509310849
 30
0.0
 11
4.441040904851878
 21
6.254309930764039
 31
0.0
  0
LINE
  5
112B6
  8
0
  6
CONTINUOUS
 10
2.297849019469139
 20
3.437598836301114
 30
0.0
 11
3.321765168359338
 21
4.461514985191313
 31
0.0
  0
LINE
  5
112B7
  8
0
  6
CONTINUOUS
 10
2.569246555539591
 20
3.03547716329138
 30
0.0
 11
3.593163397972743
 21
4.059394005724531
 31
0.0
  0
LINE
  5
112B8
  8
0
  6
CONTINUOUS
 10
2.840644091610043
 20
2.633355490281646
 30
0.0
 11
3.864561627586149
 21
3.657273026257751
 31
0.0
  0
LINE
  5
112B9
  8
0
  6
CONTINUOUS
 10
3.112041627680496
 20
2.231233817271911
 30
0.0
 11
4.135959857199554
 21
3.25515204679097
 31
0.0
  0
LINE
  5
112BA
  8
0
  6
CONTINUOUS
 10
3.383439163750948
 20
1.829112144262177
 30
0.0
 11
4.40735808681296
 21
2.853031067324189
 31
0.0
  0
LINE
  5
112BB
  8
0
  6
CONTINUOUS
 10
3.654836699821399
 20
1.426990471252442
 30
0.0
 11
4.678756316426365
 21
2.450910087857407
 31
0.0
  0
LINE
  5
112BC
  8
0
  6
CONTINUOUS
 10
3.926234235891853
 20
1.024868798242709
 30
0.0
 11
4.95015454603977
 21
2.048789108390626
 31
0.0
  0
LINE
  5
112BD
  8
0
  6
CONTINUOUS
 10
4.197631771962304
 20
0.6227471252329737
 30
0.0
 11
5.221552775653176
 21
1.646668128923846
 31
0.0
  0
LINE
  5
112BE
  8
0
  6
CONTINUOUS
 10
8.715877546767851
 20
7.835069736359266
 30
0.0
 11
9.435953450375058
 21
8.555145639966472
 31
0.0
  0
LINE
  5
112BF
  8
0
  6
CONTINUOUS
 10
8.170620868422267
 20
6.616293848933497
 30
0.0
 11
9.644120833743461
 21
8.08979381425469
 31
0.0
  0
LINE
  5
112C0
  8
0
  6
CONTINUOUS
 10
7.625364190076684
 20
5.397517961507727
 30
0.0
 11
9.852288217111864
 21
7.624441988542907
 31
0.0
  0
LINE
  5
112C1
  8
0
  6
CONTINUOUS
 10
7.080107511731101
 20
4.178742074081957
 30
0.0
 11
10.06045560048027
 21
7.159090162831124
 31
0.0
  0
LINE
  5
112C2
  8
0
  6
CONTINUOUS
 10
6.534850833385518
 20
2.959966186656187
 30
0.0
 11
10.26862298384867
 21
6.693738337119342
 31
0.0
  0
LINE
  5
112C3
  8
0
  6
CONTINUOUS
 10
4.469029308032756
 20
0.2206254522232385
 30
0.0
 11
5.492951005266582
 21
1.244547149457064
 31
0.0
  0
LINE
  5
112C4
  8
0
  6
CONTINUOUS
 10
5.989594155039935
 20
1.741190299230417
 30
0.0
 11
8.806950407233131
 21
4.558546551423613
 31
0.0
  0
LINE
  5
112C5
  8
0
  6
CONTINUOUS
 10
9.401251593263643
 20
5.152847737454126
 30
0.0
 11
10.47679036721708
 21
6.228386511407559
 31
0.0
  0
LINE
  5
112C6
  8
0
  6
CONTINUOUS
 10
4.921837203428691
 20
-0.0000858614610131
 30
0.0
 11
8.592923064886001
 21
3.670999999996297
 31
0.0
  0
LINE
  5
112C7
  8
0
  6
CONTINUOUS
 10
9.609390446785305
 20
4.6874673818956
 30
0.0
 11
10.68495775058548
 21
5.763034685695775
 31
0.0
  0
LINE
  5
112C8
  8
0
  6
CONTINUOUS
 10
5.595387755019432
 20
-0.0000545189504582
 30
0.0
 11
7.716137258923768
 21
2.120694984953879
 31
0.0
  0
LINE
  5
112C9
  8
0
  6
CONTINUOUS
 10
6.268938306610172
 20
-0.000023176439905
 30
0.0
 11
7.170485805526503
 21
0.9015243224764267
 31
0.0
  0
LINE
  5
112CA
  8
0
  6
CONTINUOUS
 10
7.963842273967511
 20
2.368399999997621
 30
0.0
 11
9.266442273966188
 21
3.670999999996297
 31
0.0
  0
LINE
  5
112CB
  8
0
  6
CONTINUOUS
 10
8.637361483047696
 20
2.368399999997621
 30
0.0
 11
9.939961483046375
 21
3.670999999996297
 31
0.0
  0
LINE
  5
112CC
  8
0
  6
CONTINUOUS
 10
9.817529300306965
 20
4.222087026337075
 30
0.0
 11
10.89312513395388
 21
5.297682859983993
 31
0.0
  0
LINE
  5
112CD
  8
0
  6
CONTINUOUS
 10
10.02566815382863
 20
3.756706670778549
 30
0.0
 11
11.10129251732229
 21
4.832331034272211
 31
0.0
  0
LINE
  5
112CE
  8
0
  6
CONTINUOUS
 10
9.310880692127883
 20
2.368399999997621
 30
0.0
 11
11.30945990069069
 21
4.366979208560428
 31
0.0
  0
LINE
  5
112CF
  8
0
  6
CONTINUOUS
 10
9.98439990120807
 20
2.36839999999762
 30
0.0
 11
11.5176272840591
 21
3.901627382848645
 31
0.0
  0
LINE
  5
112D0
  8
0
  6
CONTINUOUS
 10
10.65037369446246
 20
2.36085458417182
 30
0.0
 11
11.7257946674275
 21
3.436275557136862
 31
0.0
  0
LINE
  5
112D1
  8
0
  6
CONTINUOUS
 10
10.85847197087848
 20
1.895433651507656
 30
0.0
 11
11.9339620507959
 21
2.97092373142508
 31
0.0
  0
LINE
  5
112D2
  8
0
  6
CONTINUOUS
 10
11.0665702472945
 20
1.430012718843491
 30
0.0
 11
12.14212943416431
 21
2.505571905713296
 31
0.0
  0
LINE
  5
112D3
  8
0
  6
CONTINUOUS
 10
11.27466852371052
 20
0.9645917861793256
 30
0.0
 11
12.35029681753271
 21
2.040220080001513
 31
0.0
  0
LINE
  5
112D4
  8
0
  6
CONTINUOUS
 10
11.48276680012654
 20
0.4991708535151611
 30
0.0
 11
12.55846420090111
 21
1.57486825428973
 31
0.0
  0
LINE
  5
112D5
  8
0
  6
CONTINUOUS
 10
11.69086507654257
 20
0.0337499208509957
 30
0.0
 11
12.76663158426952
 21
1.109516428577947
 31
0.0
  0
LINE
  5
112D6
  8
0
  6
CONTINUOUS
 10
12.33057447873954
 20
-0.0000598860322123
 30
0.0
 11
12.97479896763792
 21
0.6441646028661663
 31
0.0
  0
LINE
  5
112D7
  8
0
  6
CONTINUOUS
 10
13.00413694809395
 20
-0.0000166257579952
 30
0.0
 11
13.18296635100632
 21
0.1788127771543824
 31
0.0
  0
LINE
  5
112D8
  8
0
  6
CONTINUOUS
 10
4.772852165289667
 20
-0.000092794222212
 30
0.0
 11
4.296495091028902
 21
0.4762642800385528
 31
0.0
  0
LINE
  5
112D9
  8
0
  6
CONTINUOUS
 10
5.446340034776103
 20
-0.0000614546284616
 30
0.0
 11
2.898195908335625
 21
2.548082671812017
 31
0.0
  0
LINE
  5
112DA
  8
0
  6
CONTINUOUS
 10
6.119827904262539
 20
-0.0000301150347113
 30
0.0
 11
1.499896725642348
 21
4.61990106358548
 31
0.0
  0
LINE
  5
112DB
  8
0
  6
CONTINUOUS
 10
6.775136745476159
 20
0.0181802528318542
 30
0.0
 11
5.699826040202669
 21
1.093490958105344
 31
0.0
  0
LINE
  5
112DC
  8
0
  6
CONTINUOUS
 10
6.983376846288489
 20
0.4834593610997118
 30
0.0
 11
5.908008617934405
 21
1.558827589453796
 31
0.0
  0
LINE
  5
112DD
  8
0
  6
CONTINUOUS
 10
5.377063484962296
 20
1.416253513345719
 30
0.0
 11
1.702276957014131
 21
5.091040041293883
 31
0.0
  0
LINE
  5
112DE
  8
0
  6
CONTINUOUS
 10
3.978745891735324
 20
3.488090315652877
 30
0.0
 11
2.000373521109399
 21
5.466462686278803
 31
0.0
  0
LINE
  5
112DF
  8
0
  6
CONTINUOUS
 10
7.191616947100819
 20
0.948738469367568
 30
0.0
 11
6.11619119566614
 21
2.024164220802247
 31
0.0
  0
LINE
  5
112E0
  8
0
  6
CONTINUOUS
 10
7.399857047913149
 20
1.414017577635424
 30
0.0
 11
6.324373773397875
 21
2.489500852150698
 31
0.0
  0
LINE
  5
112E1
  8
0
  6
CONTINUOUS
 10
7.608097148725479
 20
1.879296685903281
 30
0.0
 11
6.53255635112961
 21
2.95483748349915
 31
0.0
  0
LINE
  5
112E2
  8
0
  6
CONTINUOUS
 10
7.816337249537808
 20
2.344575794171138
 30
0.0
 11
6.740738928861345
 21
3.420174114847601
 31
0.0
  0
LINE
  5
112E3
  8
0
  6
CONTINUOUS
 10
3.310241080789734
 20
4.830114335678653
 30
0.0
 11
2.298470085204666
 21
5.84188533126372
 31
0.0
  0
LINE
  5
112E4
  8
0
  6
CONTINUOUS
 10
3.60832983563551
 20
5.205544789913063
 30
0.0
 11
2.596566649299935
 21
6.217307976248638
 31
0.0
  0
LINE
  5
112E5
  8
0
  6
CONTINUOUS
 10
3.906418590481286
 20
5.580975244147473
 30
0.0
 11
2.894663213395203
 21
6.592730621233557
 31
0.0
  0
LINE
  5
112E6
  8
0
  6
CONTINUOUS
 10
4.204507345327062
 20
5.956405698381884
 30
0.0
 11
3.192759777490472
 21
6.968153266218474
 31
0.0
  0
LINE
  5
112E7
  8
0
  6
CONTINUOUS
 10
8.466032252791512
 20
2.368399999997621
 30
0.0
 11
6.948921506593081
 21
3.885510746196053
 31
0.0
  0
LINE
  5
112E8
  8
0
  6
CONTINUOUS
 10
9.139551461871699
 20
2.36839999999762
 30
0.0
 11
7.157104084324816
 21
4.350847377544504
 31
0.0
  0
LINE
  5
112E9
  8
0
  6
CONTINUOUS
 10
4.502596100172839
 20
6.331836152616295
 30
0.0
 11
3.49085634158574
 21
7.343575911203393
 31
0.0
  0
LINE
  5
112EA
  8
0
  6
CONTINUOUS
 10
4.800684855018615
 20
6.707266606850705
 30
0.0
 11
3.788952905681008
 21
7.718998556188312
 31
0.0
  0
LINE
  5
112EB
  8
0
  6
CONTINUOUS
 10
12.18154012887317
 20
-0.0000694579236642
 30
0.0
 11
11.32140332908496
 21
0.8600673418645499
 31
0.0
  0
LINE
  5
112EC
  8
0
  6
CONTINUOUS
 10
12.85501608323566
 20
-0.0000262032059659
 30
0.0
 11
10.77672456435345
 21
2.078265315676246
 31
0.0
  0
LINE
  5
112ED
  8
0
  6
CONTINUOUS
 10
9.813070670951886
 20
2.36839999999762
 30
0.0
 11
8.51047067095321
 21
3.670999999996297
 31
0.0
  0
LINE
  5
112EE
  8
0
  6
CONTINUOUS
 10
10.48658988003207
 20
2.36839999999762
 30
0.0
 11
9.183989880033396
 21
3.670999999996297
 31
0.0
  0
LINE
  5
112EF
  8
0
  6
CONTINUOUS
 10
8.441048632286794
 20
3.740422038662712
 30
0.0
 11
7.365286662056551
 21
4.816184008892956
 31
0.0
  0
LINE
  5
112F0
  8
0
  6
CONTINUOUS
 10
8.649187485808454
 20
4.205802394221237
 30
0.0
 11
7.573469239788285
 21
5.281520640241407
 31
0.0
  0
LINE
  5
112F1
  8
0
  6
CONTINUOUS
 10
5.098773609864391
 20
7.082697061085115
 30
0.0
 11
4.087049469776277
 21
8.09442120117323
 31
0.0
  0
LINE
  5
112F2
  8
0
  6
CONTINUOUS
 10
5.396862364710167
 20
7.458127515319526
 30
0.0
 11
4.385146033871544
 21
8.469843846158149
 31
0.0
  0
LINE
  5
112F3
  8
0
  6
CONTINUOUS
 10
13.04801363231285
 20
0.4804954567970334
 30
0.0
 11
9.85750908911358
 21
3.670999999996297
 31
0.0
  0
LINE
  5
112F4
  8
0
  6
CONTINUOUS
 10
8.857326339330116
 20
4.671182749779763
 30
0.0
 11
7.781651817520021
 21
5.746857271589858
 31
0.0
  0
LINE
  5
112F5
  8
0
  6
CONTINUOUS
 10
5.694951119555943
 20
7.833557969553937
 30
0.0
 11
4.765409089118624
 21
8.763099999991255
 31
0.0
  0
LINE
  5
112F6
  8
0
  6
CONTINUOUS
 10
12.50286117236978
 20
1.699167125820288
 30
0.0
 11
9.68611877250287
 21
4.515909525687196
 31
0.0
  0
LINE
  5
112F7
  8
0
  6
CONTINUOUS
 10
9.065465192851777
 20
5.136563105338288
 30
0.0
 11
7.989834395251757
 21
6.21219390293831
 31
0.0
  0
LINE
  5
112F8
  8
0
  6
CONTINUOUS
 10
5.993039874401719
 20
8.208988423788346
 30
0.0
 11
5.43892829819881
 21
8.763099999991255
 31
0.0
  0
LINE
  5
112F9
  8
0
  6
CONTINUOUS
 10
11.95770871242671
 20
2.917838794843543
 30
0.0
 11
8.19801697298349
 21
6.677530534286761
 31
0.0
  0
LINE
  5
112FA
  8
0
  6
CONTINUOUS
 10
6.291128629247495
 20
8.584418878022756
 30
0.0
 11
6.112447507278997
 21
8.763099999991255
 31
0.0
  0
LINE
  5
112FB
  8
0
  6
CONTINUOUS
 10
11.41255625248364
 20
4.136510463866797
 30
0.0
 11
8.406199550715227
 21
7.142867165635211
 31
0.0
  0
LINE
  5
112FC
  8
0
  6
CONTINUOUS
 10
10.86740379254057
 20
5.355182132890051
 30
0.0
 11
8.614382128446962
 21
7.608203796983664
 31
0.0
  0
LINE
  5
112FD
  8
0
  6
CONTINUOUS
 10
10.3222513325975
 20
6.573853801913305
 30
0.0
 11
8.822564706178696
 21
8.073540428332114
 31
0.0
  0
LINE
  5
112FE
  8
0
  6
CONTINUOUS
 10
9.777098872654436
 20
7.792525470936562
 30
0.0
 11
9.030747283910433
 21
8.538877059680566
 31
0.0
  0
ENDBLK
  5
1143F
  8
0
  0
BLOCK
  8
0
  2
*X1931
 70
     1
 10
0.0
 20
0.0
 30
0.0
  3
*X1931
  1

  0
LINE
  5
11300
  8
0
  6
CONTINUOUS
 10
10.67292308101235
 20
8.445076852443387
 30
0.0
 11
10.99094622856022
 21
8.763099999991255
 31
0.0
  0
LINE
  5
11301
  8
0
  6
CONTINUOUS
 10
10.87250383178748
 20
7.971138394138331
 30
0.0
 11
11.6644654376404
 21
8.763099999991255
 31
0.0
  0
LINE
  5
11302
  8
0
  6
CONTINUOUS
 10
11.07208458256261
 20
7.497199935833273
 30
0.0
 11
12.12126590876355
 21
8.546381262034211
 31
0.0
  0
LINE
  5
11303
  8
0
  6
CONTINUOUS
 10
11.27166533333774
 20
7.023261477528216
 30
0.0
 11
12.32085164573666
 21
8.072447789927136
 31
0.0
  0
LINE
  5
11304
  8
0
  6
CONTINUOUS
 10
11.47124608411287
 20
6.549323019223158
 30
0.0
 11
12.52043738270977
 21
7.59851431782006
 31
0.0
  0
LINE
  5
11305
  8
0
  6
CONTINUOUS
 10
11.670826834888
 20
6.075384560918101
 30
0.0
 11
12.72002311968288
 21
7.124580845712984
 31
0.0
  0
LINE
  5
11306
  8
0
  6
CONTINUOUS
 10
11.87040758566313
 20
5.601446102613043
 30
0.0
 11
12.91960885665599
 21
6.650647373605907
 31
0.0
  0
LINE
  5
11307
  8
0
  6
CONTINUOUS
 10
12.06998833643825
 20
5.127507644307986
 30
0.0
 11
13.1191945936291
 21
6.176713901498832
 31
0.0
  0
LINE
  5
11308
  8
0
  6
CONTINUOUS
 10
12.26956908721338
 20
4.65356918600293
 30
0.0
 11
13.31878033060221
 21
5.702780429391757
 31
0.0
  0
LINE
  5
11309
  8
0
  6
CONTINUOUS
 10
12.46914983798851
 20
4.179630727697873
 30
0.0
 11
13.51836606757532
 21
5.228846957284683
 31
0.0
  0
LINE
  5
1130A
  8
0
  6
CONTINUOUS
 10
12.66873058876364
 20
3.705692269392816
 30
0.0
 11
13.71795180454843
 21
4.754913485177607
 31
0.0
  0
LINE
  5
1130B
  8
0
  6
CONTINUOUS
 10
12.86831133953877
 20
3.231753811087759
 30
0.0
 11
13.91753754152154
 21
4.280980013070531
 31
0.0
  0
LINE
  5
1130C
  8
0
  6
CONTINUOUS
 10
13.0678920903139
 20
2.757815352782702
 30
0.0
 11
14.11712327849465
 21
3.807046540963456
 31
0.0
  0
LINE
  5
1130D
  8
0
  6
CONTINUOUS
 10
13.26747284108903
 20
2.283876894477644
 30
0.0
 11
14.31670901546777
 21
3.333113068856379
 31
0.0
  0
LINE
  5
1130E
  8
0
  6
CONTINUOUS
 10
16.36767838827179
 20
8.751678487061342
 30
0.0
 11
16.50332410898388
 21
8.887324207773432
 31
0.0
  0
LINE
  5
1130F
  8
0
  6
CONTINUOUS
 10
15.96190732182191
 20
7.67238821153127
 30
0.0
 11
16.68735328004734
 21
8.397834169756699
 31
0.0
  0
LINE
  5
11310
  8
0
  6
CONTINUOUS
 10
15.55613625537202
 20
6.593097936001196
 30
0.0
 11
16.87138245111079
 21
7.908344131739965
 31
0.0
  0
LINE
  5
11311
  8
0
  6
CONTINUOUS
 10
15.15036518892213
 20
5.513807660471122
 30
0.0
 11
17.05541162217424
 21
7.418854093723231
 31
0.0
  0
LINE
  5
11312
  8
0
  6
CONTINUOUS
 10
14.74459412247225
 20
4.434517384941048
 30
0.0
 11
17.2394407932377
 21
6.929364055706499
 31
0.0
  0
LINE
  5
11313
  8
0
  6
CONTINUOUS
 10
14.33882305602236
 20
3.355227109410975
 30
0.0
 11
17.42346996430115
 21
6.439874017689766
 31
0.0
  0
LINE
  5
11314
  8
0
  6
CONTINUOUS
 10
13.46705359186416
 20
1.809938436172586
 30
0.0
 11
16.0819338255367
 21
4.424818669845129
 31
0.0
  0
LINE
  5
11315
  8
0
  6
CONTINUOUS
 10
16.63283254238972
 20
4.975717386698149
 30
0.0
 11
17.60749913536461
 21
5.950383979673033
 31
0.0
  0
LINE
  5
11316
  8
0
  6
CONTINUOUS
 10
13.66663434263929
 20
1.335999977867529
 30
0.0
 11
15.67604797733754
 21
3.345413612565779
 31
0.0
  0
LINE
  5
11317
  8
0
  6
CONTINUOUS
 10
13.86621509341442
 20
0.8620615195624723
 30
0.0
 11
15.27016212913838
 21
2.26600855528643
 31
0.0
  0
LINE
  5
11318
  8
0
  6
CONTINUOUS
 10
16.81682257348267
 20
4.486188208710908
 30
0.0
 11
17.79152830642806
 21
5.460893941656299
 31
0.0
  0
LINE
  5
11319
  8
0
  6
CONTINUOUS
 10
17.00081260457561
 20
3.996659030723667
 30
0.0
 11
17.97555747749151
 21
4.971403903639565
 31
0.0
  0
LINE
  5
1131A
  8
0
  6
CONTINUOUS
 10
20.74362343514722
 20
8.412989070375462
 30
0.0
 11
21.09373436476302
 21
8.763099999991256
 31
0.0
  0
LINE
  5
1131B
  8
0
  6
CONTINUOUS
 10
20.25401257174777
 20
7.249858997895826
 30
0.0
 11
21.7672535738432
 21
8.763099999991255
 31
0.0
  0
LINE
  5
1131C
  8
0
  6
CONTINUOUS
 10
14.06579584418955
 20
0.3881230612574149
 30
0.0
 11
14.86427628093921
 21
1.186603498007082
 31
0.0
  0
LINE
  5
1131D
  8
0
  6
CONTINUOUS
 10
14.26537659496467
 20
-0.0858153970476412
 30
0.0
 11
14.45839043274005
 21
0.1071984407277329
 31
0.0
  0
LINE
  5
1131E
  8
0
  6
CONTINUOUS
 10
17.18480263566856
 20
3.507129852736426
 30
0.0
 11
18.15958664855496
 21
4.481913865622833
 31
0.0
  0
LINE
  5
1131F
  8
0
  6
CONTINUOUS
 10
17.3687926667615
 20
3.017600674749186
 30
0.0
 11
18.34361581961842
 21
3.9924238276061
 31
0.0
  0
LINE
  5
11320
  8
0
  6
CONTINUOUS
 10
19.76440170834832
 20
6.086728925416191
 30
0.0
 11
22.33924590259489
 21
8.661573119662755
 31
0.0
  0
LINE
  5
11321
  8
0
  6
CONTINUOUS
 10
19.27479084494887
 20
4.923598852936555
 30
0.0
 11
21.84929622842713
 21
7.498104236414807
 31
0.0
  0
LINE
  5
11322
  8
0
  6
CONTINUOUS
 10
17.55278269785445
 20
2.528071496761945
 30
0.0
 11
18.52764499068187
 21
3.502933789589366
 31
0.0
  0
LINE
  5
11323
  8
0
  6
CONTINUOUS
 10
18.78517998154942
 20
3.760468780456919
 30
0.0
 11
21.35934655425936
 21
6.33463535316686
 31
0.0
  0
LINE
  5
11324
  8
0
  6
CONTINUOUS
 10
17.73677272894739
 20
2.038542318774704
 30
0.0
 11
20.8693968800916
 21
5.171166469918914
 31
0.0
  0
LINE
  5
11325
  8
0
  6
CONTINUOUS
 10
17.92076276004034
 20
1.549013140787464
 30
0.0
 11
20.37944720592384
 21
4.007697586670968
 31
0.0
  0
LINE
  5
11326
  8
0
  6
CONTINUOUS
 10
18.10475279113329
 20
1.059483962800223
 30
0.0
 11
19.88949753175608
 21
2.84422870342302
 31
0.0
  0
LINE
  5
11327
  8
0
  6
CONTINUOUS
 10
18.28874282222623
 20
0.5699547848129822
 30
0.0
 11
19.39954785758832
 21
1.680759820175074
 31
0.0
  0
LINE
  5
11328
  8
0
  6
CONTINUOUS
 10
18.47273285331918
 20
0.0804256068257416
 30
0.0
 11
18.90959818342056
 21
0.517290936927127
 31
0.0
  0
LINE
  5
11329
  8
0
  6
CONTINUOUS
 10
14.3590401358224
 20
-0.1570118376323384
 30
0.0
 11
14.24903296539946
 21
-0.0470046672093929
 31
0.0
  0
LINE
  5
1132A
  8
0
  6
CONTINUOUS
 10
14.54309291258661
 20
0.332454594683643
 30
0.0
 11
13.75908329123172
 21
1.116464216038529
 31
0.0
  0
LINE
  5
1132B
  8
0
  6
CONTINUOUS
 10
14.72714568935081
 20
0.8219210269996244
 30
0.0
 11
13.26913361706399
 21
2.27993309928645
 31
0.0
  0
LINE
  5
1132C
  8
0
  6
CONTINUOUS
 10
14.91119846611502
 20
1.311387459315606
 30
0.0
 11
12.77918394289625
 21
3.443401982534371
 31
0.0
  0
LINE
  5
1132D
  8
0
  6
CONTINUOUS
 10
15.09525124287922
 20
1.800853891631587
 30
0.0
 11
12.28923426872852
 21
4.606870865782293
 31
0.0
  0
LINE
  5
1132E
  8
0
  6
CONTINUOUS
 10
15.27930401964343
 20
2.290320323947569
 30
0.0
 11
11.79928459456078
 21
5.770339749030213
 31
0.0
  0
LINE
  5
1132F
  8
0
  6
CONTINUOUS
 10
15.46335679640763
 20
2.77978675626355
 30
0.0
 11
14.48885470994921
 21
3.754288842721972
 31
0.0
  0
LINE
  5
11330
  8
0
  6
CONTINUOUS
 10
13.88507249233704
 20
4.358071060334137
 30
0.0
 11
11.30933492039305
 21
6.933808632278135
 31
0.0
  0
LINE
  5
11331
  8
0
  6
CONTINUOUS
 10
18.75840522805855
 20
0.1582575336928151
 30
0.0
 11
18.25383727664818
 21
0.6628254851031863
 31
0.0
  0
LINE
  5
11332
  8
0
  6
CONTINUOUS
 10
15.64740957317184
 20
3.269253188579531
 30
0.0
 11
14.67288388101266
 21
4.243778880738705
 31
0.0
  0
LINE
  5
11333
  8
0
  6
CONTINUOUS
 10
13.39509276772158
 20
5.521569994029786
 30
0.0
 11
10.81938524622531
 21
8.097277515526056
 31
0.0
  0
LINE
  5
11334
  8
0
  6
CONTINUOUS
 10
18.95798597883369
 20
0.6321959919978686
 30
0.0
 11
17.84825644852853
 21
1.741925522303024
 31
0.0
  0
LINE
  5
11335
  8
0
  6
CONTINUOUS
 10
19.15756672960882
 20
1.106134450302922
 30
0.0
 11
17.44267562040888
 21
2.821025559502861
 31
0.0
  0
LINE
  5
11336
  8
0
  6
CONTINUOUS
 10
15.83146234993604
 20
3.758719620895513
 30
0.0
 11
14.85691305207612
 21
4.733268918755439
 31
0.0
  0
LINE
  5
11337
  8
0
  6
CONTINUOUS
 10
16.01551512670025
 20
4.248186053211494
 30
0.0
 11
15.04094222313957
 21
5.222758956772172
 31
0.0
  0
LINE
  5
11338
  8
0
  6
CONTINUOUS
 10
12.90511304310612
 20
6.685068927725435
 30
0.0
 11
10.8270819708403
 21
8.763099999991255
 31
0.0
  0
LINE
  5
11339
  8
0
  6
CONTINUOUS
 10
12.41513331849066
 20
7.848567861421083
 30
0.0
 11
11.50060117992049
 21
8.763099999991255
 31
0.0
  0
LINE
  5
1133A
  8
0
  6
CONTINUOUS
 10
19.35714748038395
 20
1.580072908607975
 30
0.0
 11
17.03709479228923
 21
3.900125596702697
 31
0.0
  0
LINE
  5
1133B
  8
0
  6
CONTINUOUS
 10
19.55672823115909
 20
2.054011366913028
 30
0.0
 11
16.63151396416958
 21
4.979225633902534
 31
0.0
  0
LINE
  5
1133C
  8
0
  6
CONTINUOUS
 10
16.19956790346445
 20
4.737652485527476
 30
0.0
 11
15.22497139420302
 21
5.712248994788904
 31
0.0
  0
LINE
  5
1133D
  8
0
  6
CONTINUOUS
 10
16.38362068022866
 20
5.227118917843457
 30
0.0
 11
15.40900056526648
 21
6.201739032805637
 31
0.0
  0
LINE
  5
1133E
  8
0
  6
CONTINUOUS
 10
19.75630898193422
 20
2.527949825218081
 30
0.0
 11
18.70774536448286
 21
3.576513442669441
 31
0.0
  0
LINE
  5
1133F
  8
0
  6
CONTINUOUS
 10
19.95588973270936
 20
3.001888283523134
 30
0.0
 11
18.90726987211446
 21
4.050508144118028
 31
0.0
  0
LINE
  5
11340
  8
0
  6
CONTINUOUS
 10
20.15547048348449
 20
3.475826741828186
 30
0.0
 11
19.10679437974606
 21
4.524502845566614
 31
0.0
  0
LINE
  5
11341
  8
0
  6
CONTINUOUS
 10
20.35505123425962
 20
3.94976520013324
 30
0.0
 11
19.30631888737766
 21
4.998497547015201
 31
0.0
  0
LINE
  5
11342
  8
0
  6
CONTINUOUS
 10
20.55463198503475
 20
4.423703658438292
 30
0.0
 11
19.50584339500926
 21
5.472492248463787
 31
0.0
  0
LINE
  5
11343
  8
0
  6
CONTINUOUS
 10
18.37481191085755
 20
3.909446896294752
 30
0.0
 11
15.59302973632993
 21
6.691229070822371
 31
0.0
  0
LINE
  5
11344
  8
0
  6
CONTINUOUS
 10
17.96904084440766
 20
4.988737171824825
 30
0.0
 11
15.77705890739338
 21
7.180719108839104
 31
0.0
  0
LINE
  5
11345
  8
0
  6
CONTINUOUS
 10
17.56326977795777
 20
6.068027447354899
 30
0.0
 11
15.96108807845684
 21
7.670209146855838
 31
0.0
  0
LINE
  5
11346
  8
0
  6
CONTINUOUS
 10
17.15749871150789
 20
7.147317722884972
 30
0.0
 11
16.14511724952029
 21
8.15969918487257
 31
0.0
  0
LINE
  5
11347
  8
0
  6
CONTINUOUS
 10
16.751727645058
 20
8.226607998415046
 30
0.0
 11
16.32914642058374
 21
8.649189222889303
 31
0.0
  0
LINE
  5
11348
  8
0
  6
CONTINUOUS
 10
20.75421273580989
 20
4.897642116743345
 30
0.0
 11
19.70536790264086
 21
5.946486949912374
 31
0.0
  0
LINE
  5
11349
  8
0
  6
CONTINUOUS
 10
20.95379348658502
 20
5.371580575048398
 30
0.0
 11
19.90489241027246
 21
6.42048165136096
 31
0.0
  0
LINE
  5
1134A
  8
0
  6
CONTINUOUS
 10
21.15337423736015
 20
5.845519033353452
 30
0.0
 11
20.10441691790406
 21
6.894476352809547
 31
0.0
  0
LINE
  5
1134B
  8
0
  6
CONTINUOUS
 10
21.35295498813529
 20
6.319457491658505
 30
0.0
 11
20.30394142553566
 21
7.368471054258134
 31
0.0
  0
LINE
  5
1134C
  8
0
  6
CONTINUOUS
 10
21.55253573891042
 20
6.793395949963558
 30
0.0
 11
20.50346593316726
 21
7.842465755706721
 31
0.0
  0
LINE
  5
1134D
  8
0
  6
CONTINUOUS
 10
21.75211648968556
 20
7.267334408268612
 30
0.0
 11
20.70299044079886
 21
8.316460457155308
 31
0.0
  0
LINE
  5
1134E
  8
0
  6
CONTINUOUS
 10
21.95169724046069
 20
7.741272866573663
 30
0.0
 11
20.9298701070431
 21
8.763099999991256
 31
0.0
  0
LINE
  5
1134F
  8
0
  6
CONTINUOUS
 10
22.15127799123582
 20
8.215211324878716
 30
0.0
 11
21.60338931612328
 21
8.763099999991256
 31
0.0
  0
LINE
  5
11350
  8
0
  6
CONTINUOUS
 10
22.35085874201096
 20
8.689149783183769
 30
0.0
 11
22.27690852520347
 21
8.763099999991255
 31
0.0
  0
ENDBLK
  5
11441
  8
0
  0
BLOCK
  8
0
  2
*X1932
 70
     1
 10
0.0
 20
0.0
 30
0.0
  3
*X1932
  1

  0
LINE
  5
11352
  8
0
  6
CONTINUOUS
 10
23.19462913593892
 20
8.169917934846424
 30
0.0
 11
23.70775465517246
 21
8.683043454079957
 31
0.0
  0
LINE
  5
11353
  8
0
  6
CONTINUOUS
 10
22.64923161835078
 20
6.951001208178088
 30
0.0
 11
23.9159364069932
 21
8.217705996820516
 31
0.0
  0
LINE
  5
11354
  8
0
  6
CONTINUOUS
 10
22.10383410076263
 20
5.732084481509751
 30
0.0
 11
24.12411815881395
 21
7.752368539561078
 31
0.0
  0
LINE
  5
11355
  8
0
  6
CONTINUOUS
 10
21.55843658317447
 20
4.513167754841414
 30
0.0
 11
24.3322999106347
 21
7.287031082301639
 31
0.0
  0
LINE
  5
11356
  8
0
  6
CONTINUOUS
 10
21.01303906558632
 20
3.294251028173077
 30
0.0
 11
24.54048166245544
 21
6.821693625042199
 31
0.0
  0
LINE
  5
11357
  8
0
  6
CONTINUOUS
 10
20.46764154799817
 20
2.075334301504738
 30
0.0
 11
23.28571549467848
 21
4.89340824818505
 31
0.0
  0
LINE
  5
11358
  8
0
  6
CONTINUOUS
 10
19.92224403041002
 20
0.8564175748364002
 30
0.0
 11
22.74075865492779
 21
3.674932199354171
 31
0.0
  0
LINE
  5
11359
  8
0
  6
CONTINUOUS
 10
23.67305085490148
 20
5.280743608408048
 30
0.0
 11
24.74866341427619
 21
6.356356167782759
 31
0.0
  0
LINE
  5
1135A
  8
0
  6
CONTINUOUS
 10
23.88118970842314
 20
4.815363252849522
 30
0.0
 11
24.95684516609694
 21
5.89101871052332
 31
0.0
  0
LINE
  5
1135B
  8
0
  6
CONTINUOUS
 10
19.73925852647308
 20
-0.0000871381807288
 30
0.0
 11
23.4103456646501
 21
3.670999999996297
 31
0.0
  0
LINE
  5
1135C
  8
0
  6
CONTINUOUS
 10
24.0893285619448
 20
4.349982897290997
 30
0.0
 11
25.16502691791769
 21
5.42568125326388
 31
0.0
  0
LINE
  5
1135D
  8
0
  6
CONTINUOUS
 10
20.41282099582748
 20
-0.0000438779065108
 30
0.0
 11
21.64944178675636
 21
1.236576913022366
 31
0.0
  0
LINE
  5
1135E
  8
0
  6
CONTINUOUS
 10
22.78126487373161
 20
2.36839999999762
 30
0.0
 11
24.08386487373029
 21
3.670999999996297
 31
0.0
  0
LINE
  5
1135F
  8
0
  6
CONTINUOUS
 10
24.29746741546646
 20
3.884602541732471
 30
0.0
 11
25.37320866973843
 21
4.960343796004441
 31
0.0
  0
LINE
  5
11360
  8
0
  6
CONTINUOUS
 10
21.08638346518189
 20
-0.0000006176322938
 30
0.0
 11
21.10379033335899
 21
0.0174062505448083
 31
0.0
  0
LINE
  5
11361
  8
0
  6
CONTINUOUS
 10
23.4547840828118
 20
2.36839999999762
 30
0.0
 11
25.58139042155918
 21
4.495006338745002
 31
0.0
  0
LINE
  5
11362
  8
0
  6
CONTINUOUS
 10
29.30199999996933
 20
8.215615917155148
 30
0.0
 11
29.84948408280543
 21
8.763099999991255
 31
0.0
  0
LINE
  5
11363
  8
0
  6
CONTINUOUS
 10
24.12830329189199
 20
2.36839999999762
 30
0.0
 11
25.78957217337993
 21
4.029668881485562
 31
0.0
  0
LINE
  5
11364
  8
0
  6
CONTINUOUS
 10
29.30199999996933
 20
7.54209670807496
 30
0.0
 11
30.52300329188562
 21
8.763099999991255
 31
0.0
  0
LINE
  5
11365
  8
0
  6
CONTINUOUS
 10
24.80182250097217
 20
2.36839999999762
 30
0.0
 11
25.99775392520067
 21
3.564331424226122
 31
0.0
  0
LINE
  5
11366
  8
0
  6
CONTINUOUS
 10
29.30199999996933
 20
6.868577498994774
 30
0.0
 11
30.74199999996926
 21
8.308577498994712
 31
0.0
  0
LINE
  5
11367
  8
0
  6
CONTINUOUS
 10
25.13028238392013
 20
2.023340673865392
 30
0.0
 11
26.20593567702142
 21
3.098993966966683
 31
0.0
  0
LINE
  5
11368
  8
0
  6
CONTINUOUS
 10
25.33838066033617
 20
1.557919741201244
 30
0.0
 11
26.41411742884217
 21
2.633656509707244
 31
0.0
  0
LINE
  5
11369
  8
0
  6
CONTINUOUS
 10
25.54647893675221
 20
1.092498808537098
 30
0.0
 11
26.62229918066291
 21
2.168319052447804
 31
0.0
  0
LINE
  5
1136A
  8
0
  6
CONTINUOUS
 10
25.75457721316825
 20
0.62707787587295
 30
0.0
 11
26.83048093248366
 21
1.702981595188365
 31
0.0
  0
LINE
  5
1136B
  8
0
  6
CONTINUOUS
 10
29.30199999996933
 20
6.195058289914587
 30
0.0
 11
30.74199999996926
 21
7.635058289914522
 31
0.0
  0
LINE
  5
1136C
  8
0
  6
CONTINUOUS
 10
29.30199999996933
 20
5.521539080834401
 30
0.0
 11
30.74199999996926
 21
6.961539080834331
 31
0.0
  0
LINE
  5
1136D
  8
0
  6
CONTINUOUS
 10
29.30199999996933
 20
4.848019871754214
 30
0.0
 11
30.74199999996925
 21
6.288019871754143
 31
0.0
  0
LINE
  5
1136E
  8
0
  6
CONTINUOUS
 10
29.30199999996933
 20
4.174500662674028
 30
0.0
 11
30.74199999996925
 21
5.614500662673953
 31
0.0
  0
LINE
  5
1136F
  8
0
  6
CONTINUOUS
 10
25.96267548958429
 20
0.1616569432088024
 30
0.0
 11
27.18411854636669
 21
1.383099999991207
 31
0.0
  0
LINE
  5
11370
  8
0
  6
CONTINUOUS
 10
29.30199999996933
 20
3.500981453593841
 30
0.0
 11
30.74199999996925
 21
4.940981453593762
 31
0.0
  0
LINE
  5
11371
  8
0
  6
CONTINUOUS
 10
26.50763775544691
 20
0.0330999999912356
 30
0.0
 11
27.85763775544689
 21
1.383099999991223
 31
0.0
  0
LINE
  5
11372
  8
0
  6
CONTINUOUS
 10
29.30199999996933
 20
2.827462244513656
 30
0.0
 11
30.74199999996925
 21
4.267462244513574
 31
0.0
  0
LINE
  5
11373
  8
0
  6
CONTINUOUS
 10
27.18115696452709
 20
0.0330999999912356
 30
0.0
 11
28.6224847300034
 21
1.474427765467545
 31
0.0
  0
LINE
  5
11374
  8
0
  6
CONTINUOUS
 10
29.21067223449293
 20
2.062615269957069
 30
0.0
 11
30.74199999996924
 21
3.593943035433383
 31
0.0
  0
LINE
  5
11375
  8
0
  6
CONTINUOUS
 10
27.85467617360728
 20
0.0330999999912356
 30
0.0
 11
30.74199999996924
 21
2.920423826353195
 31
0.0
  0
LINE
  5
11376
  8
0
  6
CONTINUOUS
 10
28.61742899356196
 20
0.1223336108657271
 30
0.0
 11
30.65276638909473
 21
2.157671006398498
 31
0.0
  0
LINE
  5
11377
  8
0
  6
CONTINUOUS
 10
29.76719820264213
 20
0.5985836108657137
 30
0.0
 11
30.17651638909472
 21
1.0079017973183
 31
0.0
  0
LINE
  5
11378
  8
0
  6
CONTINUOUS
 10
19.59027867740337
 20
-0.0000967065718083
 30
0.0
 11
19.55485265190471
 21
0.035329318926844
 31
0.0
  0
LINE
  5
11379
  8
0
  6
CONTINUOUS
 10
20.26375463176586
 20
-0.0000534518541091
 30
0.0
 11
19.76305575737534
 21
0.5006454225364014
 31
0.0
  0
LINE
  5
1137A
  8
0
  6
CONTINUOUS
 10
20.93723058612834
 20
-0.0000101971364099
 30
0.0
 11
19.97125886284597
 21
0.965961526145958
 31
0.0
  0
LINE
  5
1137B
  8
0
  6
CONTINUOUS
 10
21.25514828313686
 20
0.355591314935257
 30
0.0
 11
20.1794619683166
 21
1.431277629755512
 31
0.0
  0
LINE
  5
1137C
  8
0
  6
CONTINUOUS
 10
21.46338838394921
 20
0.8208704232030986
 30
0.0
 11
20.38766507378723
 21
1.896593733365069
 31
0.0
  0
LINE
  5
1137D
  8
0
  6
CONTINUOUS
 10
21.67162848476155
 20
1.28614953147094
 30
0.0
 11
20.59586817925786
 21
2.361909836974626
 31
0.0
  0
LINE
  5
1137E
  8
0
  6
CONTINUOUS
 10
21.8798685855739
 20
1.751428639738782
 30
0.0
 11
20.80407128472849
 21
2.827225940584183
 31
0.0
  0
LINE
  5
1137F
  8
0
  6
CONTINUOUS
 10
22.08810868638624
 20
2.216707748006623
 30
0.0
 11
21.01227439019912
 21
3.292542044193739
 31
0.0
  0
LINE
  5
11380
  8
0
  6
CONTINUOUS
 10
22.60993564347543
 20
2.36839999999762
 30
0.0
 11
21.22047749566975
 21
3.757858147803296
 31
0.0
  0
LINE
  5
11381
  8
0
  6
CONTINUOUS
 10
23.28345485255561
 20
2.36839999999762
 30
0.0
 11
21.42868060114038
 21
4.223174251412853
 31
0.0
  0
LINE
  5
11382
  8
0
  6
CONTINUOUS
 10
26.29227406164219
 20
0.0330999999912356
 30
0.0
 11
25.80009199592872
 21
0.5252820657046957
 31
0.0
  0
LINE
  5
11383
  8
0
  6
CONTINUOUS
 10
23.9569740616358
 20
2.36839999999762
 30
0.0
 11
21.63688370661101
 21
4.688490355022409
 31
0.0
  0
LINE
  5
11384
  8
0
  6
CONTINUOUS
 10
26.96579327072237
 20
0.0330999999912356
 30
0.0
 11
25.2554132311971
 21
1.743480039516508
 31
0.0
  0
LINE
  5
11385
  8
0
  6
CONTINUOUS
 10
24.63049327071599
 20
2.36839999999762
 30
0.0
 11
23.32789327071731
 21
3.670999999996297
 31
0.0
  0
LINE
  5
11386
  8
0
  6
CONTINUOUS
 10
22.92098674744635
 20
4.077906523267254
 30
0.0
 11
21.84508681208164
 21
5.153806458631966
 31
0.0
  0
LINE
  5
11387
  8
0
  6
CONTINUOUS
 10
27.63931247980256
 20
0.0330999999912356
 30
0.0
 11
24.0014124797975
 21
3.670999999996297
 31
0.0
  0
LINE
  5
11388
  8
0
  6
CONTINUOUS
 10
23.129125600968
 20
4.5432868788258
 30
0.0
 11
22.05328991755227
 21
5.619122562241522
 31
0.0
  0
LINE
  5
11389
  8
0
  6
CONTINUOUS
 10
28.31283168888275
 20
0.0330999999912356
 30
0.0
 11
24.16488385994816
 21
4.181047828925828
 31
0.0
  0
LINE
  5
1138A
  8
0
  6
CONTINUOUS
 10
23.33726445448964
 20
5.008667234384345
 30
0.0
 11
22.2614930230229
 21
6.084438665851079
 31
0.0
  0
LINE
  5
1138B
  8
0
  6
CONTINUOUS
 10
28.81519848253303
 20
0.2042524154211396
 30
0.0
 11
27.63635089796295
 21
1.383099999991217
 31
0.0
  0
LINE
  5
1138C
  8
0
  6
CONTINUOUS
 10
26.43704649509776
 20
2.582404402856405
 30
0.0
 11
23.61992702019732
 21
5.399523877756844
 31
0.0
  0
LINE
  5
1138D
  8
0
  6
CONTINUOUS
 10
23.54540330801128
 20
5.47404758994289
 30
0.0
 11
22.46969612849353
 21
6.549754769460635
 31
0.0
  0
LINE
  5
1138E
  8
0
  6
CONTINUOUS
 10
29.29144848253303
 20
0.4015216245013242
 30
0.0
 11
28.30987010704312
 21
1.383099999991234
 31
0.0
  0
LINE
  5
1138F
  8
0
  6
CONTINUOUS
 10
25.89179548232307
 20
3.801174624711282
 30
0.0
 11
22.67789923396416
 21
7.015070873070191
 31
0.0
  0
LINE
  5
11390
  8
0
  6
CONTINUOUS
 10
29.76769848253303
 20
0.5987908335815084
 30
0.0
 11
28.81310432793121
 21
1.553384988183336
 31
0.0
  0
LINE
  5
11391
  8
0
  6
CONTINUOUS
 10
25.34654446954838
 20
5.01994484656616
 30
0.0
 11
22.88610233943479
 21
7.480386976679748
 31
0.0
  0
LINE
  5
11392
  8
0
  6
CONTINUOUS
 10
30.13421977859274
 20
0.9057887466019845
 30
0.0
 11
29.14234640337737
 21
1.897662121817355
 31
0.0
  0
LINE
  5
11393
  8
0
  6
CONTINUOUS
 10
24.80129345677369
 20
6.238715068421037
 30
0.0
 11
23.09430544490542
 21
7.945703080289305
 31
0.0
  0
LINE
  5
11394
  8
0
  6
CONTINUOUS
 10
30.33148898767293
 20
1.382038746601982
 30
0.0
 11
29.30199999996933
 21
2.411527734305588
 31
0.0
  0
LINE
  5
11395
  8
0
  6
CONTINUOUS
 10
30.52875819675312
 20
1.85828874660198
 30
0.0
 11
29.30199999996933
 21
3.085046943385775
 31
0.0
  0
LINE
  5
11396
  8
0
  6
CONTINUOUS
 10
24.256042443999
 20
7.457485290275915
 30
0.0
 11
23.30250855037605
 21
8.411019183898862
 31
0.0
  0
LINE
  5
11397
  8
0
  6
CONTINUOUS
 10
23.71079143122431
 20
8.676255512130794
 30
0.0
 11
23.51071165584668
 21
8.876335287508418
 31
0.0
  0
LINE
  5
11398
  8
0
  6
CONTINUOUS
 10
30.72602740583331
 20
2.334538746601978
 30
0.0
 11
29.30199999996933
 21
3.758566152465961
 31
0.0
  0
LINE
  5
11399
  8
0
  6
CONTINUOUS
 10
30.74199999996924
 20
2.992085361546236
 30
0.0
 11
29.30199999996933
 21
4.432085361546148
 31
0.0
  0
LINE
  5
1139A
  8
0
  6
CONTINUOUS
 10
30.74199999996924
 20
3.665604570626419
 30
0.0
 11
29.30199999996933
 21
5.105604570626333
 31
0.0
  0
LINE
  5
1139B
  8
0
  6
CONTINUOUS
 10
30.74199999996925
 20
4.339123779706602
 30
0.0
 11
29.30199999996933
 21
5.77912377970652
 31
0.0
  0
LINE
  5
1139C
  8
0
  6
CONTINUOUS
 10
30.74199999996925
 20
5.012642988786785
 30
0.0
 11
29.30199999996933
 21
6.452642988786707
 31
0.0
  0
LINE
  5
1139D
  8
0
  6
CONTINUOUS
 10
30.74199999996925
 20
5.68616219786697
 30
0.0
 11
29.30199999996933
 21
7.126162197866894
 31
0.0
  0
LINE
  5
1139E
  8
0
  6
CONTINUOUS
 10
30.74199999996925
 20
6.359681406947153
 30
0.0
 11
29.30199999996933
 21
7.799681406947081
 31
0.0
  0
LINE
  5
1139F
  8
0
  6
CONTINUOUS
 10
30.74199999996926
 20
7.033200616027337
 30
0.0
 11
29.30199999996933
 21
8.473200616027269
 31
0.0
  0
LINE
  5
113A0
  8
0
  6
CONTINUOUS
 10
30.74199999996926
 20
7.706719825107518
 30
0.0
 11
29.68561982508552
 21
8.763099999991255
 31
0.0
  0
LINE
  5
113A1
  8
0
  6
CONTINUOUS
 10
30.74199999996926
 20
8.380239034187703
 30
0.0
 11
30.35913903416571
 21
8.763099999991255
 31
0.0
  0
ENDBLK
  5
11443
  8
0
  0
BLOCK
  8
0
  2
*X1933
 70
     1
 10
0.0
 20
0.0
 30
0.0
  3
*X1933
  1

  0
LINE
  5
113A3
  8
0
  6
CONTINUOUS
 10
31.64199999996833
 20
8.535058289913598
 30
0.0
 11
31.87004171004599
 21
8.763099999991255
 31
0.0
  0
LINE
  5
113A4
  8
0
  6
CONTINUOUS
 10
31.64199999996833
 20
7.861539080833412
 30
0.0
 11
32.54356091912618
 21
8.763099999991255
 31
0.0
  0
LINE
  5
113A5
  8
0
  6
CONTINUOUS
 10
31.64199999996833
 20
7.188019871753226
 30
0.0
 11
33.08199999996839
 21
8.628019871753281
 31
0.0
  0
LINE
  5
113A6
  8
0
  6
CONTINUOUS
 10
31.64199999996833
 20
6.51450066267304
 30
0.0
 11
33.08199999996839
 21
7.954500662673095
 31
0.0
  0
LINE
  5
113A7
  8
0
  6
CONTINUOUS
 10
31.64199999996833
 20
5.840981453592853
 30
0.0
 11
33.08199999996839
 21
7.280981453592908
 31
0.0
  0
LINE
  5
113A8
  8
0
  6
CONTINUOUS
 10
31.64199999996833
 20
5.167462244512667
 30
0.0
 11
33.08199999996839
 21
6.607462244512721
 31
0.0
  0
LINE
  5
113A9
  8
0
  6
CONTINUOUS
 10
31.64199999996833
 20
4.493943035432481
 30
0.0
 11
33.08199999996839
 21
5.933943035432535
 31
0.0
  0
LINE
  5
113AA
  8
0
  6
CONTINUOUS
 10
31.64199999996833
 20
3.820423826352293
 30
0.0
 11
33.08199999996839
 21
5.260423826352348
 31
0.0
  0
LINE
  5
113AB
  8
0
  6
CONTINUOUS
 10
31.64199999996833
 20
3.146904617272106
 30
0.0
 11
33.08199999996839
 21
4.586904617272161
 31
0.0
  0
LINE
  5
113AC
  8
0
  6
CONTINUOUS
 10
36.23199999996837
 20
8.410423826352325
 30
0.0
 11
36.5846761736073
 21
8.763099999991255
 31
0.0
  0
LINE
  5
113AD
  8
0
  6
CONTINUOUS
 10
36.23199999996837
 20
7.73690461727214
 30
0.0
 11
37.25819538268748
 21
8.763099999991255
 31
0.0
  0
LINE
  5
113AE
  8
0
  6
CONTINUOUS
 10
31.64374005202358
 20
2.475125460247167
 30
0.0
 11
33.08199999996839
 21
3.913385408191974
 31
0.0
  0
LINE
  5
113AF
  8
0
  6
CONTINUOUS
 10
31.78607140823076
 20
1.943937607374161
 30
0.0
 11
33.08199999996839
 21
3.239866199111788
 31
0.0
  0
LINE
  5
113B0
  8
0
  6
CONTINUOUS
 10
31.92840276443794
 20
1.412749754501155
 30
0.0
 11
33.08199999996839
 21
2.566346990031601
 31
0.0
  0
LINE
  5
113B1
  8
0
  6
CONTINUOUS
 10
36.23199999996837
 20
7.063385408191953
 30
0.0
 11
37.67199999996831
 21
8.503385408191894
 31
0.0
  0
LINE
  5
113B2
  8
0
  6
CONTINUOUS
 10
36.23199999996837
 20
6.389866199111767
 30
0.0
 11
37.67199999996831
 21
7.829866199111708
 31
0.0
  0
LINE
  5
113B3
  8
0
  6
CONTINUOUS
 10
36.23199999996837
 20
5.71634699003158
 30
0.0
 11
37.67199999996831
 21
7.156346990031521
 31
0.0
  0
LINE
  5
113B4
  8
0
  6
CONTINUOUS
 10
32.1787326690177
 20
0.9895604500007256
 30
0.0
 11
33.20642631446081
 21
2.017254095443837
 31
0.0
  0
LINE
  5
113B5
  8
0
  6
CONTINUOUS
 10
36.23199999996837
 20
5.042827780951393
 30
0.0
 11
37.67199999996831
 21
6.482827780951334
 31
0.0
  0
LINE
  5
113B6
  8
0
  6
CONTINUOUS
 10
32.51549227355815
 20
0.652800845460991
 30
0.0
 11
33.49903056428258
 21
1.636339136185419
 31
0.0
  0
LINE
  5
113B7
  8
0
  6
CONTINUOUS
 10
36.23199999996837
 20
4.369308571871207
 30
0.0
 11
37.67199999996831
 21
5.809308571871147
 31
0.0
  0
LINE
  5
113B8
  8
0
  6
CONTINUOUS
 10
32.8522518780986
 20
0.3160412409212565
 30
0.0
 11
33.93324121824649
 21
1.397030581069147
 31
0.0
  0
LINE
  5
113B9
  8
0
  6
CONTINUOUS
 10
36.23199999996837
 20
3.69578936279102
 30
0.0
 11
37.67199999996831
 21
5.135789362790962
 31
0.0
  0
LINE
  5
113BA
  8
0
  6
CONTINUOUS
 10
33.32873687730419
 20
0.1190070310466638
 30
0.0
 11
34.46442907112041
 21
1.254699224862875
 31
0.0
  0
LINE
  5
113BB
  8
0
  6
CONTINUOUS
 10
36.23199999996837
 20
3.022270153710834
 30
0.0
 11
37.67199999996831
 21
4.462270153710775
 31
0.0
  0
LINE
  5
113BC
  8
0
  6
CONTINUOUS
 10
33.85992473017767
 20
-0.0233243251600488
 30
0.0
 11
35.24350171668284
 21
1.360252661345124
 31
0.0
  0
LINE
  5
113BD
  8
0
  6
CONTINUOUS
 10
36.18336676155003
 20
2.300117706212307
 30
0.0
 11
37.67199999996831
 21
3.788750944630588
 31
0.0
  0
LINE
  5
113BE
  8
0
  6
CONTINUOUS
 10
34.39111258305115
 20
-0.1656556813667613
 30
0.0
 11
37.67199999996831
 21
3.115231735550401
 31
0.0
  0
LINE
  5
113BF
  8
0
  6
CONTINUOUS
 10
35.11651383431612
 20
-0.1137736391819715
 30
0.0
 11
37.65739306207836
 21
2.427105588580266
 31
0.0
  0
LINE
  5
113C0
  8
0
  6
CONTINUOUS
 10
36.03655818385387
 20
0.1327515012755951
 30
0.0
 11
37.41086792161699
 21
1.507061239038712
 31
0.0
  0
LINE
  5
113C1
  8
0
  6
CONTINUOUS
 10
33.71988657648365
 20
0.0141987850318213
 30
0.0
 11
31.78457936207464
 21
1.949505999440826
 31
0.0
  0
LINE
  5
113C2
  8
0
  6
CONTINUOUS
 10
34.63993092602409
 20
-0.2323263554284312
 30
0.0
 11
31.64199999996833
 21
2.765604570627321
 31
0.0
  0
LINE
  5
113C3
  8
0
  6
CONTINUOUS
 10
35.17833301840466
 20
-0.0972092387288228
 30
0.0
 11
31.64199999996833
 21
3.439123779707508
 31
0.0
  0
LINE
  5
113C4
  8
0
  6
CONTINUOUS
 10
35.70952087127903
 20
0.0451221174769945
 30
0.0
 11
34.51294304365551
 21
1.241699945100516
 31
0.0
  0
LINE
  5
113C5
  8
0
  6
CONTINUOUS
 10
33.08199999996839
 20
2.67264298878764
 30
0.0
 11
31.64199999996833
 21
4.112642988787695
 31
0.0
  0
LINE
  5
113C6
  8
0
  6
CONTINUOUS
 10
36.2407087241534
 20
0.1874534736828117
 30
0.0
 11
35.10501653033629
 21
1.323145667499924
 31
0.0
  0
LINE
  5
113C7
  8
0
  6
CONTINUOUS
 10
33.08199999996839
 20
3.346162197867826
 30
0.0
 11
31.64199999996833
 21
4.786162197867881
 31
0.0
  0
LINE
  5
113C8
  8
0
  6
CONTINUOUS
 10
36.62369414391585
 20
0.4779872630005553
 30
0.0
 11
35.63620438320989
 21
1.465477023706505
 31
0.0
  0
LINE
  5
113C9
  8
0
  6
CONTINUOUS
 10
33.08199999996839
 20
4.019681406948012
 30
0.0
 11
31.64199999996833
 21
5.459681406948068
 31
0.0
  0
LINE
  5
113CA
  8
0
  6
CONTINUOUS
 10
36.96045374845689
 20
0.8147468675397027
 30
0.0
 11
35.97691545773309
 21
1.798285158263504
 31
0.0
  0
LINE
  5
113CB
  8
0
  6
CONTINUOUS
 10
33.08199999996839
 20
4.693200616028199
 30
0.0
 11
31.64199999996833
 21
6.133200616028255
 31
0.0
  0
LINE
  5
113CC
  8
0
  6
CONTINUOUS
 10
37.29721335299792
 20
1.151506472078851
 30
0.0
 11
36.17602012811361
 21
2.272699696963168
 31
0.0
  0
LINE
  5
113CD
  8
0
  6
CONTINUOUS
 10
33.08199999996839
 20
5.366719825108386
 30
0.0
 11
31.64199999996833
 21
6.80671982510844
 31
0.0
  0
LINE
  5
113CE
  8
0
  6
CONTINUOUS
 10
37.45404367813572
 20
1.668195356021243
 30
0.0
 11
36.23199999996837
 21
2.890239034188594
 31
0.0
  0
LINE
  5
113CF
  8
0
  6
CONTINUOUS
 10
37.5963750343428
 20
2.199383208894345
 30
0.0
 11
36.23199999996837
 21
3.56375824326878
 31
0.0
  0
LINE
  5
113D0
  8
0
  6
CONTINUOUS
 10
33.08199999996839
 20
6.040239034188573
 30
0.0
 11
31.64199999996833
 21
7.480239034188627
 31
0.0
  0
LINE
  5
113D1
  8
0
  6
CONTINUOUS
 10
33.08199999996839
 20
6.713758243268758
 30
0.0
 11
31.64199999996833
 21
8.153758243268815
 31
0.0
  0
LINE
  5
113D2
  8
0
  6
CONTINUOUS
 10
37.67199999996831
 20
2.797277452349026
 30
0.0
 11
36.23199999996837
 21
4.237277452348967
 31
0.0
  0
LINE
  5
113D3
  8
0
  6
CONTINUOUS
 10
37.67199999996831
 20
3.470796661429213
 30
0.0
 11
36.23199999996837
 21
4.910796661429154
 31
0.0
  0
LINE
  5
113D4
  8
0
  6
CONTINUOUS
 10
37.67199999996831
 20
4.144315870509399
 30
0.0
 11
36.23199999996837
 21
5.58431587050934
 31
0.0
  0
LINE
  5
113D5
  8
0
  6
CONTINUOUS
 10
33.08199999996839
 20
7.387277452348945
 30
0.0
 11
31.70617745232608
 21
8.763099999991255
 31
0.0
  0
LINE
  5
113D6
  8
0
  6
CONTINUOUS
 10
33.08199999996839
 20
8.060796661429132
 30
0.0
 11
32.37969666140626
 21
8.763099999991255
 31
0.0
  0
LINE
  5
113D7
  8
0
  6
CONTINUOUS
 10
33.08199999996839
 20
8.734315870509318
 30
0.0
 11
33.05321587048645
 21
8.763099999991255
 31
0.0
  0
LINE
  5
113D8
  8
0
  6
CONTINUOUS
 10
37.67199999996831
 20
4.817835079589585
 30
0.0
 11
36.23199999996837
 21
6.257835079589526
 31
0.0
  0
LINE
  5
113D9
  8
0
  6
CONTINUOUS
 10
37.67199999996831
 20
5.491354288669771
 30
0.0
 11
36.23199999996837
 21
6.931354288669713
 31
0.0
  0
LINE
  5
113DA
  8
0
  6
CONTINUOUS
 10
37.67199999996831
 20
6.164873497749958
 30
0.0
 11
36.23199999996837
 21
7.6048734977499
 31
0.0
  0
LINE
  5
113DB
  8
0
  6
CONTINUOUS
 10
37.67199999996831
 20
6.838392706830144
 30
0.0
 11
36.23199999996837
 21
8.278392706830086
 31
0.0
  0
LINE
  5
113DC
  8
0
  6
CONTINUOUS
 10
37.67199999996831
 20
7.511911915910332
 30
0.0
 11
36.42081191588738
 21
8.763099999991255
 31
0.0
  0
LINE
  5
113DD
  8
0
  6
CONTINUOUS
 10
37.67199999996831
 20
8.185431124990519
 30
0.0
 11
37.09433112496757
 21
8.763099999991255
 31
0.0
  0
ENDBLK
  5
11445
  8
0
  0
BLOCK
  8
0
  2
*X1934
 70
     1
 10
0.0
 20
0.0
 30
0.0
  3
*X1934
  1

  0
LINE
  5
113DF
  8
0
  6
CONTINUOUS
 10
38.60499999996136
 20
8.762866199104765
 30
0.0
 11
38.71672554182345
 21
8.874591740966855
 31
0.0
  0
LINE
  5
113E0
  8
0
  6
CONTINUOUS
 10
38.60499999996136
 20
8.089346990024577
 30
0.0
 11
39.03418785440363
 21
8.518534844466847
 31
0.0
  0
LINE
  5
113E1
  8
0
  6
CONTINUOUS
 10
38.60499999996136
 20
7.41582778094439
 30
0.0
 11
39.35165016698382
 21
8.16247794796684
 31
0.0
  0
LINE
  5
113E2
  8
0
  6
CONTINUOUS
 10
38.60499999996136
 20
6.742308571864204
 30
0.0
 11
39.66911247956399
 21
7.806421051466834
 31
0.0
  0
LINE
  5
113E3
  8
0
  6
CONTINUOUS
 10
38.60499999996136
 20
6.068789362784018
 30
0.0
 11
39.98657479214418
 21
7.450364154966827
 31
0.0
  0
LINE
  5
113E4
  8
0
  6
CONTINUOUS
 10
38.60499999996136
 20
5.395270153703832
 30
0.0
 11
40.30403710472435
 21
7.09430725846682
 31
0.0
  0
LINE
  5
113E5
  8
0
  6
CONTINUOUS
 10
38.60499999996136
 20
4.721750944623645
 30
0.0
 11
40.62149941730453
 21
6.738250361966813
 31
0.0
  0
LINE
  5
113E6
  8
0
  6
CONTINUOUS
 10
38.60499999996136
 20
4.048231735543458
 30
0.0
 11
40.93896172988471
 21
6.382193465466806
 31
0.0
  0
LINE
  5
113E7
  8
0
  6
CONTINUOUS
 10
38.60499999996136
 20
3.374712526463272
 30
0.0
 11
40.02599999995994
 21
4.795712526461843
 31
0.0
  0
LINE
  5
113E8
  8
0
  6
CONTINUOUS
 10
38.60499999996136
 20
2.701193317383085
 30
0.0
 11
40.02599999995994
 21
4.122193317381657
 31
0.0
  0
LINE
  5
113E9
  8
0
  6
CONTINUOUS
 10
40.28339754687704
 20
5.053110073378947
 30
0.0
 11
41.25642404246489
 21
6.026136568966799
 31
0.0
  0
LINE
  5
113EA
  8
0
  6
CONTINUOUS
 10
40.60085985945722
 20
4.697053176878939
 30
0.0
 11
41.57388635504507
 21
5.670079672466793
 31
0.0
  0
LINE
  5
113EB
  8
0
  6
CONTINUOUS
 10
43.57899999995641
 20
8.348712526458318
 30
0.0
 11
43.99338747348935
 21
8.763099999991255
 31
0.0
  0
LINE
  5
113EC
  8
0
  6
CONTINUOUS
 10
43.57899999995641
 20
7.675193317378131
 30
0.0
 11
44.66690668256953
 21
8.763099999991255
 31
0.0
  0
LINE
  5
113ED
  8
0
  6
CONTINUOUS
 10
38.60499999996136
 20
2.027674108302898
 30
0.0
 11
40.02599999995994
 21
3.44867410830147
 31
0.0
  0
LINE
  5
113EE
  8
0
  6
CONTINUOUS
 10
38.60499999996136
 20
1.354154899222712
 30
0.0
 11
40.02599999995994
 21
2.775154899221284
 31
0.0
  0
LINE
  5
113EF
  8
0
  6
CONTINUOUS
 10
38.60499999996136
 20
0.6806356901425255
 30
0.0
 11
40.02599999995994
 21
2.101635690141098
 31
0.0
  0
LINE
  5
113F0
  8
0
  6
CONTINUOUS
 10
38.60499999996136
 20
0.0071164810623383
 30
0.0
 11
40.02599999995994
 21
1.428116481060911
 31
0.0
  0
LINE
  5
113F1
  8
0
  6
CONTINUOUS
 10
40.9183221720374
 20
4.340996280378933
 30
0.0
 11
41.89134866762525
 21
5.314022775966786
 31
0.0
  0
LINE
  5
113F2
  8
0
  6
CONTINUOUS
 10
41.23578448461758
 20
3.984939383878926
 30
0.0
 11
42.20881098020543
 21
4.957965879466778
 31
0.0
  0
LINE
  5
113F3
  8
0
  6
CONTINUOUS
 10
41.55324679719776
 20
3.628882487378919
 30
0.0
 11
42.52627329278561
 21
4.601908982966772
 31
0.0
  0
LINE
  5
113F4
  8
0
  6
CONTINUOUS
 10
41.87070910977793
 20
3.272825590878912
 30
0.0
 11
42.84373560536579
 21
4.245852086466765
 31
0.0
  0
LINE
  5
113F5
  8
0
  6
CONTINUOUS
 10
43.57899999995641
 20
7.001674108297943
 30
0.0
 11
44.99999999995498
 21
8.422674108296516
 31
0.0
  0
LINE
  5
113F6
  8
0
  6
CONTINUOUS
 10
43.57899999995641
 20
6.328154899217758
 30
0.0
 11
44.99999999995498
 21
7.749154899216329
 31
0.0
  0
LINE
  5
113F7
  8
0
  6
CONTINUOUS
 10
43.57899999995641
 20
5.654635690137571
 30
0.0
 11
44.99999999995498
 21
7.075635690136142
 31
0.0
  0
LINE
  5
113F8
  8
0
  6
CONTINUOUS
 10
43.57899999995641
 20
4.981116481057384
 30
0.0
 11
44.99999999995498
 21
6.402116481055955
 31
0.0
  0
LINE
  5
113F9
  8
0
  6
CONTINUOUS
 10
39.27140272797921
 20
-0.0000000000000009
 30
0.0
 11
40.02599999995994
 21
0.7545972719807246
 31
0.0
  0
LINE
  5
113FA
  8
0
  6
CONTINUOUS
 10
39.9449219370594
 20
-0.0000000000000009
 30
0.0
 11
40.02599999995994
 21
0.0810780629005379
 31
0.0
  0
LINE
  5
113FB
  8
0
  6
CONTINUOUS
 10
42.18817142235812
 20
2.916768694378905
 30
0.0
 11
43.16119791794597
 21
3.889795189966758
 31
0.0
  0
LINE
  5
113FC
  8
0
  6
CONTINUOUS
 10
42.50563373493829
 20
2.560711797878898
 30
0.0
 11
43.47866023052615
 21
3.533738293466751
 31
0.0
  0
LINE
  5
113FD
  8
0
  6
CONTINUOUS
 10
43.57899999995641
 20
4.307597271977198
 30
0.0
 11
44.99999999995498
 21
5.728597271975769
 31
0.0
  0
LINE
  5
113FE
  8
0
  6
CONTINUOUS
 10
43.57899999995641
 20
3.634078062897011
 30
0.0
 11
44.99999999995498
 21
5.055078062895582
 31
0.0
  0
LINE
  5
113FF
  8
0
  6
CONTINUOUS
 10
42.82309604751848
 20
2.204654901378891
 30
0.0
 11
44.99999999995498
 21
4.381558853815395
 31
0.0
  0
LINE
  5
11400
  8
0
  6
CONTINUOUS
 10
43.14055836009865
 20
1.848598004878885
 30
0.0
 11
44.99999999995498
 21
3.70803964473521
 31
0.0
  0
LINE
  5
11401
  8
0
  6
CONTINUOUS
 10
43.45802067267883
 20
1.492541108378878
 30
0.0
 11
44.99999999995498
 21
3.034520435655023
 31
0.0
  0
LINE
  5
11402
  8
0
  6
CONTINUOUS
 10
43.77548298525902
 20
1.136484211878871
 30
0.0
 11
44.99999999995498
 21
2.361001226574837
 31
0.0
  0
LINE
  5
11403
  8
0
  6
CONTINUOUS
 10
44.09294529783919
 20
0.7804273153788639
 30
0.0
 11
44.99999999995498
 21
1.687482017494649
 31
0.0
  0
LINE
  5
11404
  8
0
  6
CONTINUOUS
 10
44.41040761041938
 20
0.4243704188788566
 30
0.0
 11
44.99999999995498
 21
1.013962808414463
 31
0.0
  0
LINE
  5
11405
  8
0
  6
CONTINUOUS
 10
44.72786992299955
 20
0.0683135223788494
 30
0.0
 11
44.99999999995498
 21
0.340443599334276
 31
0.0
  0
LINE
  5
11406
  8
0
  6
CONTINUOUS
 10
39.12223903415696
 20
-0.0000000000000009
 30
0.0
 11
38.60499999996136
 21
0.5172390341955961
 31
0.0
  0
LINE
  5
11407
  8
0
  6
CONTINUOUS
 10
39.79575824323715
 20
-0.0000000000000009
 30
0.0
 11
38.60499999996136
 21
1.190758243275783
 31
0.0
  0
LINE
  5
11408
  8
0
  6
CONTINUOUS
 10
40.02599999995994
 20
0.443277452357397
 30
0.0
 11
38.60499999996136
 21
1.864277452355969
 31
0.0
  0
LINE
  5
11409
  8
0
  6
CONTINUOUS
 10
40.02599999995994
 20
1.116796661437583
 30
0.0
 11
38.60499999996136
 21
2.537796661436155
 31
0.0
  0
LINE
  5
1140A
  8
0
  6
CONTINUOUS
 10
40.02599999995994
 20
1.79031587051777
 30
0.0
 11
38.60499999996136
 21
3.211315870516341
 31
0.0
  0
LINE
  5
1140B
  8
0
  6
CONTINUOUS
 10
40.02599999995994
 20
2.463835079597956
 30
0.0
 11
38.60499999996136
 21
3.884835079596527
 31
0.0
  0
LINE
  5
1140C
  8
0
  6
CONTINUOUS
 10
40.02599999995994
 20
3.137354288678143
 30
0.0
 11
38.60499999996136
 21
4.558354288676714
 31
0.0
  0
LINE
  5
1140D
  8
0
  6
CONTINUOUS
 10
40.02599999995994
 20
3.810873497758329
 30
0.0
 11
38.60499999996136
 21
5.2318734977569
 31
0.0
  0
LINE
  5
1140E
  8
0
  6
CONTINUOUS
 10
40.02599999995994
 20
4.484392706838515
 30
0.0
 11
38.60499999996136
 21
5.905392706837086
 31
0.0
  0
LINE
  5
1140F
  8
0
  6
CONTINUOUS
 10
44.99999999995498
 20
0.183911915923658
 30
0.0
 11
41.53858364506288
 21
3.64532827081576
 31
0.0
  0
LINE
  5
11410
  8
0
  6
CONTINUOUS
 10
40.02599999995994
 20
5.157911915918703
 30
0.0
 11
38.60499999996136
 21
6.578911915917274
 31
0.0
  0
LINE
  5
11411
  8
0
  6
CONTINUOUS
 10
44.99999999995498
 20
0.8574311250038447
 30
0.0
 11
38.60499999996136
 21
7.25243112499746
 31
0.0
  0
LINE
  5
11412
  8
0
  6
CONTINUOUS
 10
44.99999999995498
 20
1.530950334084031
 30
0.0
 11
38.60499999996136
 21
7.925950334077647
 31
0.0
  0
LINE
  5
11413
  8
0
  6
CONTINUOUS
 10
44.99999999995498
 20
2.204469543164218
 30
0.0
 11
43.57899999995641
 21
3.625469543162789
 31
0.0
  0
LINE
  5
11414
  8
0
  6
CONTINUOUS
 10
41.89876730984767
 20
5.305702233271528
 30
0.0
 11
38.60499999996136
 21
8.599469543157834
 31
0.0
  0
LINE
  5
11415
  8
0
  6
CONTINUOUS
 10
44.99999999995498
 20
2.877988752244405
 30
0.0
 11
43.57899999995641
 21
4.298988752242975
 31
0.0
  0
LINE
  5
11416
  8
0
  6
CONTINUOUS
 10
44.99999999995498
 20
3.551507961324591
 30
0.0
 11
43.57899999995641
 21
4.972507961323163
 31
0.0
  0
LINE
  5
11417
  8
0
  6
CONTINUOUS
 10
44.99999999995498
 20
4.225027170404777
 30
0.0
 11
43.57899999995641
 21
5.646027170403348
 31
0.0
  0
LINE
  5
11418
  8
0
  6
CONTINUOUS
 10
44.99999999995498
 20
4.898546379484964
 30
0.0
 11
43.57899999995641
 21
6.319546379483535
 31
0.0
  0
LINE
  5
11419
  8
0
  6
CONTINUOUS
 10
44.99999999995498
 20
5.572065588565151
 30
0.0
 11
43.57899999995641
 21
6.993065588563722
 31
0.0
  0
LINE
  5
1141A
  8
0
  6
CONTINUOUS
 10
44.99999999995498
 20
6.245584797645336
 30
0.0
 11
43.57899999995641
 21
7.666584797643908
 31
0.0
  0
LINE
  5
1141B
  8
0
  6
CONTINUOUS
 10
44.99999999995498
 20
6.919104006725522
 30
0.0
 11
43.57899999995641
 21
8.340104006724093
 31
0.0
  0
LINE
  5
1141C
  8
0
  6
CONTINUOUS
 10
44.99999999995498
 20
7.592623215805709
 30
0.0
 11
43.82952321576943
 21
8.763099999991255
 31
0.0
  0
LINE
  5
1141D
  8
0
  6
CONTINUOUS
 10
44.99999999995498
 20
8.266142424885896
 30
0.0
 11
44.50304242484962
 21
8.763099999991255
 31
0.0
  0
ENDBLK
  5
11447
  8
0
  0
BLOCK
  8
0
  2
*X1935
 70
     1
 10
0.0
 20
0.0
 30
0.0
  3
*X1935
  1

  0
LINE
  5
1141F
  8
0
  6
CONTINUOUS
 10
0.0
 20
8.548461116714023
 30
0.0
 11
0.2146388832772324
 21
8.763099999991255
 31
0.0
  0
LINE
  5
11420
  8
0
  6
CONTINUOUS
 10
-0.0000000000000002
 20
7.874941907633837
 30
0.0
 11
0.8881580923574184
 21
8.763099999991255
 31
0.0
  0
LINE
  5
11421
  8
0
  6
CONTINUOUS
 10
0.0
 20
7.20142269855365
 30
0.0
 11
1.420999999998572
 21
8.622422698552223
 31
0.0
  0
LINE
  5
11422
  8
0
  6
CONTINUOUS
 10
-0.0000000000000001
 20
6.527903489473465
 30
0.0
 11
1.420999999998571
 21
7.948903489472036
 31
0.0
  0
LINE
  5
11423
  8
0
  6
CONTINUOUS
 10
-0.0000000000000002
 20
5.854384280393278
 30
0.0
 11
1.420999999998571
 21
7.275384280391849
 31
0.0
  0
LINE
  5
11424
  8
0
  6
CONTINUOUS
 10
-0.0000000000000002
 20
5.180865071313091
 30
0.0
 11
1.420999999998571
 21
6.601865071311663
 31
0.0
  0
LINE
  5
11425
  8
0
  6
CONTINUOUS
 10
0.0
 20
4.507345862232905
 30
0.0
 11
1.420999999998571
 21
5.928345862231477
 31
0.0
  0
LINE
  5
11426
  8
0
  6
CONTINUOUS
 10
-0.0000000000000003
 20
3.833826653152718
 30
0.0
 11
1.420999999998571
 21
5.25482665315129
 31
0.0
  0
LINE
  5
11427
  8
0
  6
CONTINUOUS
 10
-0.0000000000000002
 20
3.160307444072532
 30
0.0
 11
1.420999999998571
 21
4.581307444071103
 31
0.0
  0
LINE
  5
11428
  8
0
  6
CONTINUOUS
 10
-0.0000000000000001
 20
2.486788234992345
 30
0.0
 11
1.420999999998571
 21
3.907788234990917
 31
0.0
  0
LINE
  5
11429
  8
0
  6
CONTINUOUS
 10
-0.0000000000000006
 20
1.813269025912159
 30
0.0
 11
1.420999999998571
 21
3.234269025910731
 31
0.0
  0
LINE
  5
1142A
  8
0
  6
CONTINUOUS
 10
0.0
 20
1.139749816831973
 30
0.0
 11
1.420999999998571
 21
2.560749816830544
 31
0.0
  0
LINE
  5
1142B
  8
0
  6
CONTINUOUS
 10
0.0000000000000002
 20
0.466230607751787
 30
0.0
 11
1.420999999998571
 21
1.887230607750358
 31
0.0
  0
LINE
  5
1142C
  8
0
  6
CONTINUOUS
 10
0.2072886013284003
 20
-0.0000000000000009
 30
0.0
 11
1.420999999998571
 21
1.213711398670171
 31
0.0
  0
LINE
  5
1142D
  8
0
  6
CONTINUOUS
 10
0.8808078104085864
 20
-0.0000000000000009
 30
0.0
 11
1.420999999998571
 21
0.5401921895899839
 31
0.0
  0
LINE
  5
1142E
  8
0
  6
CONTINUOUS
 10
0.0581249075061505
 20
-0.0000000000000009
 30
0.0
 11
-0.0000000000000002
 21
0.0581249075061496
 31
0.0
  0
LINE
  5
1142F
  8
0
  6
CONTINUOUS
 10
0.7316441165863372
 20
-0.0000000000000009
 30
0.0
 11
-0.0000000000000002
 21
0.7316441165863363
 31
0.0
  0
LINE
  5
11430
  8
0
  6
CONTINUOUS
 10
1.405163325666523
 20
-0.0000000000000009
 30
0.0
 11
-0.0000000000000002
 21
1.405163325666523
 31
0.0
  0
LINE
  5
11431
  8
0
  6
CONTINUOUS
 10
1.420999999998572
 20
0.6576825347481381
 30
0.0
 11
-0.0000000000000001
 21
2.07868253474671
 31
0.0
  0
LINE
  5
11432
  8
0
  6
CONTINUOUS
 10
1.420999999998571
 20
1.331201743828324
 30
0.0
 11
-0.0000000000000001
 21
2.752201743826896
 31
0.0
  0
LINE
  5
11433
  8
0
  6
CONTINUOUS
 10
1.420999999998571
 20
2.004720952908511
 30
0.0
 11
-0.0000000000000002
 21
3.425720952907082
 31
0.0
  0
LINE
  5
11434
  8
0
  6
CONTINUOUS
 10
1.420999999998571
 20
2.678240161988697
 30
0.0
 11
-0.0000000000000001
 21
4.099240161987269
 31
0.0
  0
LINE
  5
11435
  8
0
  6
CONTINUOUS
 10
1.420999999998572
 20
3.351759371068884
 30
0.0
 11
0.0
 21
4.772759371067455
 31
0.0
  0
LINE
  5
11436
  8
0
  6
CONTINUOUS
 10
1.420999999998571
 20
4.02527858014907
 30
0.0
 11
-0.0000000000000003
 21
5.446278580147642
 31
0.0
  0
LINE
  5
11437
  8
0
  6
CONTINUOUS
 10
1.420999999998571
 20
4.698797789229257
 30
0.0
 11
0.0
 21
6.119797789227828
 31
0.0
  0
LINE
  5
11438
  8
0
  6
CONTINUOUS
 10
1.420999999998571
 20
5.372316998309444
 30
0.0
 11
-0.0000000000000001
 21
6.793316998308015
 31
0.0
  0
LINE
  5
11439
  8
0
  6
CONTINUOUS
 10
1.420999999998572
 20
6.045836207389629
 30
0.0
 11
-0.0000000000000004
 21
7.466836207388202
 31
0.0
  0
LINE
  5
1143A
  8
0
  6
CONTINUOUS
 10
1.420999999998571
 20
6.719355416469816
 30
0.0
 11
0.0
 21
8.140355416468388
 31
0.0
  0
LINE
  5
1143B
  8
0
  6
CONTINUOUS
 10
1.420999999998571
 20
7.392874625550003
 30
0.0
 11
0.0507746255573185
 21
8.763099999991255
 31
0.0
  0
LINE
  5
1143C
  8
0
  6
CONTINUOUS
 10
1.420999999998571
 20
8.06639383463019
 30
0.0
 11
0.7242938346375052
 21
8.763099999991255
 31
0.0
  0
LINE
  5
1143D
  8
0
  6
CONTINUOUS
 10
1.420999999998571
 20
8.739913043710375
 30
0.0
 11
1.397813043717691
 21
8.763099999991255
 31
0.0
  0
ENDBLK
  5
11449
  8
0
  0
ENDSEC
  0
SECTION
  2
ENTITIES
  0
LINE
  5
1045B
  8
1CENTER
 10
-1464.476767958252
 20
5825.510738458645
 30
0.0
 11
-1417.388347485796
 21
5825.510738458644
 31
0.0
  0
LINE
  5
1045C
  8
01
  6
BYBLOCK
 10
-1508.488264181781
 20
5836.510738458646
 30
0.0
 11
-1488.488264181778
 21
5836.510738458645
 31
0.0
  0
ARC
  5
1045D
  8
01
 10
-1508.488264181781
 20
5835.510738458646
 30
0.0
 40
1.0
 50
90.0
 51
180.0
  0
LINE
  5
1045E
  8
01
  6
BYBLOCK
 10
-1508.488264181781
 20
5814.510738458645
 30
0.0
 11
-1488.488264181778
 21
5814.510738458644
 31
0.0
  0
ARC
  5
1045F
  8
01
 10
-1488.488264181778
 20
5815.510738458644
 30
0.0
 40
1.0
 50
270.0
 51
0.0
  0
ARC
  5
10460
  8
01
 10
-1508.488264181781
 20
5815.510738458645
 30
0.0
 40
1.0
 50
180.0
 51
270.0
  0
LINE
  5
10461
  8
01
 10
-1487.488264181778
 20
5832.510738458645
 30
0.0
 11
-1477.488264181778
 21
5832.510738458645
 31
0.0
  0
LINE
  5
10462
  8
01
 10
-1487.488264181778
 20
5818.510738458646
 30
0.0
 11
-1477.488264181778
 21
5818.510738458647
 31
0.0
  0
LINE
  5
10464
  8
01
 10
-1445.2882386648
 20
5838.009983697931
 30
0.0
 11
-1445.28823859924
 21
5836.510118399121
 31
0.0
  0
LINE
  5
10465
  8
01
 10
-1445.288237637643
 20
5814.51103928876
 30
0.0
 11
-1445.28823757203
 21
5813.009983697931
 31
0.0
  0
LINE
  5
10467
  8
1CENTER
 10
-2017.657051734088
 20
5914.347566565591
 30
0.0
 11
-2017.657051734084
 21
6011.10956761584
 31
0.0
  0
LINE
  5
10469
  8
01
  6
BYBLOCK
 10
-2042.657051734089
 20
5918.347566565591
 30
0.0
 11
-2042.657051734088
 21
5938.347566565591
 31
0.0
  0
LINE
  5
1046A
  8
01
  6
BYBLOCK
 10
-1542.657051734089
 20
5918.347566565591
 30
0.0
 11
-1542.657051734086
 21
5938.347566565591
 31
0.0
  0
LINE
  5
1046B
  8
01
 10
-1543.65705173409
 20
5917.347566565591
 30
0.0
 11
-2041.65705173409
 21
5917.347566565591
 31
0.0
  0
ARC
  5
1046C
  8
01
 10
-2041.65705173409
 20
5918.347566565591
 30
0.0
 40
1.0
 50
180.0
 51
270.0
  0
ARC
  5
1046D
  8
01
 10
-1543.65705173409
 20
5918.347566565591
 30
0.0
 40
1.0
 50
270.0
 51
0.0
  0
LINE
  5
1046E
  8
01
 10
-1543.657051734086
 20
5939.347566565591
 30
0.0
 11
-2007.157051734088
 21
5939.347566565591
 31
0.0
  0
LINE
  5
1046F
  8
01
 10
-2011.157051734087
 20
5939.347566565591
 30
0.0
 11
-2013.656701173501
 21
5939.347566565591
 31
0.0
  0
LINE
  5
10470
  8
01
 10
-2021.6567011735
 20
5939.347566565591
 30
0.0
 11
-2041.657051734088
 21
5939.347566565591
 31
0.0
  0
ARC
  5
10471
  8
01
 10
-2041.657051734088
 20
5938.347566565591
 30
0.0
 40
1.0
 50
90.0
 51
180.0
  0
ARC
  5
10472
  8
01
 10
-1543.657051734086
 20
5938.347566565591
 30
0.0
 40
1.0
 50
0.0
 51
90.0
  0
LINE
  5
10473
  8
01
 10
-2029.15705173409
 20
5838.00998369793
 30
0.0
 11
-2006.157051734086
 21
5838.00998369793
 31
0.0
  0
LINE
  5
10474
  8
01
 10
-1579.157402294677
 20
5782.509983697931
 30
0.0
 11
-1556.157402294675
 21
5782.509983697931
 31
0.0
  0
LINE
  5
10475
  8
01
 10
-2029.15705173409
 20
5813.009983697927
 30
0.0
 11
-2006.157051734088
 21
5813.009983697927
 31
0.0
  0
LINE
  5
10476
  8
01
 10
-1555.157402294675
 20
5981.547592082556
 30
0.0
 11
-1580.157402294675
 21
5981.547593175319
 31
0.0
  0
LINE
  5
10478
  8
01
 10
-1444.988237340795
 20
5814.510118399121
 30
0.0
 11
-1444.988237034787
 21
5821.510738458646
 31
0.0
  0
LINE
  5
10479
  8
01
 10
-1444.988236685095
 20
5829.510738458647
 30
0.0
 11
-1444.988236379141
 21
5836.510118399121
 31
0.0
  0
LINE
  5
1047A
  8
01
  6
BYBLOCK
 10
-1432.98823685994
 20
5833.260738458645
 30
0.0
 11
-1444.98823685994
 21
5833.260737409571
 31
0.0
  0
LINE
  5
1047B
  8
01
  6
BYBLOCK
 10
-1444.988236859939
 20
5817.760737409572
 30
0.0
 11
-1432.98823685994
 21
5817.760738458645
 31
0.0
  0
LINE
  5
1047D
  8
01
 10
-2009.90705120955
 20
5981.847594455681
 30
0.0
 11
-2009.907051734086
 21
5993.847594455681
 31
0.0
  0
LINE
  5
1047E
  8
01
 10
-2025.407051734084
 20
5993.847593778152
 30
0.0
 11
-2025.40705120955
 21
5981.847593778152
 31
0.0
  0
LINE
  5
1047F
  8
01
 10
-2025.407051734084
 20
5993.847593778152
 30
0.0
 11
-2021.657051734086
 21
5993.84759394207
 31
0.0
  0
LINE
  5
10480
  8
01
 10
-1559.907051209552
 20
5981.847594455681
 30
0.0
 11
-1559.90705173409
 21
5993.847594455681
 31
0.0
  0
LINE
  5
10481
  8
01
 10
-1575.407051734089
 20
5993.847593778152
 30
0.0
 11
-1575.407051209552
 21
5981.847593778152
 31
0.0
  0
LINE
  5
10482
  8
01
 10
-2009.907052258624
 20
5981.847593778152
 30
0.0
 11
-2013.657052258624
 21
5981.84759394207
 31
0.0
  0
LINE
  5
10483
  8
01
 10
-2021.656362480695
 20
5981.847594291733
 30
0.0
 11
-2025.407052258623
 21
5981.847594455681
 31
0.0
  0
LINE
  5
10484
  8
01
  6
BYBLOCK
 10
-2042.65705173409
 20
5835.50998369793
 30
0.0
 11
-2042.657051734088
 21
5815.509983697926
 31
0.0
  0
LINE
  5
10485
  8
01
  6
BYBLOCK
 10
-1542.657051734087
 20
5835.509983697931
 30
0.0
 11
-1542.657051734087
 21
5815.509983697928
 31
0.0
  0
LINE
  5
10486
  8
01
 10
-1509.488264181781
 20
5815.510738458645
 30
0.0
 11
-1509.488264181781
 21
5835.510738458646
 31
0.0
  0
LINE
  5
10487
  8
01
 10
-1487.488264181778
 20
5815.510738458644
 30
0.0
 11
-1487.488264181778
 21
5835.510738458645
 31
0.0
  0
ARC
  5
10488
  8
01
 10
-1488.488264181778
 20
5835.510738458645
 30
0.0
 40
1.0
 50
0.0
 51
90.0
  0
LINE
  5
10489
  8
01
 10
-1555.157402294675
 20
5994.147593775557
 30
0.0
 11
-1555.157402294675
 21
6033.147593775557
 31
0.0
  0
ARC
  5
1048A
  8
01
 10
-1556.157402294675
 20
6033.147593775557
 30
0.0
 40
1.0
 50
0.0
 51
90.0
  0
LINE
  5
1048B
  8
01
 10
-1580.157402294674
 20
5994.14759377556
 30
0.0
 11
-1580.157402294675
 21
6033.147593775557
 31
0.0
  0
ARC
  5
1048C
  8
01
 10
-1579.157402294675
 20
6033.147593775557
 30
0.0
 40
1.0
 50
90.0
 51
180.0
  0
LINE
  5
1048D
  8
01
 10
-1556.157402294675
 20
6034.147593775558
 30
0.0
 11
-1579.157402294675
 21
6034.14759377556
 31
0.0
  0
LINE
  5
1048E
  8
01
 10
-1580.157402294674
 20
5994.14759377556
 30
0.0
 11
-1555.157402294675
 21
5994.147593775557
 31
0.0
  0
LINE
  5
1048F
  8
01
 10
-1578.657703124789
 20
5993.847593778152
 30
0.0
 11
-1578.657703124789
 21
5994.14759377556
 31
0.0
  0
LINE
  5
10490
  8
01
 10
-1556.657703124789
 20
5994.147593775557
 30
0.0
 11
-1556.657703124789
 21
5993.847593778153
 31
0.0
  0
LINE
  5
10491
  8
01
 10
-1578.657703124789
 20
5993.847593778152
 30
0.0
 11
-1556.657703124789
 21
5993.847593778153
 31
0.0
  0
LINE
  5
10493
  8
01
 10
-2028.65771261908
 20
5993.847593778152
 30
0.0
 11
-2028.65771261908
 21
5994.847593778152
 31
0.0
  0
LINE
  5
10494
  8
01
 10
-2006.65771261908
 20
5994.847593778152
 30
0.0
 11
-2006.65771261908
 21
5993.847593778152
 31
0.0
  0
LINE
  5
10495
  8
01
 10
-2028.65771261908
 20
5993.847593778152
 30
0.0
 11
-2021.656258996381
 21
5993.847593778152
 31
0.0
  0
LINE
  5
10496
  8
01
 10
-2013.656258996018
 20
5993.847593778153
 30
0.0
 11
-2006.65771261908
 21
5993.847593778152
 31
0.0
  0
LINE
  5
10498
  8
01
 10
-2029.156390849101
 20
5994.847593778151
 30
0.0
 11
-2021.656249502086
 21
5994.847593778151
 31
0.0
  0
LINE
  5
10499
  8
01
 10
-2013.656249501721
 20
5994.847593778152
 30
0.0
 11
-2006.156390849101
 21
5994.847593778152
 31
0.0
  0
LINE
  5
1049A
  8
01
 10
-2023.656172952729
 20
5994.847593778152
 30
0.0
 11
-2023.656172952729
 21
5993.847593778152
 31
0.0
  0
LINE
  5
1049B
  8
01
 10
-2011.657930515441
 20
5994.847593778151
 30
0.0
 11
-2011.657930515441
 21
5993.847593778152
 31
0.0
  0
LINE
  5
1049C
  8
01
 10
-2005.157051734088
 20
5997.647593778152
 30
0.0
 11
-2007.756390849107
 21
5997.647593778152
 31
0.0
  0
LINE
  5
1049D
  8
01
 10
-2010.156390849108
 20
5997.647593778152
 30
0.0
 11
-2025.156390849108
 21
5997.647593778152
 31
0.0
  0
LINE
  5
1049E
  8
01
 10
-2027.556390849108
 20
5997.647593778152
 30
0.0
 11
-2030.15705173409
 21
5997.647593778152
 31
0.0
  0
LINE
  5
1049F
  8
01
 10
-2007.756390849107
 20
6005.647593778152
 30
0.0
 11
-2027.556390849108
 21
6005.647593778152
 31
0.0
  0
LINE
  5
104A0
  8
01
 10
-2005.156390849101
 20
5994.147593778152
 30
0.0
 11
-2005.156390849101
 21
5997.347593778152
 31
0.0
  0
ARC
  5
104A1
  8
01
 10
-2005.456390849102
 20
5997.347593778152
 30
0.0
 40
0.3
 50
0.0
 51
90.0
  0
LINE
  5
104A2
  8
01
 10
-2030.156390849101
 20
5994.147593778152
 30
0.0
 11
-2030.156390849101
 21
5997.347593778152
 31
0.0
  0
ARC
  5
104A3
  8
01
 10
-2029.856390849101
 20
5997.347593778152
 30
0.0
 40
0.3
 50
90.0
 51
180.0
  0
LINE
  5
104A4
  8
01
 10
-2005.156390849101
 20
5994.147593778152
 30
0.0
 11
-2006.65771261908
 21
5994.147593778152
 31
0.0
  0
LINE
  5
104A5
  8
01
 10
-2028.65771261908
 20
5994.147593778152
 30
0.0
 11
-2030.156390849101
 21
5994.147593778152
 31
0.0
  0
LINE
  5
104A6
  8
01
 10
-2027.556390849108
 20
6005.647593778152
 30
0.0
 11
-2027.556390849108
 21
5997.647593778152
 31
0.0
  0
LINE
  5
104A7
  8
01
 10
-2007.756390849107
 20
6005.647593778152
 30
0.0
 11
-2007.756390849107
 21
5997.647593778152
 31
0.0
  0
LINE
  5
104A8
  8
01
 10
-2010.156390849108
 20
6005.647593778152
 30
0.0
 11
-2010.156390849108
 21
5997.647593778152
 31
0.0
  0
LINE
  5
104A9
  8
01
 10
-2012.656390849103
 20
5997.647593778152
 30
0.0
 11
-2012.656390849103
 21
5994.847593778152
 31
0.0
  0
LINE
  5
104AA
  8
01
 10
-2022.656390849106
 20
5994.847593778152
 30
0.0
 11
-2022.656390849106
 21
5997.647593778152
 31
0.0
  0
LINE
  5
104AB
  8
01
 10
-2025.156390849108
 20
5997.647593778152
 30
0.0
 11
-2025.156390849108
 21
6005.647593778152
 31
0.0
  0
LINE
  5
104AC
  8
01
 10
-2029.156390849101
 20
5994.147593778152
 30
0.0
 11
-2029.156390849101
 21
5994.847593778151
 31
0.0
  0
LINE
  5
104AD
  8
01
 10
-2006.156390849101
 20
5994.147593778152
 30
0.0
 11
-2006.156390849101
 21
5994.847593778152
 31
0.0
  0
LINE
  5
104AE
  8
01
 10
-2029.15705173409
 20
6008.147593778152
 30
0.0
 11
-2006.157051734088
 21
6008.147593778152
 31
0.0
  0
ARC
  5
104AF
  8
01
 10
-2029.15705173409
 20
6007.147593778152
 30
0.0
 40
1.0
 50
90.0
 51
180.0
  0
LINE
  5
104B0
  8
01
 10
-2030.15705173409
 20
5997.647593778152
 30
0.0
 11
-2030.15705173409
 21
6007.147593778152
 31
0.0
  0
LINE
  5
104B1
  8
01
 10
-2005.157051734088
 20
5997.647593778152
 30
0.0
 11
-2005.157051734088
 21
6007.147593778152
 31
0.0
  0
ARC
  5
104B2
  8
01
 10
-2006.157051734088
 20
6007.147593778152
 30
0.0
 40
1.0
 50
0.0
 51
90.0
  0
LINE
  5
104B3
  8
01
 10
-2027.65705173409
 20
6006.147593778152
 30
0.0
 11
-2007.65705173409
 21
6006.147593778152
 31
0.0
  0
LINE
  5
104B4
  8
01
 10
-2007.65705173409
 20
6006.147593778152
 30
0.0
 11
-2007.65705173409
 21
5997.647593778152
 31
0.0
  0
LINE
  5
104B5
  8
01
 10
-2027.65705173409
 20
6006.147593778152
 30
0.0
 11
-2027.65705173409
 21
5997.647593778152
 31
0.0
  0
LINE
  5
104B6
  8
01
 10
-2030.15705173409
 20
5837.00998369793
 30
0.0
 11
-2030.15705173409
 21
5836.50998369793
 31
0.0
  0
LINE
  5
104B7
  8
01
 10
-2030.15705173409
 20
5814.509983697926
 30
0.0
 11
-2030.15705173409
 21
5814.009983697926
 31
0.0
  0
LINE
  5
104B8
  8
01
 10
-2005.157051734088
 20
5814.009983697926
 30
0.0
 11
-2005.157051734088
 21
5814.509983697927
 31
0.0
  0
LINE
  5
104B9
  8
01
 10
-2005.157051734088
 20
5836.50998369793
 30
0.0
 11
-2005.157051734088
 21
5837.00998369793
 31
0.0
  0
ARC
  5
104BA
  8
01
 10
-2006.157051734086
 20
5837.00998369793
 30
0.0
 40
1.0
 50
0.0
 51
90.00000000010422
  0
ARC
  5
104BB
  8
01
 10
-2029.15705173409
 20
5837.00998369793
 30
0.0
 40
1.0
 50
90.0
 51
180.0
  0
ARC
  5
104BC
  8
01
 10
-2029.15705173409
 20
5814.009983697926
 30
0.0
 40
1.0
 50
180.0
 51
270.0
  0
ARC
  5
104BD
  8
01
 10
-2006.157051734088
 20
5814.009983697926
 30
0.0
 40
1.0
 50
270.0
 51
0.0
  0
LINE
  5
104BE
  8
01
  6
BYBLOCK
 10
-1432.98823696922
 20
5814.510118399121
 30
0.0
 11
-1432.688236969221
 21
5814.510118399121
 31
0.0
  0
LINE
  5
104BF
  8
01
  6
BYBLOCK
 10
-1432.688236969221
 20
5836.510118399121
 30
0.0
 11
-1432.98823696922
 21
5836.510118399121
 31
0.0
  0
LINE
  5
104C0
  8
01
  6
BYBLOCK
 10
-1432.98823696922
 20
5814.510118399121
 30
0.0
 11
-1432.98823696922
 21
5821.510738458646
 31
0.0
  0
LINE
  5
104C1
  8
01
  6
BYBLOCK
 10
-1432.98823696922
 20
5829.510738458647
 30
0.0
 11
-1432.98823696922
 21
5836.510118399121
 31
0.0
  0
LINE
  5
104C2
  8
01
 10
-1392.688236969218
 20
5784.509983697933
 30
0.0
 11
-1392.688236969221
 21
5836.009983697933
 31
0.0
  0
ARC
  5
104C3
  8
01
 10
-1394.688236969221
 20
5836.009983697933
 30
0.0
 40
2.0
 50
0.0
 51
90.0
  0
LINE
  5
104C4
  8
01
 10
-1408.688236969218
 20
5784.509983697932
 30
0.0
 11
-1408.68823696922
 21
5807.009983697933
 31
0.0
  0
ARC
  5
104C5
  8
01
 10
-1406.688236969218
 20
5784.509983697933
 30
0.0
 40
2.0
 50
180.0
 51
270.0
  0
ARC
  5
104C6
  8
01
 10
-1414.68823696922
 20
5807.009983697932
 30
0.0
 40
6.0
 50
0.0
 51
90.0
  0
LINE
  5
104C7
  8
01
 10
-1432.688236969221
 20
5838.00998369793
 30
0.0
 11
-1394.688236969221
 21
5838.009983697933
 31
0.0
  0
LINE
  5
104C8
  8
01
 10
-1406.688236969218
 20
5782.509983697933
 30
0.0
 11
-1394.688236969218
 21
5782.509983697933
 31
0.0
  0
ARC
  5
104C9
  8
01
 10
-1394.688236969218
 20
5784.509983697933
 30
0.0
 40
2.0
 50
270.0
 51
0.0
  0
LINE
  5
104CA
  8
01
 10
-1432.68823696922
 20
5813.00998369793
 30
0.0
 11
-1414.68823696922
 21
5813.009983697932
 31
0.0
  0
LINE
  5
104CB
  8
01
 10
-1420.388347575796
 20
5813.509983670507
 30
0.0
 11
-1413.988079822314
 21
5813.509983670507
 31
0.0
  0
LINE
  5
104CC
  8
1CENTER
 10
-1417.188213699055
 20
5816.044492097385
 30
0.0
 11
-1417.188213699055
 21
5809.024712780792
 31
0.0
  0
LINE
  5
104CD
  8
01
 10
-1432.688236969219
 20
5813.009983697931
 30
0.0
 11
-1432.688236969219
 21
5814.51103928876
 31
0.0
  0
LINE
  5
104CE
  8
01
 10
-1432.688236969221
 20
5836.510118399121
 30
0.0
 11
-1432.688236969221
 21
5838.009983697931
 31
0.0
  0
LINE
  5
104CF
  8
01
 10
-1444.988237340795
 20
5814.510118399121
 30
0.0
 11
-1445.288237637602
 21
5814.510118399121
 31
0.0
  0
LINE
  5
104D0
  8
01
 10
-1444.988236379141
 20
5836.510118399121
 30
0.0
 11
-1445.288238599239
 21
5836.510118399121
 31
0.0
  0
LINE
  5
104D1
  8
01
 10
-1445.28823757203
 20
5813.009983697931
 30
0.0
 11
-1471.987509421064
 21
5813.009983697932
 31
0.0
  0
LINE
  5
104D2
  8
01
 10
-1445.2882386648
 20
5838.009983697931
 30
0.0
 11
-1471.989018942495
 21
5838.00998369793
 31
0.0
  0
LINE
  5
104D3
  8
01
 10
-1555.157402294675
 20
5981.547592082556
 30
0.0
 11
-1555.157402294675
 21
5939.347566565591
 31
0.0
  0
LINE
  5
104D4
  8
1CENTER
 10
-1567.657402294676
 20
6008.835224011798
 30
0.0
 11
-1567.657402294675
 21
5960.816016705981
 31
0.0
  0
LINE
  5
104D5
  8
01
 10
-1580.157402294675
 20
5981.547593175319
 30
0.0
 11
-1580.157402294675
 21
5939.347566565591
 31
0.0
  0
LINE
  5
104D6
  8
01
 10
-1578.657703124789
 20
5981.847591948375
 30
0.0
 11
-1578.657703124789
 21
5981.547593109766
 31
0.0
  0
LINE
  5
104D7
  8
01
 10
-1556.657703124789
 20
5981.547592148135
 30
0.0
 11
-1556.657703124789
 21
5981.847591948376
 31
0.0
  0
LINE
  5
104D8
  8
01
 10
-1578.657703124789
 20
5981.847591948375
 30
0.0
 11
-1556.657703124789
 21
5981.847591948376
 31
0.0
  0
LINE
  5
104D9
  8
01
 10
-2009.907052258624
 20
5981.847593778152
 30
0.0
 11
-2013.657052258624
 21
5981.84759394207
 31
0.0
  0
LINE
  5
104DA
  8
01
 10
-2021.656362480695
 20
5981.847594291733
 30
0.0
 11
-2025.407052258623
 21
5981.847594455681
 31
0.0
  0
LINE
  5
104DB
  8
01
 10
-2021.656361956157
 20
5981.847591434796
 30
0.0
 11
-2025.407051734086
 21
5981.847591270847
 31
0.0
  0
LINE
  5
104DC
  8
01
 10
-1555.157402294675
 20
5939.347566565591
 30
0.0
 11
-1580.157402294674
 21
5939.347566565591
 31
0.0
  0
LINE
  5
104DE
  8
01
 10
-2030.156701173501
 20
5981.547592082556
 30
0.0
 11
-2029.158073929768
 21
5981.547592126206
 31
0.0
  0
LINE
  5
104DF
  8
01
 10
-2006.158073927978
 20
5981.547593131553
 30
0.0
 11
-2005.156701173502
 21
5981.547593175324
 31
0.0
  0
LINE
  5
104E0
  8
01
 10
-2021.081701173502
 20
5979.222646246127
 30
0.0
 11
-2022.206702778814
 21
5980.347647949789
 31
0.0
  0
LINE
  5
104E1
  8
01
 10
-2030.156701173501
 20
5981.547592082556
 30
0.0
 11
-2030.156701173501
 21
5939.347566565591
 31
0.0
  0
LINE
  5
104E2
  8
01
 10
-2011.656701173501
 20
5978.347666633667
 30
0.0
 11
-2011.656701173499
 21
5951.347566565594
 31
0.0
  0
LINE
  5
104E3
  8
01
 10
-2010.656701173502
 20
5980.347679078992
 30
0.0
 11
-2010.656701173501
 21
5978.347679078837
 31
0.0
  0
LINE
  5
104E4
  8
01
 10
-2010.456701173502
 20
5980.847452566702
 30
0.0
 11
-2010.456701173502
 21
5977.847631785631
 31
0.0
  0
LINE
  5
104E5
  8
01
 10
-2011.456701173502
 20
5977.847619340462
 30
0.0
 11
-2011.456701173502
 21
5951.347566565594
 31
0.0
  0
LINE
  5
104E6
  8
01
 10
-2023.656701173501
 20
5978.347666624941
 30
0.0
 11
-2023.656701173501
 21
5951.347566565594
 31
0.0
  0
LINE
  5
104E7
  8
01
 10
-2024.656701173499
 20
5980.347679070266
 30
0.0
 11
-2024.656701173501
 21
5978.347679070111
 31
0.0
  0
LINE
  5
104E8
  8
01
 10
-2024.856701173499
 20
5980.847631777138
 30
0.0
 11
-2024.856701173499
 21
5977.847631776906
 31
0.0
  0
LINE
  5
104E9
  8
01
 10
-2023.856701173499
 20
5977.847619331736
 30
0.0
 11
-2023.856701173501
 21
5951.347566565594
 31
0.0
  0
LINE
  5
104EA
  8
01
 10
-2005.156701173501
 20
5981.547592082556
 30
0.0
 11
-2005.156701173501
 21
5939.347566565591
 31
0.0
  0
LINE
  5
104EB
  8
01
 10
-2006.158073927978
 20
5981.547593131553
 30
0.0
 11
-2006.15808264201
 21
5980.847399069668
 31
0.0
  0
LINE
  5
104EC
  8
01
 10
-2029.158073929768
 20
5981.547592126206
 30
0.0
 11
-2029.15808264023
 21
5980.847685308559
 31
0.0
  0
LINE
  5
104ED
  8
01
 10
-2006.656400343387
 20
5981.847591948376
 30
0.0
 11
-2006.656400343387
 21
5980.847591948376
 31
0.0
  0
LINE
  5
104EE
  8
01
 10
-2028.656400343387
 20
5980.847591948376
 30
0.0
 11
-2028.656400343387
 21
5981.847591948376
 31
0.0
  0
LINE
  5
104EF
  8
01
 10
-2006.656400343387
 20
5981.847591948376
 30
0.0
 11
-2013.656361955807
 21
5981.847591948376
 31
0.0
  0
LINE
  5
104F0
  8
01
 10
-2021.656361956162
 20
5981.847591948376
 30
0.0
 11
-2028.656400343387
 21
5981.847591948376
 31
0.0
  0
LINE
  5
104F1
  8
01
 10
-2011.657940009736
 20
5980.847591948376
 30
0.0
 11
-2011.657940009736
 21
5981.847591948376
 31
0.0
  0
LINE
  5
104F2
  8
01
 10
-2023.656182447026
 20
5980.847591948376
 30
0.0
 11
-2023.656182447026
 21
5981.847591948376
 31
0.0
  0
LINE
  5
104F3
  8
01
 10
-2014.231701173499
 20
5979.222647792047
 30
0.0
 11
-2013.106699568185
 21
5980.347649495709
 31
0.0
  0
LINE
  5
104F4
  8
01
 10
-2024.656701173499
 20
5980.347679070266
 30
0.0
 11
-2021.656701173501
 21
5980.347641734757
 31
0.0
  0
LINE
  5
104F5
  8
01
 10
-2024.656701173501
 20
5978.347679070111
 30
0.0
 11
-2023.656701173501
 21
5978.347666624941
 31
0.0
  0
LINE
  5
104F6
  8
01
 10
-2029.15808264023
 20
5980.847685308559
 30
0.0
 11
-2021.656361958856
 21
5980.847591948376
 31
0.0
  0
LINE
  5
104F7
  8
01
 10
-2013.6567011735
 20
5980.847492391244
 30
0.0
 11
-2006.15808264201
 21
5980.847399069668
 31
0.0
  0
LINE
  5
104F8
  8
01
 10
-2024.856701173499
 20
5977.847631776906
 30
0.0
 11
-2023.856701173499
 21
5977.847619331736
 31
0.0
  0
LINE
  5
104F9
  8
01
 10
-2030.156701173501
 20
5939.347566565591
 30
0.0
 11
-2021.6567011735
 21
5939.347566565591
 31
0.0
  0
LINE
  5
104FA
  8
01
 10
-2013.656701173501
 20
5939.347566565591
 30
0.0
 11
-2011.157051734087
 21
5939.347566565591
 31
0.0
  0
LINE
  5
104FB
  8
01
 10
-2007.157051734087
 20
5939.347566565591
 30
0.0
 11
-2005.156701173502
 21
5939.347566565591
 31
0.0
  0
LINE
  5
104FC
  8
01
 10
-2023.657401495035
 20
5951.347566565594
 30
0.0
 11
-2011.656701173501
 21
5951.347566565594
 31
0.0
  0
LINE
  5
104FD
  8
01
 10
-2021.081701173502
 20
5948.92256656559
 30
0.0
 11
-2014.231701173496
 21
5948.922566565591
 31
0.0
  0
LINE
  5
104FE
  8
01
 10
-2010.656701173502
 20
5980.347679078992
 30
0.0
 11
-2013.6567011735
 21
5980.347641743483
 31
0.0
  0
LINE
  5
104FF
  8
01
 10
-2010.656701173501
 20
5978.347679078837
 30
0.0
 11
-2011.656701173501
 21
5978.347666633667
 31
0.0
  0
LINE
  5
10500
  8
01
 10
-2006.656400343387
 20
5980.847591948376
 30
0.0
 11
-2013.656361955807
 21
5980.847591948375
 31
0.0
  0
LINE
  5
10501
  8
01
 10
-2021.656361956162
 20
5980.847591948375
 30
0.0
 11
-2028.656400343387
 21
5980.847591948376
 31
0.0
  0
LINE
  5
10502
  8
01
 10
-2010.456701173502
 20
5977.847631785631
 30
0.0
 11
-2011.456701173502
 21
5977.847619340462
 31
0.0
  0
LINE
  5
10503
  8
01
 10
-2023.857401495034
 20
5951.347566565594
 30
0.0
 11
-2011.456701173502
 21
5951.347566565594
 31
0.0
  0
LINE
  5
10504
  8
01
 10
-2011.157051734086
 20
5948.347566565591
 30
0.0
 11
-2011.157051734086
 21
5939.847566565591
 31
0.0
  0
LINE
  5
10505
  8
01
 10
-2011.157051734088
 20
5945.997566565591
 30
0.0
 11
-2010.807051734086
 21
5946.347566565591
 31
0.0
  0
LINE
  5
10506
  8
01
 10
-2011.157051734088
 20
5934.697566565591
 30
0.0
 11
-2010.807051734086
 21
5934.347566565591
 31
0.0
  0
LINE
  5
10507
  8
01
 10
-2010.807051734086
 20
5946.347566565591
 30
0.0
 11
-2007.507051734086
 21
5946.347566565591
 31
0.0
  0
LINE
  5
10508
  8
01
 10
-2010.807051734086
 20
5934.347566565591
 30
0.0
 11
-2007.507051734086
 21
5934.347566565591
 31
0.0
  0
LINE
  5
10509
  8
01
 10
-2007.507051734086
 20
5946.347566565591
 30
0.0
 11
-2007.157051734088
 21
5945.997566565591
 31
0.0
  0
LINE
  5
1050A
  8
01
 10
-2007.507051734086
 20
5934.347566565591
 30
0.0
 11
-2007.157051734088
 21
5934.697566565592
 31
0.0
  0
LINE
  5
1050B
  8
01
 10
-2007.157051734088
 20
5948.347566565591
 30
0.0
 11
-2007.157051734088
 21
5939.847566565591
 31
0.0
  0
LINE
  5
1050C
  8
01
 10
-2007.507051734086
 20
5950.347566565592
 30
0.0
 11
-2007.507051734086
 21
5940.197566565592
 31
0.0
  0
LINE
  5
1050D
  8
01
 10
-2010.807051734088
 20
5950.347566565592
 30
0.0
 11
-2010.807051734086
 21
5940.19756656559
 31
0.0
  0
LINE
  5
1050E
  8
1CENTER
 10
-2009.157051734088
 20
5953.016406597479
 30
0.0
 11
-2009.157051734088
 21
5928.852809212642
 31
0.0
  0
LINE
  5
1050F
  8
1HATCH
 10
-2011.157051734088
 20
5945.997566565591
 30
0.0
 11
-2007.157051734088
 21
5945.997566565591
 31
0.0
  0
LINE
  5
10510
  8
1HATCH
 10
-2011.157051734088
 20
5934.697566565591
 30
0.0
 11
-2007.157051734088
 21
5934.697566565592
 31
0.0
  0
LINE
  5
10511
  8
01
 10
-2010.807051734088
 20
5950.347566565592
 30
0.0
 11
-2009.157051734086
 21
5951.997566565589
 31
0.0
  0
LINE
  5
10512
  8
01
 10
-2010.807051734086
 20
5950.347566565591
 30
0.0
 11
-2007.507051734086
 21
5950.347566565591
 31
0.0
  0
LINE
  5
10513
  8
01
 10
-2009.157051734086
 20
5951.997566565589
 30
0.0
 11
-2007.507051734086
 21
5950.347566565592
 31
0.0
  0
LINE
  5
10514
  8
01
 10
-2011.157051734088
 20
5948.347566565591
 30
0.0
 11
-2010.807051734086
 21
5948.697566565591
 31
0.0
  0
LINE
  5
10515
  8
01
 10
-2010.807051734086
 20
5948.697566565591
 30
0.0
 11
-2007.507051734086
 21
5948.697566565591
 31
0.0
  0
LINE
  5
10516
  8
01
 10
-2007.507051734086
 20
5948.697566565591
 30
0.0
 11
-2007.157051734088
 21
5948.347566565591
 31
0.0
  0
LINE
  5
10517
  8
01
 10
-2011.157051734086
 20
5948.347566565591
 30
0.0
 11
-2007.157051734088
 21
5948.347566565591
 31
0.0
  0
LINE
  5
10518
  8
01
 10
-2011.657051734088
 20
5939.347566565591
 30
0.0
 11
-2010.807051734086
 21
5940.19756656559
 31
0.0
  0
LINE
  5
10519
  8
01
 10
-2007.507051734086
 20
5940.197566565592
 30
0.0
 11
-2006.657051734086
 21
5939.347566565591
 31
0.0
  0
LINE
  5
1051A
  8
01
  6
BYBLOCK
 10
-2011.157051734088
 20
5934.697566565591
 30
0.0
 11
-2011.157051734086
 21
5945.997566565592
 31
0.0
  0
LINE
  5
1051B
  8
01
  6
BYBLOCK
 10
-2007.157051734088
 20
5934.697566565592
 30
0.0
 11
-2007.157051734088
 21
5945.997566565591
 31
0.0
  0
LINE
  5
1051C
  8
1DIM
 10
-2010.807051734086
 20
5946.347566565591
 30
0.0
 11
-2010.807051734086
 21
5934.347566565591
 31
0.0
  0
LINE
  5
1051D
  8
1DIM
 10
-2007.507051734086
 20
5946.347566565591
 30
0.0
 11
-2007.507051734086
 21
5934.347566565591
 31
0.0
  0
LINE
  5
1051E
  8
01
 10
-2024.656701173501
 20
6001.14769408567
 30
0.0
 11
-2024.656701173501
 21
5999.947687105403
 31
0.0
  0
LINE
  5
1051F
  8
01
 10
-2014.231701173499
 20
5997.647687105399
 30
0.0
 11
-2014.231701173499
 21
5964.947687105402
 31
0.0
  0
LINE
  5
10520
  8
01
 10
-2021.081701173502
 20
5997.6476871054
 30
0.0
 11
-2021.081701173502
 21
5964.947687105402
 31
0.0
  0
LINE
  5
10521
  8
01
 10
-2013.656701173499
 20
5997.647687105399
 30
0.0
 11
-2013.656701173501
 21
5965.522687105402
 31
0.0
  0
LINE
  5
10522
  8
01
 10
-2021.656701173501
 20
5997.6476871054
 30
0.0
 11
-2021.656701173501
 21
5965.522687105402
 31
0.0
  0
ARC
  5
10523
  8
01
 10
-2020.656701173501
 20
6001.14769408567
 30
0.0
 40
4.0
 50
89.99986668457916
 51
180.0
  0
LINE
  5
10524
  8
01
 10
-2014.656691866321
 20
6005.14768012489
 30
0.0
 11
-2020.656691866321
 21
6005.147694085659
 31
0.0
  0
ARC
  5
10525
  8
01
 10
-2014.656701173501
 20
6001.147680124901
 30
0.0
 40
4.0
 50
0.0
 51
89.99986668457916
  0
LINE
  5
10526
  8
01
 10
-2010.656701173501
 20
6001.147680124901
 30
0.0
 11
-2010.656701173501
 21
5999.947687105403
 31
0.0
  0
LINE
  5
10527
  8
01
 10
-2011.256751520974
 20
5997.6476871054
 30
0.0
 11
-2011.256751520972
 21
5999.947687105403
 31
0.0
  0
LINE
  5
10528
  8
01
 10
-2024.056751520973
 20
5999.947687105403
 30
0.0
 11
-2024.056751520973
 21
5997.6476871054
 31
0.0
  0
LINE
  5
10529
  8
01
 10
-2011.256751520974
 20
5997.6476871054
 30
0.0
 11
-2024.056751520973
 21
5997.6476871054
 31
0.0
  0
LINE
  5
1052A
  8
01
 10
-2024.656701173501
 20
5999.947687105403
 30
0.0
 11
-2010.656701173501
 21
5999.947687105403
 31
0.0
  0
LINE
  5
1052B
  8
01
 10
-2021.081701173502
 20
5964.947687105402
 30
0.0
 11
-2014.231701173499
 21
5964.947687105402
 31
0.0
  0
LINE
  5
1052C
  8
01
 10
-2017.756306243878
 20
5999.947687105403
 30
0.0
 11
-2018.024255436309
 21
5997.6476871054
 31
0.0
  0
LINE
  5
1052D
  8
01
 10
-2017.305995593642
 20
5999.947687105403
 30
0.0
 11
-2017.573944786072
 21
5997.6476871054
 31
0.0
  0
LINE
  5
1052E
  8
01
 10
-2017.656701173501
 20
5952.922734863433
 30
0.0
 11
-2021.081701173502
 21
5956.347679078992
 31
0.0
  0
LINE
  5
1052F
  8
01
 10
-2017.656701173501
 20
5952.922734863433
 30
0.0
 11
-2014.231701173499
 21
5956.347679078999
 31
0.0
  0
LINE
  5
10530
  8
01
 10
-2021.081701173502
 20
5964.947687105402
 30
0.0
 11
-2021.656701173501
 21
5965.522687105402
 31
0.0
  0
LINE
  5
10531
  8
01
 10
-2014.231701173499
 20
5964.947687105402
 30
0.0
 11
-2013.656701173501
 21
5965.522687105402
 31
0.0
  0
LINE
  5
10532
  8
01
 10
-2021.656701173501
 20
5965.522687105402
 30
0.0
 11
-2013.656701173501
 21
5965.522687105402
 31
0.0
  0
LINE
  5
10533
  8
01
 10
-2014.231701173499
 20
5979.222647792047
 30
0.0
 11
-2014.231701173499
 21
5956.347679078992
 31
0.0
  0
LINE
  5
10534
  8
01
 10
-2021.081701173502
 20
5979.222646246127
 30
0.0
 11
-2021.081701173502
 21
5956.347679078992
 31
0.0
  0
LINE
  5
10535
  8
01
 10
-2013.656701173501
 20
5979.797647842312
 30
0.0
 11
-2013.656701173498
 21
5959.347679078991
 31
0.0
  0
LINE
  5
10536
  8
01
 10
-2021.656701173502
 20
5979.797646296394
 30
0.0
 11
-2021.656701173503
 21
5959.347679078994
 31
0.0
  0
LINE
  5
10537
  8
01
 10
-2021.081701173502
 20
5958.772679078992
 30
0.0
 11
-2014.231701173499
 21
5958.772679078991
 31
0.0
  0
LINE
  5
10538
  8
01
 10
-2021.081701173502
 20
5958.772679078992
 30
0.0
 11
-2021.656701173501
 21
5959.347679078991
 31
0.0
  0
LINE
  5
10539
  8
01
 10
-2014.231701173499
 20
5958.772679078991
 30
0.0
 11
-2013.656701173501
 21
5959.347679078991
 31
0.0
  0
LINE
  5
1053A
  8
01
 10
-2021.656701173501
 20
5959.347679078991
 30
0.0
 11
-2013.656701173501
 21
5959.347679078991
 31
0.0
  0
LINE
  5
1053B
  8
01
 10
-2021.081701173502
 20
5956.347679078992
 30
0.0
 11
-2014.231701173499
 21
5956.347679078992
 31
0.0
  0
LINE
  5
1053C
  8
01
  6
BYBLOCK
 10
-2017.656701173501
 20
5919.422622350033
 30
0.0
 11
-2021.081701173502
 21
5922.847566565591
 31
0.0
  0
LINE
  5
1053D
  8
01
  6
BYBLOCK
 10
-2017.656701173501
 20
5919.422622350033
 30
0.0
 11
-2014.231701173499
 21
5922.8475665656
 31
0.0
  0
LINE
  5
1053E
  8
01
  6
BYBLOCK
 10
-2014.231701173499
 20
5938.272566565593
 30
0.0
 11
-2014.231701173499
 21
5922.847566565591
 31
0.0
  0
LINE
  5
1053F
  8
01
  6
BYBLOCK
 10
-2021.0817011735
 20
5938.272566565587
 30
0.0
 11
-2021.0817011735
 21
5922.847566565591
 31
0.0
  0
LINE
  5
10540
  8
01
  6
BYBLOCK
 10
-2013.656701173501
 20
5938.847566565591
 30
0.0
 11
-2013.656701173499
 21
5925.347566565591
 31
0.0
  0
LINE
  5
10541
  8
01
  6
BYBLOCK
 10
-2021.656701173502
 20
5938.847566565589
 30
0.0
 11
-2021.656701173503
 21
5925.347566565593
 31
0.0
  0
LINE
  5
10542
  8
01
  6
BYBLOCK
 10
-2021.081701173502
 20
5924.772566565592
 30
0.0
 11
-2014.231701173499
 21
5924.772566565592
 31
0.0
  0
LINE
  5
10543
  8
01
  6
BYBLOCK
 10
-2021.081701173502
 20
5924.772566565592
 30
0.0
 11
-2021.656701173501
 21
5925.347566565591
 31
0.0
  0
LINE
  5
10544
  8
01
  6
BYBLOCK
 10
-2014.231701173499
 20
5924.772566565592
 30
0.0
 11
-2013.656701173501
 21
5925.347566565591
 31
0.0
  0
LINE
  5
10545
  8
01
  6
BYBLOCK
 10
-2021.656701173501
 20
5925.347566565591
 30
0.0
 11
-2013.656701173501
 21
5925.347566565591
 31
0.0
  0
LINE
  5
10546
  8
01
  6
BYBLOCK
 10
-2021.081701173502
 20
5922.847566565591
 30
0.0
 11
-2014.231701173499
 21
5922.847566565591
 31
0.0
  0
LINE
  5
10547
  8
01
 10
-2014.231701173496
 20
5951.347566565595
 30
0.0
 11
-2014.231701173499
 21
5926.347687105403
 31
0.0
  0
LINE
  5
10548
  8
01
 10
-2021.081701173502
 20
5951.347566565594
 30
0.0
 11
-2021.081701173502
 21
5926.347687105403
 31
0.0
  0
LINE
  5
10549
  8
01
 10
-2013.6567011735
 20
5948.347566565594
 30
0.0
 11
-2013.656701173502
 21
5926.922687105402
 31
0.0
  0
LINE
  5
1054A
  8
01
 10
-2013.5567011735
 20
5951.347566565595
 30
0.0
 11
-2013.556701173502
 21
5939.347566565591
 31
0.0
  0
LINE
  5
1054B
  8
01
 10
-2021.656701173499
 20
5948.347566565594
 30
0.0
 11
-2021.656701173502
 21
5926.922687105402
 31
0.0
  0
LINE
  5
1054C
  8
01
 10
-2021.756701173499
 20
5951.347566565594
 30
0.0
 11
-2021.756701173497
 21
5939.347566565591
 31
0.0
  0
LINE
  5
1054D
  8
01
 10
-2021.081701173502
 20
5926.347687105403
 30
0.0
 11
-2014.231701173499
 21
5926.347687105403
 31
0.0
  0
LINE
  5
1054E
  8
01
 10
-2021.081701173502
 20
5926.347687105403
 30
0.0
 11
-2021.656701173501
 21
5926.922687105402
 31
0.0
  0
LINE
  5
1054F
  8
01
 10
-2014.231701173499
 20
5926.347687105403
 30
0.0
 11
-2013.656701173501
 21
5926.922687105402
 31
0.0
  0
LINE
  5
10550
  8
01
 10
-2021.656701173501
 20
5926.922687105402
 30
0.0
 11
-2013.656701173501
 21
5926.922687105402
 31
0.0
  0
LINE
  5
10551
  8
01
 10
-2014.231701173496
 20
5948.922566565591
 30
0.0
 11
-2013.656701173501
 21
5948.347566565595
 31
0.0
  0
LINE
  5
10552
  8
01
 10
-2021.081701173502
 20
5948.92256656559
 30
0.0
 11
-2021.656701173499
 21
5948.347566565594
 31
0.0
  0
LINE
  5
10553
  8
01
 10
-2021.656701173499
 20
5948.347566565594
 30
0.0
 11
-2013.656701173501
 21
5948.347566565594
 31
0.0
  0
LINE
  5
10554
  8
01
 10
-2011.257051734088
 20
5932.347566565591
 30
0.0
 11
-2007.057051734086
 21
5932.347566565591
 31
0.0
  0
LINE
  5
10555
  8
01
  6
BYBLOCK
 10
-2011.25705173409
 20
5932.347566565593
 30
0.0
 11
-2011.257051734086
 21
5938.84756656559
 31
0.0
  0
LINE
  5
10556
  8
01
  6
BYBLOCK
 10
-2007.057051734086
 20
5932.347566565591
 30
0.0
 11
-2007.057051734086
 21
5938.847566565593
 31
0.0
  0
LINE
  5
10557
  8
01
  6
BYBLOCK
 10
-2009.157051734088
 20
5930.247566565591
 30
0.0
 11
-2011.257051734088
 21
5932.347566565591
 31
0.0
  0
LINE
  5
10558
  8
01
  6
BYBLOCK
 10
-2009.157051734088
 20
5930.247566565591
 30
0.0
 11
-2007.057051734086
 21
5932.347566565591
 31
0.0
  0
LINE
  5
10559
  8
01
 10
-1471.987509421064
 20
5813.009983697933
 30
0.0
 11
-1477.488264181777
 21
5818.510738458646
 31
0.0
  0
LINE
  5
1055A
  8
01
 10
-1471.989018942494
 20
5838.009983697929
 30
0.0
 11
-1477.488264181777
 21
5832.510738458646
 31
0.0
  0
LINE
  5
1055B
  8
01
  6
BYBLOCK
 10
-2022.156701173502
 20
5939.347566565591
 30
0.0
 11
-2021.081701173502
 21
5938.272566565587
 31
0.0
  0
LINE
  5
1055C
  8
01
  6
BYBLOCK
 10
-2013.156701173499
 20
5939.347566565591
 30
0.0
 11
-2014.231701173499
 21
5938.272566565593
 31
0.0
  0
LINE
  5
1055D
  8
01
  6
BYBLOCK
 10
-2007.057051734086
 20
5938.847566565593
 30
0.0
 11
-2006.557051734086
 21
5939.347566565591
 31
0.0
  0
LINE
  5
1055E
  8
01
  6
BYBLOCK
 10
-2011.257051734086
 20
5938.84756656559
 30
0.0
 11
-2011.75705173409
 21
5939.347566565591
 31
0.0
  0
LINE
  5
10560
  8
01
 10
-1447.613184501243
 20
5822.085738458646
 30
0.0
 11
-1446.488182797581
 21
5820.960736853332
 31
0.0
  0
LINE
  5
10561
  8
01
 10
-1432.988236969217
 20
5833.260387898059
 30
0.0
 11
-1432.988236805299
 21
5829.510387898061
 31
0.0
  0
LINE
  5
10562
  8
01
 10
-1432.988236455637
 20
5821.51107767599
 30
0.0
 11
-1432.988236291689
 21
5817.760387898061
 31
0.0
  0
LINE
  5
10563
  8
01
 10
-1407.988368879871
 20
5814.910883068143
 30
0.0
 11
-1407.988105063518
 21
5836.109176450959
 31
0.0
  0
LINE
  5
10564
  8
01
 10
-1429.988380101528
 20
5814.009332102195
 30
0.0
 11
-1429.988367633649
 21
5815.011156861863
 31
0.0
  0
LINE
  5
10565
  8
01
 10
-1429.988106306331
 20
5836.009450244694
 30
0.0
 11
-1429.988093862632
 21
5837.009332100418
 31
0.0
  0
LINE
  5
10566
  8
01
 10
-1432.688093862424
 20
5837.009365702374
 30
0.0
 11
-1429.988093862632
 21
5837.009332100418
 31
0.0
  0
LINE
  5
10567
  8
01
 10
-1432.68838010132
 20
5814.009365704156
 30
0.0
 11
-1429.988380101529
 21
5814.009332102195
 31
0.0
  0
LINE
  5
10568
  8
01
 10
-1429.988368878167
 20
5814.911156861871
 30
0.0
 11
-1419.388347485796
 21
5814.911024942809
 31
0.0
  0
LINE
  5
10569
  8
01
 10
-1415.388347485796
 20
5814.910975162131
 30
0.0
 11
-1407.988368879871
 21
5814.910883068143
 31
0.0
  0
LINE
  5
1056A
  8
01
 10
-1429.988105061814
 20
5836.109450244688
 30
0.0
 11
-1407.988105063518
 21
5836.109176450959
 31
0.0
  0
LINE
  5
1056B
  8
01
 10
-1397.388949991057
 20
5825.510038137112
 30
0.0
 11
-1407.988368879871
 21
5814.910883068143
 31
0.0
  0
LINE
  5
1056C
  8
01
 10
-1397.388949991059
 20
5825.51003813711
 30
0.0
 11
-1407.988227016593
 21
5836.10917645248
 31
0.0
  0
LINE
  5
1056E
  8
01
 10
-1408.98835519011
 20
5816.010895513228
 30
0.0
 11
-1408.98811875313
 21
5835.009188896215
 31
0.0
  0
LINE
  5
1056F
  8
01
 10
-1409.988367635202
 20
5815.010907958474
 30
0.0
 11
-1408.98835519011
 21
5816.010895513228
 31
0.0
  0
LINE
  5
10570
  8
01
 10
-1431.988377612343
 20
5814.209356992522
 30
0.0
 11
-1431.988286741074
 21
5821.511087169807
 31
0.0
  0
LINE
  5
10571
  8
01
 10
-1431.988187179719
 20
5829.511087171108
 30
0.0
 11
-1431.988096351515
 21
5836.809356990772
 31
0.0
  0
LINE
  5
10572
  8
01
 10
-1431.988096351515
 20
5836.809356990772
 30
0.0
 11
-1429.988096351669
 21
5836.809332100433
 31
0.0
  0
LINE
  5
10573
  8
01
 10
-1431.988377612343
 20
5814.209356992522
 30
0.0
 11
-1429.988377612497
 21
5814.209332102179
 31
0.0
  0
LINE
  5
10574
  8
01
 10
-1429.988367633653
 20
5815.011156861862
 30
0.0
 11
-1419.388213701739
 21
5815.011024941152
 31
0.0
  0
LINE
  5
10575
  8
01
 10
-1415.388347485796
 20
5815.010975162139
 30
0.0
 11
-1409.988367635201
 21
5815.010907958475
 31
0.0
  0
LINE
  5
10576
  8
01
 10
-1429.988106306334
 20
5836.009450244695
 30
0.0
 11
-1409.988106307883
 21
5836.009201341306
 31
0.0
  0
LINE
  5
10577
  8
01
 10
-1408.98811875313
 20
5835.009188896215
 30
0.0
 11
-1409.988106307883
 21
5836.009201341306
 31
0.0
  0
LINE
  5
10578
  8
01
 10
-1429.988377612494
 20
5814.209332102179
 30
0.0
 11
-1429.988367633649
 21
5815.011156861863
 31
0.0
  0
LINE
  5
10579
  8
01
 10
-1429.988106306335
 20
5836.009450244696
 30
0.0
 11
-1429.988096351669
 21
5836.809332100433
 31
0.0
  0
LINE
  5
1057A
  8
01
 10
-1431.988299207775
 20
5820.509356992045
 30
0.0
 11
-1429.188299207992
 21
5820.509322145571
 31
0.0
  0
LINE
  5
1057B
  8
01
 10
-1431.988174756082
 20
5830.509356991271
 30
0.0
 11
-1429.188174756299
 21
5830.509322144796
 31
0.0
  0
LINE
  5
1057C
  8
01
 10
-1429.188330298206
 20
5818.011146905495
 30
0.0
 11
-1419.388213701739
 21
5818.011024941384
 31
0.0
  0
LINE
  5
1057D
  8
01
 10
-1415.388347485796
 20
5818.010975162371
 30
0.0
 11
-1408.98833029977
 21
5818.010895513073
 31
0.0
  0
LINE
  5
1057E
  8
01
 10
-1429.188143641905
 20
5833.009440288792
 30
0.0
 11
-1408.988143643469
 21
5833.00918889637
 31
0.0
  0
LINE
  5
1057F
  8
01
 10
-1429.188143641905
 20
5833.009440288792
 30
0.0
 11
-1429.188174756299
 21
5830.509322144796
 31
0.0
  0
LINE
  5
10580
  8
01
 10
-1429.188286740526
 20
5821.511113753836
 30
0.0
 11
-1429.188330298206
 21
5818.011146905495
 31
0.0
  0
LINE
  5
10581
  8
01
 10
-1432.988236969217
 20
5836.51103928876
 30
0.0
 11
-1431.988236969217
 21
5836.51103928876
 31
0.0
  0
LINE
  5
10582
  8
01
 10
-1431.988236969217
 20
5814.51103928876
 30
0.0
 11
-1432.988236969217
 21
5814.51103928876
 31
0.0
  0
LINE
  5
10583
  8
01
 10
-1432.988236969217
 20
5836.51103928876
 30
0.0
 11
-1432.988236969217
 21
5829.51107767634
 31
0.0
  0
LINE
  5
10584
  8
01
 10
-1432.988236969217
 20
5821.511077675985
 30
0.0
 11
-1432.988236969217
 21
5814.51103928876
 31
0.0
  0
LINE
  5
10585
  8
01
 10
-1431.988236969217
 20
5831.50949962241
 30
0.0
 11
-1432.988236969217
 21
5831.50949962241
 31
0.0
  0
LINE
  5
10586
  8
01
 10
-1431.988236969217
 20
5819.511257185121
 30
0.0
 11
-1432.988236969217
 21
5819.511257185121
 31
0.0
  0
LINE
  5
10587
  8
01
 10
-1448.488164113702
 20
5831.510738458646
 30
0.0
 11
-1465.715803650877
 21
5831.510738458647
 31
0.0
  0
LINE
  5
10588
  8
01
 10
-1446.488151668378
 20
5832.510738458645
 30
0.0
 11
-1448.488151668533
 21
5832.510738458646
 31
0.0
  0
LINE
  5
10589
  8
01
 10
-1445.988378180667
 20
5832.710738458646
 30
0.0
 11
-1448.988198961738
 21
5832.710738458646
 31
0.0
  0
LINE
  5
1058A
  8
01
 10
-1448.988211406908
 20
5831.710738458646
 30
0.0
 11
-1465.695464312598
 21
5831.710738458646
 31
0.0
  0
LINE
  5
1058B
  8
01
 10
-1448.488164122428
 20
5819.510738458646
 30
0.0
 11
-1462.462731901029
 21
5819.510738458646
 31
0.0
  0
LINE
  5
1058C
  8
01
 10
-1446.488151677104
 20
5818.510738458647
 30
0.0
 11
-1448.488151677259
 21
5818.510738458646
 31
0.0
  0
LINE
  5
1058D
  8
01
 10
-1445.988198970231
 20
5818.310738458647
 30
0.0
 11
-1448.988198970463
 21
5818.310738458646
 31
0.0
  0
LINE
  5
1058E
  8
01
 10
-1448.988211415633
 20
5819.310738458646
 30
0.0
 11
-1462.432965544785
 21
5819.310738458646
 31
0.0
  0
LINE
  5
1058F
  8
01
 10
-1445.288237615816
 20
5837.00936570417
 30
0.0
 11
-1445.988431677702
 21
5837.009356990136
 31
0.0
  0
LINE
  5
10590
  8
01
 10
-1445.288238621163
 20
5814.009365702378
 30
0.0
 11
-1445.988145438811
 21
5814.009356991917
 31
0.0
  0
LINE
  5
10591
  8
01
 10
-1444.988238798993
 20
5836.51103928876
 30
0.0
 11
-1445.988238798993
 21
5836.51103928876
 31
0.0
  0
LINE
  5
10592
  8
01
 10
-1445.988238798994
 20
5814.51103928876
 30
0.0
 11
-1444.988238798994
 21
5814.51103928876
 31
0.0
  0
LINE
  5
10593
  8
01
 10
-1444.988238798993
 20
5836.51103928876
 30
0.0
 11
-1444.988238798994
 21
5829.51107767634
 31
0.0
  0
LINE
  5
10594
  8
01
 10
-1444.988238798993
 20
5821.511077675985
 30
0.0
 11
-1444.988238798993
 21
5814.51103928876
 31
0.0
  0
LINE
  5
10595
  8
01
 10
-1445.988238798994
 20
5831.50949962241
 30
0.0
 11
-1444.988238798994
 21
5831.50949962241
 31
0.0
  0
LINE
  5
10596
  8
01
 10
-1445.988238798993
 20
5819.511257185121
 30
0.0
 11
-1444.988238798994
 21
5819.511257185121
 31
0.0
  0
LINE
  5
10597
  8
01
 10
-1447.613182955323
 20
5828.935738458647
 30
0.0
 11
-1446.488181251661
 21
5830.060740063962
 31
0.0
  0
LINE
  5
10598
  8
01
 10
-1446.488151677104
 20
5818.510738458647
 30
0.0
 11
-1446.488189012612
 21
5821.510738458646
 31
0.0
  0
LINE
  5
10599
  8
01
 10
-1448.488151677259
 20
5818.510738458646
 30
0.0
 11
-1448.488164122428
 21
5819.510738458646
 31
0.0
  0
LINE
  5
1059A
  8
01
 10
-1445.988145438811
 20
5814.009356991917
 30
0.0
 11
-1445.988238798993
 21
5821.511077659925
 31
0.0
  0
LINE
  5
1059B
  8
01
 10
-1445.988338356126
 20
5829.510738458647
 30
0.0
 11
-1445.988431677702
 21
5837.009356990136
 31
0.0
  0
LINE
  5
1059C
  8
01
 10
-1448.988198970463
 20
5818.310738458646
 30
0.0
 11
-1448.988211415633
 21
5819.310738458646
 31
0.0
  0
LINE
  5
1059D
  8
01
 10
-1446.488151668378
 20
5832.510738458645
 30
0.0
 11
-1446.488189003886
 21
5829.510738458646
 31
0.0
  0
LINE
  5
1059E
  8
01
 10
-1448.488151668533
 20
5832.510738458646
 30
0.0
 11
-1448.488164113702
 21
5831.510738458646
 31
0.0
  0
LINE
  5
1059F
  8
01
 10
-1445.988238798994
 20
5836.51103928876
 30
0.0
 11
-1445.988238798994
 21
5829.51107767634
 31
0.0
  0
LINE
  5
105A0
  8
01
 10
-1445.988238798994
 20
5821.511077675985
 30
0.0
 11
-1445.988238798994
 21
5814.51103928876
 31
0.0
  0
LINE
  5
105A1
  8
01
 10
-1448.988198961738
 20
5832.710738458646
 30
0.0
 11
-1448.988211406908
 21
5831.710738458646
 31
0.0
  0
LINE
  5
105A2
  8
01
 10
-1425.6881366617
 20
5818.510738458646
 30
0.0
 11
-1426.888143641967
 21
5818.510738458646
 31
0.0
  0
LINE
  5
105A3
  8
01
 10
-1429.18814364197
 20
5828.935738458647
 30
0.0
 11
-1461.888143641967
 21
5828.935738458646
 31
0.0
  0
LINE
  5
105A4
  8
01
 10
-1429.18814364197
 20
5822.085738458646
 30
0.0
 11
-1461.888143641967
 21
5822.085738458646
 31
0.0
  0
LINE
  5
105A5
  8
01
 10
-1429.18814364197
 20
5829.510738458647
 30
0.0
 11
-1461.313143641968
 21
5829.510738458646
 31
0.0
  0
LINE
  5
105A6
  8
01
 10
-1429.18814364197
 20
5821.510738458646
 30
0.0
 11
-1461.313143641968
 21
5821.510738458646
 31
0.0
  0
ARC
  5
105A7
  8
01
 10
-1425.6881366617
 20
5822.510738458646
 30
0.0
 40
4.0
 50
270.0
 51
0.0001333155250614
  0
LINE
  5
105A8
  8
01
 10
-1421.68815062248
 20
5828.510747765826
 30
0.0
 11
-1421.688136661711
 21
5822.510747765826
 31
0.0
  0
ARC
  5
105A9
  8
01
 10
-1425.688150622469
 20
5828.510738458646
 30
0.0
 40
4.0
 50
0.0001333155250614
 51
90.0
  0
LINE
  5
105AA
  8
01
 10
-1425.688150622469
 20
5832.510738458646
 30
0.0
 11
-1426.888143641967
 21
5832.510738458646
 31
0.0
  0
LINE
  5
105AB
  8
01
 10
-1429.18814364197
 20
5831.910688111173
 30
0.0
 11
-1426.888143641967
 21
5831.910688111175
 31
0.0
  0
LINE
  5
105AC
  8
01
 10
-1426.888143641967
 20
5819.110688111174
 30
0.0
 11
-1429.18814364197
 21
5819.110688111174
 31
0.0
  0
LINE
  5
105AD
  8
01
 10
-1429.18814364197
 20
5831.910688111173
 30
0.0
 11
-1429.18814364197
 21
5819.110688111174
 31
0.0
  0
LINE
  5
105AE
  8
01
 10
-1426.888143641967
 20
5818.510738458646
 30
0.0
 11
-1426.888143641967
 21
5832.510738458646
 31
0.0
  0
LINE
  5
105AF
  8
01
 10
-1461.888143641967
 20
5822.085738458646
 30
0.0
 11
-1461.888143641967
 21
5828.935738458646
 31
0.0
  0
LINE
  5
105B0
  8
01
 10
-1426.888143641967
 20
5825.411133388268
 30
0.0
 11
-1429.18814364197
 21
5825.143184195838
 31
0.0
  0
LINE
  5
105B1
  8
01
 10
-1426.888143641967
 20
5825.861444038504
 30
0.0
 11
-1429.18814364197
 21
5825.593494846074
 31
0.0
  0
LINE
  5
105B2
  8
01
 10
-1461.888143641967
 20
5822.085738458646
 30
0.0
 11
-1461.313143641968
 21
5821.510738458646
 31
0.0
  0
LINE
  5
105B3
  8
01
 10
-1461.888143641967
 20
5828.935738458646
 30
0.0
 11
-1461.313143641968
 21
5829.510738458646
 31
0.0
  0
LINE
  5
105B4
  8
01
 10
-1461.313143641968
 20
5821.510738458646
 30
0.0
 11
-1461.313143641968
 21
5829.510738458646
 31
0.0
  0
LINE
  5
105B5
  8
01
 10
-1447.613182955323
 20
5828.935738458647
 30
0.0
 11
-1465.552891631886
 21
5828.935738458647
 31
0.0
  0
LINE
  5
105B6
  8
01
 10
-1447.613184501243
 20
5822.085738458646
 30
0.0
 11
-1463.149820985008
 21
5822.085738458646
 31
0.0
  0
LINE
  5
105B7
  8
01
 10
-1447.038182905058
 20
5829.510738458646
 30
0.0
 11
-1465.653341230557
 21
5829.510738458647
 31
0.0
  0
LINE
  5
105B8
  8
01
 10
-1447.038184450975
 20
5821.510738458645
 30
0.0
 11
-1462.957302271833
 21
5821.510738458644
 31
0.0
  0
LINE
  5
105B9
  8
01
 10
-1419.388213701739
 20
5818.011024941384
 30
0.0
 11
-1419.388213701739
 21
5815.011024941152
 31
0.0
  0
LINE
  5
105BA
  8
01
 10
-1415.38821370156
 20
5818.010975160706
 30
0.0
 11
-1415.38821370156
 21
5815.010975160474
 31
0.0
  0
LINE
  5
105BB
  8
01
 10
-1415.738213701575
 20
5818.010979516515
 30
0.0
 11
-1415.738213701575
 21
5815.010979516283
 31
0.0
  0
LINE
  5
105BC
  8
01
 10
-1419.038213701724
 20
5818.011020585574
 30
0.0
 11
-1419.038213701724
 21
5815.011020585343
 31
0.0
  0
LINE
  5
105BD
  8
01
 10
-1420.388347575796
 20
5813.009983670507
 30
0.0
 11
-1420.388347575796
 21
5813.509983670507
 31
0.0
  0
LINE
  5
105BE
  8
01
 10
-1419.438213701648
 20
5814.460117601865
 30
0.0
 11
-1419.438213701648
 21
5814.911025563401
 31
0.0
  0
LINE
  5
105BF
  8
01
 10
-1420.388347633006
 20
5813.509983670507
 30
0.0
 11
-1419.438213701648
 21
5814.460117601865
 31
0.0
  0
LINE
  5
105C0
  8
01
 10
-1415.338481261499
 20
5814.46011760659
 30
0.0
 11
-1414.938213701648
 21
5814.460117607051
 31
0.0
  0
LINE
  5
105C1
  8
01
 10
-1419.388601210254
 20
5833.009914582174
 30
0.0
 11
-1419.388756225135
 21
5836.009914578402
 31
0.0
  0
LINE
  5
105C2
  8
01
 10
-1415.388601217987
 20
5833.01017104936
 30
0.0
 11
-1415.388756232868
 21
5836.010171045587
 31
0.0
  0
LINE
  5
105C3
  8
01
 10
-1415.73860121731
 20
5833.010148608481
 30
0.0
 11
-1415.738756232191
 21
5836.010148604709
 31
0.0
  0
LINE
  5
105C4
  8
01
 10
-1419.038601210931
 20
5833.009937023054
 30
0.0
 11
-1419.038756225812
 21
5836.009937019281
 31
0.0
  0
LINE
  5
105C5
  8
01
 10
-1555.157402294675
 20
5783.509983697931
 30
0.0
 11
-1555.157402294675
 21
5814.509983697928
 31
0.0
  0
LINE
  5
105C6
  8
01
 10
-1555.157402294675
 20
5836.509983697931
 30
0.0
 11
-1555.157402294675
 21
5837.009983697931
 31
0.0
  0
LINE
  5
105C7
  8
01
 10
-1580.157402294677
 20
5783.509983697931
 30
0.0
 11
-1580.157402294677
 21
5814.509983697928
 31
0.0
  0
LINE
  5
105C8
  8
01
 10
-1580.157402294677
 20
5836.509983697931
 30
0.0
 11
-1580.157402294677
 21
5837.009983697931
 31
0.0
  0
ARC
  5
105C9
  8
01
 10
-1556.157402294673
 20
5783.509983697931
 30
0.0
 40
1.0
 50
269.9999999998957
 51
0.0
  0
ARC
  5
105CA
  8
01
 10
-1579.157402294678
 20
5783.509983697931
 30
0.0
 40
1.0
 50
180.0
 51
270.0000000000521
  0
LINE
  5
105CB
  8
01
 10
-1556.157402294675
 20
5838.009983697931
 30
0.0
 11
-1579.157402294677
 21
5838.009983697931
 31
0.0
  0
ARC
  5
105CC
  8
01
 10
-1556.157402294673
 20
5837.009983697932
 30
0.0
 40
1.0
 50
0.0000000000521102
 51
90.00000000010422
  0
ARC
  5
105CD
  8
01
 10
-1579.157402294678
 20
5837.009983697931
 30
0.0
 40
1.0
 50
89.99999999994789
 51
180.0
  0
LINE
  5
105CF
  8
01
 10
-1413.988079822314
 20
5812.968992002141
 30
0.0
 11
-1413.988079822314
 21
5813.509983670507
 31
0.0
  0
LINE
  5
105D0
  8
01
 10
-1413.988079765104
 20
5813.509983670507
 30
0.0
 11
-1414.938213696463
 21
5814.460117601866
 31
0.0
  0
LINE
  5
105D1
  8
01
 10
-1414.938213696463
 20
5814.460117601866
 30
0.0
 11
-1414.938213696463
 21
5814.911025563401
 31
0.0
  0
POLYLINE
  5
105D2
  8
1DIM
 66
     1
 10
0.0
 20
0.0
 30
0.0
  0
VERTEX
  5
11246
  8
1DIM
 10
-1995.930867588816
 20
5914.347566565596
 30
0.0
  0
VERTEX
  5
11247
  8
1DIM
 10
-1995.926567324688
 20
5914.352633625207
 30
0.0
  0
VERTEX
  5
11248
  8
1DIM
 10
-1995.922268896933
 20
5914.357700621785
 30
0.0
  0
VERTEX
  5
11249
  8
1DIM
 10
-1995.917972308871
 20
5914.362767555214
 30
0.0
  0
VERTEX
  5
1124A
  8
1DIM
 10
-1995.913677563827
 20
5914.367834425384
 30
0.0
  0
VERTEX
  5
1124B
  8
1DIM
 10
-1995.909384665123
 20
5914.372901232177
 30
0.0
  0
VERTEX
  5
1124C
  8
1DIM
 10
-1995.905093616082
 20
5914.377967975482
 30
0.0
  0
VERTEX
  5
1124D
  8
1DIM
 10
-1995.900804420027
 20
5914.383034655183
 30
0.0
  0
VERTEX
  5
1124E
  8
1DIM
 10
-1995.89651708028
 20
5914.388101271166
 30
0.0
  0
VERTEX
  5
1124F
  8
1DIM
 10
-1995.892231600165
 20
5914.393167823318
 30
0.0
  0
VERTEX
  5
11250
  8
1DIM
 10
-1995.887947983003
 20
5914.398234311525
 30
0.0
  0
VERTEX
  5
11251
  8
1DIM
 10
-1995.883666232118
 20
5914.403300735672
 30
0.0
  0
VERTEX
  5
11252
  8
1DIM
 10
-1995.879386350832
 20
5914.408367095645
 30
0.0
  0
VERTEX
  5
11253
  8
1DIM
 10
-1995.875108342469
 20
5914.41343339133
 30
0.0
  0
VERTEX
  5
11254
  8
1DIM
 10
-1995.870832210351
 20
5914.418499622613
 30
0.0
  0
VERTEX
  5
11255
  8
1DIM
 10
-1995.8665579578
 20
5914.423565789381
 30
0.0
  0
VERTEX
  5
11256
  8
1DIM
 10
-1995.86228558814
 20
5914.428631891518
 30
0.0
  0
VERTEX
  5
11257
  8
1DIM
 10
-1995.858015104693
 20
5914.433697928913
 30
0.0
  0
VERTEX
  5
11258
  8
1DIM
 10
-1995.853746510782
 20
5914.438763901449
 30
0.0
  0
VERTEX
  5
11259
  8
1DIM
 10
-1995.84947980973
 20
5914.443829809013
 30
0.0
  0
VERTEX
  5
1125A
  8
1DIM
 10
-1995.84521500486
 20
5914.448895651491
 30
0.0
  0
VERTEX
  5
1125B
  8
1DIM
 10
-1995.840952099493
 20
5914.453961428768
 30
0.0
  0
VERTEX
  5
1125C
  8
1DIM
 10
-1995.836691096954
 20
5914.459027140731
 30
0.0
  0
VERTEX
  5
1125D
  8
1DIM
 10
-1995.832432000564
 20
5914.464092787266
 30
0.0
  0
VERTEX
  5
1125E
  8
1DIM
 10
-1995.828174813648
 20
5914.469158368259
 30
0.0
  0
SEQEND
  5
1144A
  8
1DIM
  0
POLYLINE
  5
105D3
  8
01
  6
BYBLOCK
 66
     1
 10
0.0
 20
0.0
 30
0.0
  0
VERTEX
  5
1125F
  8
01
  6
BYBLOCK
 10
-1993.812674627355
 20
5917.347566565591
 30
0.0
  0
VERTEX
  5
11260
  8
01
  6
BYBLOCK
 10
-1993.521426038748
 20
5917.959362068328
 30
0.0
  0
VERTEX
  5
11261
  8
01
  6
BYBLOCK
 10
-1993.293279325689
 20
5918.56899161014
 30
0.0
  0
VERTEX
  5
11262
  8
01
  6
BYBLOCK
 10
-1993.134317256044
 20
5919.176246401075
 30
0.0
  0
VERTEX
  5
11263
  8
01
  6
BYBLOCK
 10
-1993.050622597682
 20
5919.780917651184
 30
0.0
  0
VERTEX
  5
11264
  8
01
  6
BYBLOCK
 10
-1993.04827811847
 20
5920.382796570513
 30
0.0
  0
VERTEX
  5
11265
  8
01
  6
BYBLOCK
 10
-1993.133347137632
 20
5920.981674588742
 30
0.0
  0
VERTEX
  5
11266
  8
01
  6
BYBLOCK
 10
-1993.307555632688
 20
5921.57739211613
 30
0.0
  0
VERTEX
  5
11267
  8
01
  6
BYBLOCK
 10
-1993.562845015496
 20
5922.169900057745
 30
0.0
  0
VERTEX
  5
11268
  8
01
  6
BYBLOCK
 10
-1993.889815978087
 20
5922.759164459087
 30
0.0
  0
VERTEX
  5
11269
  8
01
  6
BYBLOCK
 10
-1994.279069212492
 20
5923.345151365658
 30
0.0
  0
VERTEX
  5
1126A
  8
01
  6
BYBLOCK
 10
-1994.721205410743
 20
5923.927826822961
 30
0.0
  0
VERTEX
  5
1126B
  8
01
  6
BYBLOCK
 10
-1995.206825264872
 20
5924.507156876495
 30
0.0
  0
VERTEX
  5
1126C
  8
01
  6
BYBLOCK
 10
-1995.726529466911
 20
5925.083107571763
 30
0.0
  0
VERTEX
  5
1126D
  8
01
  6
BYBLOCK
 10
-1996.27091870889
 20
5925.655644954265
 30
0.0
  0
VERTEX
  5
1126E
  8
01
  6
BYBLOCK
 10
-1996.830593682843
 20
5926.224735069504
 30
0.0
  0
VERTEX
  5
1126F
  8
01
  6
BYBLOCK
 10
-1997.396155080801
 20
5926.79034396298
 30
0.0
  0
VERTEX
  5
11270
  8
01
  6
BYBLOCK
 10
-1997.958203594795
 20
5927.352437680195
 30
0.0
  0
VERTEX
  5
11271
  8
01
  6
BYBLOCK
 10
-1998.507339916857
 20
5927.910982266651
 30
0.0
  0
VERTEX
  5
11272
  8
01
  6
BYBLOCK
 10
-1999.034164739019
 20
5928.465943767848
 30
0.0
  0
VERTEX
  5
11273
  8
01
  6
BYBLOCK
 10
-1999.529278753312
 20
5929.017288229288
 30
0.0
  0
VERTEX
  5
11274
  8
01
  6
BYBLOCK
 10
-1999.983282651768
 20
5929.564981696473
 30
0.0
  0
VERTEX
  5
11275
  8
01
  6
BYBLOCK
 10
-2000.386777126419
 20
5930.108990214903
 30
0.0
  0
VERTEX
  5
11276
  8
01
  6
BYBLOCK
 10
-2000.730362869297
 20
5930.649279830082
 30
0.0
  0
VERTEX
  5
11277
  8
01
  6
BYBLOCK
 10
-2001.004640572433
 20
5931.185816587508
 30
0.0
  0
VERTEX
  5
11278
  8
01
  6
BYBLOCK
 10
-2001.200340407986
 20
5931.718568443279
 30
0.0
  0
VERTEX
  5
11279
  8
01
  6
BYBLOCK
 10
-2001.313457420225
 20
5932.247581041293
 30
0.0
  0
VERTEX
  5
1127A
  8
01
  6
BYBLOCK
 10
-2001.346962830868
 20
5932.773002965071
 30
0.0
  0
VERTEX
  5
1127B
  8
01
  6
BYBLOCK
 10
-2001.304308123995
 20
5933.294989884827
 30
0.0
  0
VERTEX
  5
1127C
  8
01
  6
BYBLOCK
 10
-2001.188944783687
 20
5933.813697470774
 30
0.0
  0
VERTEX
  5
1127D
  8
01
  6
BYBLOCK
 10
-2001.004324294023
 20
5934.329281393124
 30
0.0
  0
VERTEX
  5
1127E
  8
01
  6
BYBLOCK
 10
-2000.753898139083
 20
5934.841897322089
 30
0.0
  0
VERTEX
  5
1127F
  8
01
  6
BYBLOCK
 10
-2000.441117802947
 20
5935.351700927883
 30
0.0
  0
VERTEX
  5
11280
  8
01
  6
BYBLOCK
 10
-2000.069434769695
 20
5935.858847880718
 30
0.0
  0
VERTEX
  5
11281
  8
01
  6
BYBLOCK
 10
-1999.642300523407
 20
5936.363493850807
 30
0.0
  0
VERTEX
  5
11282
  8
01
  6
BYBLOCK
 10
-1999.163166548163
 20
5936.865794508362
 30
0.0
  0
VERTEX
  5
11283
  8
01
  6
BYBLOCK
 10
-1998.635484328043
 20
5937.365905523598
 30
0.0
  0
VERTEX
  5
11284
  8
01
  6
BYBLOCK
 10
-1998.062705347126
 20
5937.863982566726
 30
0.0
  0
VERTEX
  5
11285
  8
01
  6
BYBLOCK
 10
-1997.448281089493
 20
5938.360181307959
 30
0.0
  0
VERTEX
  5
11286
  8
01
  6
BYBLOCK
 10
-1996.795663039223
 20
5938.85465741751
 30
0.0
  0
VERTEX
  5
11287
  8
01
  6
BYBLOCK
 10
-1996.108302680397
 20
5939.347566565591
 30
0.0
  0
SEQEND
  5
1144B
  8
01
  6
BYBLOCK
  0
LINE
  5
105D4
  8
1PHANTOM
 10
-1522.311096925446
 20
5981.847591948376
 30
0.0
 11
-2067.962961233775
 21
5981.847591948376
 31
0.0
  0
LINE
  5
105D5
  8
1PHANTOM
 10
-1522.311096925446
 20
5993.847593778152
 30
0.0
 11
-2067.962961233775
 21
5993.847593778152
 31
0.0
  0
ARC
  5
105D6
  8
01
  6
BYBLOCK
 10
-2041.65705173409
 20
5835.50998369793
 30
0.0
 40
1.0
 50
90.0
 51
180.0
  0
LINE
  5
105D7
  8
01
 10
-2041.65705173409
 20
5836.50998369793
 30
0.0
 11
-1543.657051734086
 21
5836.509983697931
 31
0.0
  0
ARC
  5
105D8
  8
01
 10
-1543.657051734086
 20
5835.509983697931
 30
0.0
 40
1.0
 50
0.0
 51
90.0
  0
ARC
  5
105D9
  8
01
  6
BYBLOCK
 10
-2041.657051734088
 20
5815.509983697926
 30
0.0
 40
1.0
 50
179.9999999999479
 51
270.0
  0
LINE
  5
105DA
  8
01
 10
-2041.657051734088
 20
5814.509983697926
 30
0.0
 11
-1543.657051734087
 21
5814.509983697928
 31
0.0
  0
ARC
  5
105DB
  8
01
 10
-1543.657051734087
 20
5815.509983697928
 30
0.0
 40
1.0
 50
270.0
 51
0.0
  0
LINE
  5
105DC
  8
1PHANTOM
 10
-1432.98823696922
 20
5780.56765130931
 30
0.0
 11
-1432.98823696922
 21
5866.214243076477
 31
0.0
  0
LINE
  5
105DD
  8
1PHANTOM
 10
-1444.98823696922
 20
5780.56765130931
 30
0.0
 11
-1444.98823696922
 21
5866.214243076477
 31
0.0
  0
POLYLINE
  5
105DE
  8
01
  6
BYBLOCK
 66
     1
 10
0.0
 20
0.0
 30
0.0
  0
VERTEX
  5
11288
  8
01
  6
BYBLOCK
 10
-1463.164714530102
 20
5838.009983697931
 30
0.0
  0
VERTEX
  5
11289
  8
01
  6
BYBLOCK
 10
-1463.524393391938
 20
5837.402453145354
 30
0.0
  0
VERTEX
  5
1128A
  8
01
  6
BYBLOCK
 10
-1463.868857696337
 20
5836.79369916867
 30
0.0
  0
VERTEX
  5
1128B
  8
01
  6
BYBLOCK
 10
-1464.194790884272
 20
5836.183455078673
 30
0.0
  0
VERTEX
  5
1128C
  8
01
  6
BYBLOCK
 10
-1464.498876396713
 20
5835.571454186152
 30
0.0
  0
VERTEX
  5
1128D
  8
01
  6
BYBLOCK
 10
-1464.777797674631
 20
5834.957429801902
 30
0.0
  0
VERTEX
  5
1128E
  8
01
  6
BYBLOCK
 10
-1465.028238159
 20
5834.341115236714
 30
0.0
  0
VERTEX
  5
1128F
  8
01
  6
BYBLOCK
 10
-1465.246881290788
 20
5833.722243801381
 30
0.0
  0
VERTEX
  5
11290
  8
01
  6
BYBLOCK
 10
-1465.43041051097
 20
5833.100548806695
 30
0.0
  0
VERTEX
  5
11291
  8
01
  6
BYBLOCK
 10
-1465.575509260515
 20
5832.47576356345
 30
0.0
  0
VERTEX
  5
11292
  8
01
  6
BYBLOCK
 10
-1465.678860980395
 20
5831.847621382436
 30
0.0
  0
VERTEX
  5
11293
  8
01
  6
BYBLOCK
 10
-1465.737149111581
 20
5831.215855574445
 30
0.0
  0
VERTEX
  5
11294
  8
01
  6
BYBLOCK
 10
-1465.747057095046
 20
5830.580199450272
 30
0.0
  0
VERTEX
  5
11295
  8
01
  6
BYBLOCK
 10
-1465.706622603592
 20
5829.940512049707
 30
0.0
  0
VERTEX
  5
11296
  8
01
  6
BYBLOCK
 10
-1465.619746631794
 20
5829.297196772499
 30
0.0
  0
VERTEX
  5
11297
  8
01
  6
BYBLOCK
 10
-1465.491916648831
 20
5828.650804309179
 30
0.0
  0
VERTEX
  5
11298
  8
01
  6
BYBLOCK
 10
-1465.328620150832
 20
5828.001885352778
 30
0.0
  0
VERTEX
  5
11299
  8
01
  6
BYBLOCK
 10
-1465.135344633926
 20
5827.350990596329
 30
0.0
  0
VERTEX
  5
1129A
  8
01
  6
BYBLOCK
 10
-1464.917577594243
 20
5826.698670732865
 30
0.0
  0
VERTEX
  5
1129B
  8
01
  6
BYBLOCK
 10
-1464.680806527914
 20
5826.045476455419
 30
0.0
  0
VERTEX
  5
1129C
  8
01
  6
BYBLOCK
 10
-1464.430518931069
 20
5825.391958457021
 30
0.0
  0
VERTEX
  5
1129D
  8
01
  6
BYBLOCK
 10
-1464.172202299836
 20
5824.738667430704
 30
0.0
  0
VERTEX
  5
1129E
  8
01
  6
BYBLOCK
 10
-1463.911344130348
 20
5824.086154069503
 30
0.0
  0
VERTEX
  5
1129F
  8
01
  6
BYBLOCK
 10
-1463.653431918731
 20
5823.434969066447
 30
0.0
  0
VERTEX
  5
112A0
  8
01
  6
BYBLOCK
 10
-1463.403953161119
 20
5822.785663114571
 30
0.0
  0
VERTEX
  5
112A1
  8
01
  6
BYBLOCK
 10
-1463.168395353639
 20
5822.138786906904
 30
0.0
  0
VERTEX
  5
112A2
  8
01
  6
BYBLOCK
 10
-1462.952245992421
 20
5821.494891136483
 30
0.0
  0
VERTEX
  5
112A3
  8
01
  6
BYBLOCK
 10
-1462.760992573596
 20
5820.854526496336
 30
0.0
  0
VERTEX
  5
112A4
  8
01
  6
BYBLOCK
 10
-1462.600122593295
 20
5820.218243679498
 30
0.0
  0
VERTEX
  5
112A5
  8
01
  6
BYBLOCK
 10
-1462.475123547645
 20
5819.586593379002
 30
0.0
  0
VERTEX
  5
112A6
  8
01
  6
BYBLOCK
 10
-1462.391482932778
 20
5818.960126287877
 30
0.0
  0
VERTEX
  5
112A7
  8
01
  6
BYBLOCK
 10
-1462.354688244823
 20
5818.33939309916
 30
0.0
  0
VERTEX
  5
112A8
  8
01
  6
BYBLOCK
 10
-1462.370178064564
 20
5817.724939252018
 30
0.0
  0
VERTEX
  5
112A9
  8
01
  6
BYBLOCK
 10
-1462.44017208535
 20
5817.116964453888
 30
0.0
  0
VERTEX
  5
112AA
  8
01
  6
BYBLOCK
 10
-1462.561730209314
 20
5816.515114213398
 30
0.0
  0
VERTEX
  5
112AB
  8
01
  6
BYBLOCK
 10
-1462.731447940067
 20
5815.918984159423
 30
0.0
  0
VERTEX
  5
112AC
  8
01
  6
BYBLOCK
 10
-1462.945920781218
 20
5815.32816992084
 30
0.0
  0
VERTEX
  5
112AD
  8
01
  6
BYBLOCK
 10
-1463.201744236377
 20
5814.742267126524
 30
0.0
  0
VERTEX
  5
112AE
  8
01
  6
BYBLOCK
 10
-1463.495513809153
 20
5814.160871405349
 30
0.0
  0
VERTEX
  5
112AF
  8
01
  6
BYBLOCK
 10
-1463.823825003158
 20
5813.583578386193
 30
0.0
  0
VERTEX
  5
112B0
  8
01
  6
BYBLOCK
 10
-1464.183273321999
 20
5813.009983697932
 30
0.0
  0
SEQEND
  5
1144C
  8
01
  6
BYBLOCK
  0
CIRCLE
  5
105DF
  8
1HIDDEN
 10
-2017.657051734086
 20
5825.509983697928
 30
0.0
 40
4.999339115020121
  0
LINE
  5
105E0
  8
1CENTER
 10
-2027.655729964086
 20
5825.509983697928
 30
0.0
 11
-2007.658373504086
 21
5825.509983697928
 31
0.0
  0
LINE
  5
105E1
  8
1CENTER
 10
-2017.657051734086
 20
5815.511305467929
 30
0.0
 11
-2017.657051734086
 21
5835.508661927928
 31
0.0
  0
CIRCLE
  5
105E2
  8
1HIDDEN
 10
-1567.65705173409
 20
5825.509983697928
 30
0.0
 40
4.999339115020121
  0
LINE
  5
105E3
  8
1CENTER
 10
-1557.658373504089
 20
5825.509983697928
 30
0.0
 11
-1577.655729964089
 21
5825.509983697928
 31
0.0
  0
LINE
  5
105E4
  8
1CENTER
 10
-1567.657051734089
 20
5815.511305467929
 30
0.0
 11
-1567.657051734089
 21
5835.508661927928
 31
0.0
  0
LINE
  5
105E5
  8
1HIDDEN
 10
-1560.657402294675
 20
6001.14769408567
 30
0.0
 11
-1560.657402294675
 21
5999.947687105403
 31
0.0
  0
LINE
  5
105E6
  8
1HIDDEN
 10
-1571.082402294676
 20
5997.647687105399
 30
0.0
 11
-1571.082402294676
 21
5964.947687105402
 31
0.0
  0
LINE
  5
105E7
  8
1HIDDEN
 10
-1564.232402294674
 20
5997.6476871054
 30
0.0
 11
-1564.232402294674
 21
5964.947687105402
 31
0.0
  0
LINE
  5
105E8
  8
1HIDDEN
 10
-1571.657402294677
 20
5997.647687105399
 30
0.0
 11
-1571.657402294675
 21
5965.522687105402
 31
0.0
  0
LINE
  5
105E9
  8
1HIDDEN
 10
-1563.657402294675
 20
5997.6476871054
 30
0.0
 11
-1563.657402294675
 21
5965.522687105402
 31
0.0
  0
ARC
  5
105EA
  8
1HIDDEN
 10
-1564.657402294675
 20
6001.14769408567
 30
0.0
 40
4.0
 50
0.0
 51
90.00013331542084
  0
LINE
  5
105EB
  8
1HIDDEN
 10
-1570.657411601855
 20
6005.14768012489
 30
0.0
 11
-1564.657411601855
 21
6005.147694085659
 31
0.0
  0
ARC
  5
105EC
  8
1HIDDEN
 10
-1570.657402294675
 20
6001.147680124901
 30
0.0
 40
4.0
 50
90.00013331542084
 51
180.0
  0
LINE
  5
105ED
  8
1HIDDEN
 10
-1574.657402294675
 20
6001.147680124901
 30
0.0
 11
-1574.657402294675
 21
5999.947687105403
 31
0.0
  0
LINE
  5
105EE
  8
1HIDDEN
 10
-1574.057351947202
 20
5997.6476871054
 30
0.0
 11
-1574.057351947204
 21
5999.947687105403
 31
0.0
  0
LINE
  5
105EF
  8
1HIDDEN
 10
-1561.257351947203
 20
5999.947687105403
 30
0.0
 11
-1561.257351947203
 21
5997.6476871054
 31
0.0
  0
LINE
  5
105F0
  8
1HIDDEN
 10
-1574.057351947202
 20
5997.6476871054
 30
0.0
 11
-1561.257351947203
 21
5997.6476871054
 31
0.0
  0
LINE
  5
105F1
  8
1HIDDEN
 10
-1560.657402294675
 20
5999.947687105403
 30
0.0
 11
-1574.657402294675
 21
5999.947687105403
 31
0.0
  0
LINE
  5
105F2
  8
1HIDDEN
 10
-1564.232402294674
 20
5964.947687105402
 30
0.0
 11
-1571.082402294676
 21
5964.947687105402
 31
0.0
  0
LINE
  5
105F3
  8
1HIDDEN
 10
-1567.557797224297
 20
5999.947687105403
 30
0.0
 11
-1567.289848031867
 21
5997.6476871054
 31
0.0
  0
LINE
  5
105F4
  8
1HIDDEN
 10
-1568.008107874533
 20
5999.947687105403
 30
0.0
 11
-1567.740158682103
 21
5997.6476871054
 31
0.0
  0
LINE
  5
105F5
  8
1HIDDEN
 10
-1564.232402294674
 20
5964.947687105402
 30
0.0
 11
-1563.657402294675
 21
5965.522687105402
 31
0.0
  0
LINE
  5
105F6
  8
1HIDDEN
 10
-1571.082402294676
 20
5964.947687105402
 30
0.0
 11
-1571.657402294675
 21
5965.522687105402
 31
0.0
  0
LINE
  5
105F7
  8
1HIDDEN
 10
-1563.657402294675
 20
5965.522687105402
 30
0.0
 11
-1571.657402294675
 21
5965.522687105402
 31
0.0
  0
TEXT
  5
10612
  8
1TEXT
 10
-2049.879975104527
 20
6147.990925486422
 30
0.0
 40
15.9999999984
  1
SH-016-XX-3
 41
0.8
  0
LINE
  5
10613
  8
1DIM
 10
-2049.879975104527
 20
6123.990925488823
 30
0.0
 11
-1979.879975111528
 21
6123.990925488823
 31
0.0
  0
LINE
  5
10614
  8
1DIM
 10
-1979.879975111527
 20
6123.990925488823
 30
0.0
 11
-1839.879975125525
 21
6123.990925488823
 31
0.0
  0
TEXT
  5
10615
  8
1TEXT
 10
-2045.498493623483
 20
6126.990925488522
 30
0.0
 40
7.9999999992
  1
Finish:Leg
 72
     1
 11
-2014.879975108027
 21
6126.990925488522
 31
0.0
  0
LINE
  5
10616
  8
1DIM
 10
-2049.879975104527
 20
6137.990925487422
 30
0.0
 11
-1979.879975111527
 21
6137.990925487422
 31
0.0
  0
LINE
  5
10617
  8
1DIM
 10
-1979.879975111527
 20
6137.990925487422
 30
0.0
 11
-1839.879975125525
 21
6137.990925487422
 31
0.0
  0
TEXT
  5
10618
  8
1TEXT
 10
-1889.746641787206
 20
6126.990925488522
 30
0.0
 40
7.9999999992
  1
Code
 72
     1
 11
-1875.079975122006
 21
6126.990925488522
 31
0.0
  0
LINE
  5
10619
  8
1DIM
 10
-1979.879975111527
 20
6109.990925490221
 30
0.0
 11
-1839.879975125525
 21
6109.990925490223
 31
0.0
  0
LINE
  5
1061B
  8
1DIM
 10
-1979.879975111527
 20
6137.990925487422
 30
0.0
 11
-1979.879975111526
 21
6081.990925493019
 31
0.0
  0
LINE
  5
1061C
  8
1DIM
 10
-1839.879975125526
 20
6137.990925487422
 30
0.0
 11
-1839.879975125525
 21
6081.990925493022
 31
0.0
  0
LINE
  5
1061D
  8
1DIM
 10
-2049.879975104527
 20
6137.990925487422
 30
0.0
 11
-2049.879975104527
 21
6081.99092549302
 31
0.0
  0
LINE
  5
1061F
  8
1DIM
 10
-2049.87997510453
 20
6109.990925490221
 30
0.0
 11
-1979.879975111528
 21
6109.99092549022
 31
0.0
  0
TEXT
  5
10620
  8
1TEXT
 10
-1976.833678815535
 20
6126.990925488522
 30
0.0
 40
7.9999999992
  1
Finish:Grip
 72
     1
 11
-1944.879975115026
 21
6126.990925488522
 31
0.0
  0
LINE
  5
10621
  8
1DIM
 10
-1909.879975118526
 20
6137.990925487422
 30
0.0
 11
-1909.879975118526
 21
6081.990925493021
 31
0.0
  0
LINE
  5
10622
  8
1DIM
 10
-1979.879975111527
 20
6095.990925491621
 30
0.0
 11
-1839.879975125525
 21
6095.990925491623
 31
0.0
  0
LINE
  5
10625
  8
1DIM
 10
-2049.87997510453
 20
6095.990925491621
 30
0.0
 11
-1979.879975111528
 21
6095.99092549162
 31
0.0
  0
LINE
  5
10626
  8
1DIM
 10
-1979.879975111529
 20
6081.99092549302
 30
0.0
 11
-1839.879975125528
 21
6081.990925493022
 31
0.0
  0
TEXT
  5
10627
  8
1TEXT
 10
-2050.943678808124
 20
6113.035135449949
 30
0.0
 40
7.9999999992
  1
Blasted Black
 41
0.8
 72
     1
 11
-2014.879975108027
 21
6113.035135449949
 31
0.0
  0
TEXT
  5
10628
  8
1TEXT
 10
-1903.566086230267
 20
6112.562211522667
 30
0.0
 40
7.9999999992
  1
SH-016-XK-3
 41
0.7
 72
     1
 11
-1875.079975122004
 21
6112.562211522667
 31
0.0
  0
LINE
  5
10629
  8
1DIM
 10
-2049.879975104533
 20
6081.99092549302
 30
0.0
 11
-1979.879975111531
 21
6081.990925493019
 31
0.0
  0
TEXT
  5
1062C
  8
1TEXT
 10
-1980.943678815124
 20
6113.035135449949
 30
0.0
 40
7.9999999992
  1
Blasted Black
 41
0.8
 72
     1
 11
-1944.879975115026
 21
6113.035135449949
 31
0.0
  0
TEXT
  5
10C8A
  8
1TEXT
 10
-2048.779234363896
 20
6099.035135451349
 30
0.0
 40
7.9999999992
  1
Satin Bronze
 41
0.8
 72
     1
 11
-2014.879975108027
 21
6099.035135451349
 31
0.0
  0
TEXT
  5
10C8B
  8
1TEXT
 10
-1903.566086230267
 20
6098.562211524067
 30
0.0
 40
7.9999999992
  1
SH-016-3U-3
 41
0.7
 72
     1
 11
-1875.079975122004
 21
6098.562211524067
 31
0.0
  0
TEXT
  5
10C8C
  8
1TEXT
 10
-1978.779234370896
 20
6099.035135451349
 30
0.0
 40
7.9999999992
  1
Satin Bronze
 41
0.8
 72
     1
 11
-1944.879975115026
 21
6099.035135451349
 31
0.0
  0
LINE
  5
10FE8
  8
1HATCH
 10
-1419.038347485796
 20
5814.859983660506
 30
0.0
 11
-1419.388347485796
 21
5814.50998383458
 31
0.0
  0
LINE
  5
10FE9
  8
1HATCH
 10
-1415.388347485796
 20
5814.50998383458
 30
0.0
 11
-1415.738347485796
 21
5814.859983660506
 31
0.0
  0
LINE
  5
10FEA
  8
1HATCH
 10
-1420.388347485796
 20
5813.509983670507
 30
0.0
 11
-1414.388347485796
 21
5813.509983670507
 31
0.0
  0
LINE
  5
10FEB
  8
1HATCH
 10
-1419.388347485796
 20
5820.859983660506
 30
0.0
 11
-1415.388347485796
 21
5820.859983660506
 31
0.0
  0
LINE
  5
10FED
  8
1HATCH
 10
-1415.738347485796
 20
5821.209983660507
 30
0.0
 11
-1415.738347485796
 21
5814.859983660506
 31
0.0
  0
LINE
  5
10FEE
  8
1HATCH
 10
-1419.038347485796
 20
5821.209983660507
 30
0.0
 11
-1419.038347485796
 21
5814.859983660506
 31
0.0
  0
LINE
  5
10FEF
  8
1CENTER
 10
-1417.388347485796
 20
5822.811658660507
 30
0.0
 11
-1417.388347485796
 21
5811.651214760506
 31
0.0
  0
LINE
  5
10FF0
  8
01
 10
-1419.388347485796
 20
5820.859983660506
 30
0.0
 11
-1419.388347485796
 21
5814.50998383458
 31
0.0
  0
LINE
  5
10FF1
  8
01
 10
-1419.388347485796
 20
5814.50998383458
 30
0.0
 11
-1420.388347485796
 21
5813.509983760507
 31
0.0
  0
LINE
  5
10FF2
  8
01
 10
-1420.388347485796
 20
5813.509983760507
 30
0.0
 11
-1420.388347485796
 21
5813.209983660507
 31
0.0
  0
LINE
  5
10FF3
  8
01
 10
-1420.388347485796
 20
5813.209983660507
 30
0.0
 11
-1414.388347485796
 21
5813.209983660507
 31
0.0
  0
LINE
  5
10FF4
  8
01
 10
-1414.388347485796
 20
5813.209983660507
 30
0.0
 11
-1414.388347485796
 21
5813.509983670507
 31
0.0
  0
LINE
  5
10FF5
  8
01
 10
-1414.388347485796
 20
5813.509983670507
 30
0.0
 11
-1415.388347485796
 21
5814.50998383458
 31
0.0
  0
LINE
  5
10FF6
  8
01
 10
-1415.388347485796
 20
5814.50998383458
 30
0.0
 11
-1415.388347485796
 21
5820.859983660506
 31
0.0
  0
LINE
  5
10FF7
  8
01
 10
-1415.388347485796
 20
5820.859983660506
 30
0.0
 11
-1415.738347485796
 21
5821.209983660507
 31
0.0
  0
LINE
  5
10FF8
  8
01
 10
-1415.738347485796
 20
5821.209983660507
 30
0.0
 11
-1419.038347485796
 21
5821.209983660507
 31
0.0
  0
LINE
  5
10FF9
  8
01
 10
-1419.038347485796
 20
5821.209983660507
 30
0.0
 11
-1419.388347485796
 21
5820.859983660506
 31
0.0
  0
LINE
  5
10FFA
  8
1HATCH
  6
CONTINUOUS
 10
-1406.316968368998
 20
5782.509983697933
 30
0.0
 11
-1408.688236969218
 21
5784.881252298152
 31
0.0
1001
ACAD
1010
0.0
1020
0.0
1030
0.0
  0
LINE
  5
10FFB
  8
1HATCH
  6
CONTINUOUS
 10
-1404.071904338731
 20
5782.509983697933
 30
0.0
 11
-1408.688236969218
 21
5787.126316328419
 31
0.0
1001
ACAD
1010
0.0
1020
0.0
1030
0.0
  0
LINE
  5
10FFC
  8
1HATCH
  6
CONTINUOUS
 10
-1401.826840308464
 20
5782.509983697933
 30
0.0
 11
-1408.688236969218
 21
5789.371380358686
 31
0.0
1001
ACAD
1010
0.0
1020
0.0
1030
0.0
  0
LINE
  5
10FFD
  8
1HATCH
  6
CONTINUOUS
 10
-1432.326840308461
 20
5813.00998369793
 30
0.0
 11
-1432.68823696922
 21
5813.371380358688
 31
0.0
1001
ACAD
1010
0.0
1020
0.0
1030
0.0
  0
LINE
  5
10FFE
  8
1HATCH
  6
CONTINUOUS
 10
-1399.581776278197
 20
5782.509983697933
 30
0.0
 11
-1408.688236969218
 21
5791.616444388954
 31
0.0
1001
ACAD
1010
0.0
1020
0.0
1030
0.0
  0
LINE
  5
10FFF
  8
1HATCH
  6
CONTINUOUS
 10
-1430.081776278194
 20
5813.00998369793
 30
0.0
 11
-1431.081138282022
 21
5814.009345701758
 31
0.0
1001
ACAD
1010
0.0
1020
0.0
1030
0.0
  0
LINE
  5
11000
  8
1HATCH
  6
CONTINUOUS
 10
-1397.33671224793
 20
5782.509983697933
 30
0.0
 11
-1408.688236969218
 21
5793.861508419222
 31
0.0
1001
ACAD
1010
0.0
1020
0.0
1030
0.0
  0
LINE
  5
11001
  8
1HATCH
  6
CONTINUOUS
 10
-1395.091648217663
 20
5782.509983697933
 30
0.0
 11
-1408.688236969218
 21
5796.106572449489
 31
0.0
1001
ACAD
1010
0.0
1020
0.0
1030
0.0
  0
LINE
  5
11002
  8
1HATCH
  6
CONTINUOUS
 10
-1427.836712247927
 20
5813.009983697931
 30
0.0
 11
-1429.73788229452
 21
5814.911153744523
 31
0.0
1001
ACAD
1010
0.0
1020
0.0
1030
0.0
  0
LINE
  5
11003
  8
1HATCH
  6
CONTINUOUS
 10
-1425.59164821766
 20
5813.009983697931
 30
0.0
 11
-1427.492790323703
 21
5814.911125803973
 31
0.0
1001
ACAD
1010
0.0
1020
0.0
1030
0.0
  0
LINE
  5
11004
  8
1HATCH
  6
CONTINUOUS
 10
-1393.401385174522
 20
5783.06478468506
 30
0.0
 11
-1408.688236969219
 21
5798.351636479756
 31
0.0
1001
ACAD
1010
0.0
1020
0.0
1030
0.0
  0
LINE
  5
11005
  8
1HATCH
  6
CONTINUOUS
 10
-1423.346584187394
 20
5813.009983697932
 30
0.0
 11
-1425.247698352885
 21
5814.911097863423
 31
0.0
1001
ACAD
1010
0.0
1020
0.0
1030
0.0
  0
LINE
  5
11006
  8
1HATCH
  6
CONTINUOUS
 10
-1392.688236969218
 20
5784.596700510023
 30
0.0
 11
-1408.688236969219
 21
5800.596700510024
 31
0.0
1001
ACAD
1010
0.0
1020
0.0
1030
0.0
  0
LINE
  5
11007
  8
1HATCH
  6
CONTINUOUS
 10
-1421.101520157127
 20
5813.009983697932
 30
0.0
 11
-1423.002606382068
 21
5814.911069922873
 31
0.0
1001
ACAD
1010
0.0
1020
0.0
1030
0.0
  0
LINE
  5
11008
  8
1HATCH
  6
CONTINUOUS
 10
-1392.688236969218
 20
5786.841764540291
 30
0.0
 11
-1408.688236969219
 21
5802.841764540291
 31
0.0
1001
ACAD
1010
0.0
1020
0.0
1030
0.0
  0
LINE
  5
11009
  8
1HATCH
  6
CONTINUOUS
 10
-1419.872401856724
 20
5814.025929427797
 30
0.0
 11
-1420.757514411251
 21
5814.911041982323
 31
0.0
1001
ACAD
1010
0.0
1020
0.0
1030
0.0
  0
LINE
  5
1100A
  8
1HATCH
  6
CONTINUOUS
 10
-1392.688236969218
 20
5789.086828570557
 30
0.0
 11
-1408.688236969219
 21
5805.086828570559
 31
0.0
1001
ACAD
1010
0.0
1020
0.0
1030
0.0
  0
LINE
  5
1100B
  8
1HATCH
  6
CONTINUOUS
 10
-1416.611392096592
 20
5813.009983697932
 30
0.0
 11
-1416.811392059167
 21
5813.209983660507
 31
0.0
1001
ACAD
1010
0.0
1020
0.0
1030
0.0
  0
LINE
  5
1100C
  8
1HATCH
  6
CONTINUOUS
 10
-1392.688236969218
 20
5791.331892600825
 30
0.0
 11
-1408.806063805383
 21
5807.449719436991
 31
0.0
1001
ACAD
1010
0.0
1020
0.0
1030
0.0
  0
LINE
  5
1100D
  8
1HATCH
  6
CONTINUOUS
 10
-1414.248501230162
 20
5812.892156861769
 30
0.0
 11
-1414.5663280289
 21
5813.209983660507
 31
0.0
1001
ACAD
1010
0.0
1020
0.0
1030
0.0
  0
LINE
  5
1100E
  8
1HATCH
  6
CONTINUOUS
 10
-1392.688236969218
 20
5793.576956631093
 30
0.0
 11
-1414.022238498799
 21
5814.910958160673
 31
0.0
1001
ACAD
1010
0.0
1020
0.0
1030
0.0
  0
LINE
  5
1100F
  8
1HATCH
  6
CONTINUOUS
 10
-1392.688236969218
 20
5795.82202066136
 30
0.0
 11
-1411.777146527981
 21
5814.910930220122
 31
0.0
1001
ACAD
1010
0.0
1020
0.0
1030
0.0
  0
LINE
  5
11010
  8
1HATCH
  6
CONTINUOUS
 10
-1392.688236969219
 20
5798.067084691627
 30
0.0
 11
-1409.532054557164
 21
5814.910902279573
 31
0.0
1001
ACAD
1010
0.0
1020
0.0
1030
0.0
  0
LINE
  5
11011
  8
1HATCH
  6
CONTINUOUS
 10
-1431.630504818092
 20
5837.009352540501
 30
0.0
 11
-1432.631135975521
 21
5838.00998369793
 31
0.0
1001
ACAD
1010
0.0
1020
0.0
1030
0.0
  0
LINE
  5
11012
  8
1HATCH
  6
CONTINUOUS
 10
-1392.688236969219
 20
5800.312148721895
 30
0.0
 11
-1407.637665733163
 21
5815.261577485839
 31
0.0
1001
ACAD
1010
0.0
1020
0.0
1030
0.0
  0
LINE
  5
11013
  8
1HATCH
  6
CONTINUOUS
 10
-1392.688236969219
 20
5802.557212752162
 30
0.0
 11
-1406.515119747928
 21
5816.384095530871
 31
0.0
1001
ACAD
1010
0.0
1020
0.0
1030
0.0
  0
LINE
  5
11014
  8
1HATCH
  6
CONTINUOUS
 10
-1392.688236969219
 20
5804.80227678243
 30
0.0
 11
-1405.392573762693
 21
5817.506613575903
 31
0.0
1001
ACAD
1010
0.0
1020
0.0
1030
0.0
  0
LINE
  5
11015
  8
1HATCH
  6
CONTINUOUS
 10
-1392.688236969219
 20
5807.047340812697
 30
0.0
 11
-1404.270027777459
 21
5818.629131620936
 31
0.0
1001
ACAD
1010
0.0
1020
0.0
1030
0.0
  0
LINE
  5
11016
  8
1HATCH
  6
CONTINUOUS
 10
-1392.688236969219
 20
5809.292404842964
 30
0.0
 11
-1403.147481792224
 21
5819.751649665969
 31
0.0
1001
ACAD
1010
0.0
1020
0.0
1030
0.0
  0
LINE
  5
11017
  8
1HATCH
  6
CONTINUOUS
 10
-1392.688236969219
 20
5811.537468873232
 30
0.0
 11
-1402.024935806989
 21
5820.874167711002
 31
0.0
1001
ACAD
1010
0.0
1020
0.0
1030
0.0
  0
LINE
  5
11018
  8
1HATCH
  6
CONTINUOUS
 10
-1392.688236969219
 20
5813.782532903499
 30
0.0
 11
-1400.902389821754
 21
5821.996685756034
 31
0.0
1001
ACAD
1010
0.0
1020
0.0
1030
0.0
  0
LINE
  5
11019
  8
1HATCH
  6
CONTINUOUS
 10
-1392.68823696922
 20
5816.027596933766
 30
0.0
 11
-1399.77984383652
 21
5823.119203801067
 31
0.0
1001
ACAD
1010
0.0
1020
0.0
1030
0.0
  0
LINE
  5
1101A
  8
1HATCH
  6
CONTINUOUS
 10
-1392.68823696922
 20
5818.272660964034
 30
0.0
 11
-1398.657297851285
 21
5824.2417218461
 31
0.0
1001
ACAD
1010
0.0
1020
0.0
1030
0.0
  0
LINE
  5
1101B
  8
1HATCH
  6
CONTINUOUS
 10
-1392.68823696922
 20
5820.517724994302
 30
0.0
 11
-1397.53475186605
 21
5825.364239891132
 31
0.0
1001
ACAD
1010
0.0
1020
0.0
1030
0.0
  0
LINE
  5
1101C
  8
1HATCH
  6
CONTINUOUS
 10
-1428.485511462937
 20
5836.109423215613
 30
0.0
 11
-1430.386071945254
 21
5838.00998369793
 31
0.0
1001
ACAD
1010
0.0
1020
0.0
1030
0.0
  0
LINE
  5
1101D
  8
1HATCH
  6
CONTINUOUS
 10
-1426.240407047102
 20
5836.109382830045
 30
0.0
 11
-1428.141007914987
 21
5838.00998369793
 31
0.0
1001
ACAD
1010
0.0
1020
0.0
1030
0.0
  0
LINE
  5
1101E
  8
1HATCH
  6
CONTINUOUS
 10
-1423.995302631267
 20
5836.109342444477
 30
0.0
 11
-1425.89594388472
 21
5838.009983697931
 31
0.0
1001
ACAD
1010
0.0
1020
0.0
1030
0.0
  0
LINE
  5
1101F
  8
1HATCH
  6
CONTINUOUS
 10
-1421.750198215432
 20
5836.10930205891
 30
0.0
 11
-1423.650879854453
 21
5838.009983697931
 31
0.0
1001
ACAD
1010
0.0
1020
0.0
1030
0.0
  0
LINE
  5
11020
  8
1HATCH
  6
CONTINUOUS
 10
-1419.505093799597
 20
5836.109261673341
 30
0.0
 11
-1421.405815824186
 21
5838.009983697931
 31
0.0
1001
ACAD
1010
0.0
1020
0.0
1030
0.0
  0
LINE
  5
11021
  8
1HATCH
  6
CONTINUOUS
 10
-1417.259989383761
 20
5836.109221287774
 30
0.0
 11
-1419.160751793919
 21
5838.009983697931
 31
0.0
1001
ACAD
1010
0.0
1020
0.0
1030
0.0
  0
LINE
  5
11022
  8
1HATCH
  6
CONTINUOUS
 10
-1415.014884967926
 20
5836.109180902206
 30
0.0
 11
-1416.915687763651
 21
5838.009983697932
 31
0.0
1001
ACAD
1010
0.0
1020
0.0
1030
0.0
  0
LINE
  5
11023
  8
1HATCH
  6
CONTINUOUS
 10
-1412.769780552091
 20
5836.109140516638
 30
0.0
 11
-1414.670623733384
 21
5838.009983697932
 31
0.0
1001
ACAD
1010
0.0
1020
0.0
1030
0.0
  0
LINE
  5
11024
  8
1HATCH
  6
CONTINUOUS
 10
-1410.524676136256
 20
5836.109100131071
 30
0.0
 11
-1412.425559703117
 21
5838.009983697932
 31
0.0
1001
ACAD
1010
0.0
1020
0.0
1030
0.0
  0
LINE
  5
11025
  8
1HATCH
  6
CONTINUOUS
 10
-1408.279571720421
 20
5836.109059745503
 30
0.0
 11
-1410.18049567285
 21
5838.009983697932
 31
0.0
1001
ACAD
1010
0.0
1020
0.0
1030
0.0
  0
LINE
  5
11026
  8
1HATCH
  6
CONTINUOUS
 10
-1392.68823696922
 20
5822.762789024569
 30
0.0
 11
-1395.436186403296
 21
5825.510738458644
 31
0.0
1001
ACAD
1010
0.0
1020
0.0
1030
0.0
  0
LINE
  5
11027
  8
1HATCH
  6
CONTINUOUS
 10
-1392.68823696922
 20
5825.007853054836
 30
0.0
 11
-1393.191122373028
 21
5825.510738458644
 31
0.0
1001
ACAD
1010
0.0
1020
0.0
1030
0.0
  0
LINE
  5
11028
  8
1HATCH
  6
CONTINUOUS
 10
-1395.436186403296
 20
5825.510738458644
 30
0.0
 11
-1407.935431642583
 21
5838.009983697933
 31
0.0
1001
ACAD
1010
0.0
1020
0.0
1030
0.0
  0
LINE
  5
11029
  8
1HATCH
  6
CONTINUOUS
 10
-1393.191122373028
 20
5825.510738458644
 30
0.0
 11
-1405.690367612316
 21
5838.009983697933
 31
0.0
1001
ACAD
1010
0.0
1020
0.0
1030
0.0
  0
LINE
  5
1102A
  8
1HATCH
  6
CONTINUOUS
 10
-1392.68823696922
 20
5827.252917085104
 30
0.0
 11
-1403.445303582049
 21
5838.009983697933
 31
0.0
1001
ACAD
1010
0.0
1020
0.0
1030
0.0
  0
LINE
  5
1102B
  8
1HATCH
  6
CONTINUOUS
 10
-1392.68823696922
 20
5829.497981115371
 30
0.0
 11
-1401.200239551782
 21
5838.009983697933
 31
0.0
1001
ACAD
1010
0.0
1020
0.0
1030
0.0
  0
LINE
  5
1102C
  8
1HATCH
  6
CONTINUOUS
 10
-1392.68823696922
 20
5831.743045145638
 30
0.0
 11
-1398.955175521515
 21
5838.009983697933
 31
0.0
1001
ACAD
1010
0.0
1020
0.0
1030
0.0
  0
LINE
  5
1102D
  8
1HATCH
  6
CONTINUOUS
 10
-1392.688236969221
 20
5833.988109175906
 30
0.0
 11
-1396.710111491248
 21
5838.009983697933
 31
0.0
1001
ACAD
1010
0.0
1020
0.0
1030
0.0
  0
LINE
  5
1102E
  8
1HATCH
  6
CONTINUOUS
 10
-1392.769929999095
 20
5836.314866236047
 30
0.0
 11
-1394.383354431107
 21
5837.928290668059
 31
0.0
1001
ACAD
1010
0.0
1020
0.0
1030
0.0
  0
LINE
  5
1102F
  8
1HATCH
  6
CONTINUOUS
 10
-1463.351979799648
 20
5813.009983697932
 30
0.0
 11
-1463.895906570722
 21
5813.553910469006
 31
0.0
1001
ACAD
1010
0.0
1020
0.0
1030
0.0
  0
LINE
  5
11030
  8
1HATCH
  6
CONTINUOUS
 10
-1461.106915769381
 20
5813.009983697932
 30
0.0
 11
-1463.11981877569
 21
5815.022886704241
 31
0.0
1001
ACAD
1010
0.0
1020
0.0
1030
0.0
  0
LINE
  5
11031
  8
1HATCH
  6
CONTINUOUS
 10
-1458.861851739113
 20
5813.009983697932
 30
0.0
 11
-1462.614081587013
 21
5816.762213545831
 31
0.0
1001
ACAD
1010
0.0
1020
0.0
1030
0.0
  0
LINE
  5
11032
  8
1HATCH
  6
CONTINUOUS
 10
-1456.616787708846
 20
5813.009983697932
 30
0.0
 11
-1462.405798994024
 21
5818.798994983109
 31
0.0
1001
ACAD
1010
0.0
1020
0.0
1030
0.0
  0
LINE
  5
11033
  8
1HATCH
  6
CONTINUOUS
 10
-1454.371723678579
 20
5813.009983697931
 30
0.0
 11
-1460.672478439294
 21
5819.310738458646
 31
0.0
1001
ACAD
1010
0.0
1020
0.0
1030
0.0
  0
LINE
  5
11034
  8
1HATCH
  6
CONTINUOUS
 10
-1452.126659648311
 20
5813.009983697931
 30
0.0
 11
-1458.427414409027
 21
5819.310738458646
 31
0.0
1001
ACAD
1010
0.0
1020
0.0
1030
0.0
  0
LINE
  5
11035
  8
1HATCH
  6
CONTINUOUS
 10
-1449.881595618044
 20
5813.009983697931
 30
0.0
 11
-1456.18235037876
 21
5819.310738458646
 31
0.0
1001
ACAD
1010
0.0
1020
0.0
1030
0.0
  0
LINE
  5
11036
  8
1HATCH
  6
CONTINUOUS
 10
-1447.636531587776
 20
5813.009983697931
 30
0.0
 11
-1453.937286348493
 21
5819.310738458647
 31
0.0
1001
ACAD
1010
0.0
1020
0.0
1030
0.0
  0
LINE
  5
11037
  8
1HATCH
  6
CONTINUOUS
 10
-1445.391467557509
 20
5813.009983697931
 30
0.0
 11
-1451.692222318226
 21
5819.310738458647
 31
0.0
1001
ACAD
1010
0.0
1020
0.0
1030
0.0
  0
LINE
  5
11038
  8
1HATCH
  6
CONTINUOUS
 10
-1464.092222318224
 20
5831.710738458646
 30
0.0
 11
-1465.345165387486
 21
5832.963681527908
 31
0.0
1001
ACAD
1010
0.0
1020
0.0
1030
0.0
  0
LINE
  5
11039
  8
1HATCH
  6
CONTINUOUS
 10
-1445.988238798994
 20
5815.851818969682
 30
0.0
 11
-1448.447158287958
 21
5818.310738458646
 31
0.0
1001
ACAD
1010
0.0
1020
0.0
1030
0.0
  0
LINE
  5
1103A
  8
1HATCH
  6
CONTINUOUS
 10
-1448.98820570389
 20
5818.851785874579
 30
0.0
 11
-1449.447158287958
 21
5819.310738458647
 31
0.0
1001
ACAD
1010
0.0
1020
0.0
1030
0.0
  0
LINE
  5
1103B
  8
1HATCH
  6
CONTINUOUS
 10
-1461.847158287957
 20
5831.710738458646
 30
0.0
 11
-1464.854632130927
 21
5834.718212301616
 31
0.0
1001
ACAD
1010
0.0
1020
0.0
1030
0.0
  0
LINE
  5
1103C
  8
1HATCH
  6
CONTINUOUS
 10
-1445.988238798994
 20
5818.09688299995
 30
0.0
 11
-1446.202094257691
 21
5818.310738458647
 31
0.0
1001
ACAD
1010
0.0
1020
0.0
1030
0.0
  0
LINE
  5
1103D
  8
1HATCH
  6
CONTINUOUS
 10
-1459.60209425769
 20
5831.710738458646
 30
0.0
 11
-1464.108358015216
 21
5836.217002216172
 31
0.0
1001
ACAD
1010
0.0
1020
0.0
1030
0.0
  0
LINE
  5
1103E
  8
1HATCH
  6
CONTINUOUS
 10
-1457.357030227422
 20
5831.710738458646
 30
0.0
 11
-1463.334214655614
 21
5837.687922886837
 31
0.0
1001
ACAD
1010
0.0
1020
0.0
1030
0.0
  0
LINE
  5
1103F
  8
1HATCH
  6
CONTINUOUS
 10
-1455.111966197155
 20
5831.710738458646
 30
0.0
 11
-1461.41121143644
 21
5838.009983697931
 31
0.0
1001
ACAD
1010
0.0
1020
0.0
1030
0.0
  0
LINE
  5
11040
  8
1HATCH
  6
CONTINUOUS
 10
-1452.866902166888
 20
5831.710738458646
 30
0.0
 11
-1459.166147406173
 21
5838.009983697931
 31
0.0
1001
ACAD
1010
0.0
1020
0.0
1030
0.0
  0
LINE
  5
11041
  8
1HATCH
  6
CONTINUOUS
 10
-1450.621838136621
 20
5831.710738458646
 30
0.0
 11
-1456.921083375905
 21
5838.009983697931
 31
0.0
1001
ACAD
1010
0.0
1020
0.0
1030
0.0
  0
LINE
  5
11042
  8
1HATCH
  6
CONTINUOUS
 10
-1448.988203797562
 20
5832.322168149854
 30
0.0
 11
-1454.676019345638
 21
5838.009983697931
 31
0.0
1001
ACAD
1010
0.0
1020
0.0
1030
0.0
  0
LINE
  5
11043
  8
1HATCH
  6
CONTINUOUS
 10
-1447.131710076086
 20
5832.710738458646
 30
0.0
 11
-1452.430955315371
 21
5838.009983697932
 31
0.0
1001
ACAD
1010
0.0
1020
0.0
1030
0.0
  0
LINE
  5
11044
  8
1HATCH
  6
CONTINUOUS
 10
-1445.988391892081
 20
5833.812484304908
 30
0.0
 11
-1450.185891285104
 21
5838.009983697932
 31
0.0
1001
ACAD
1010
0.0
1020
0.0
1030
0.0
  0
LINE
  5
11045
  8
1HATCH
  6
CONTINUOUS
 10
-1445.98841983263
 20
5836.057576275724
 30
0.0
 11
-1447.940827254837
 21
5838.009983697932
 31
0.0
1001
ACAD
1010
0.0
1020
0.0
1030
0.0
  0
LINE
  5
11046
  8
1HATCH
  6
CONTINUOUS
 10
-1445.288238646986
 20
5837.602459120349
 30
0.0
 11
-1445.69576322457
 21
5838.009983697932
 31
0.0
1001
ACAD
1010
0.0
1020
0.0
1030
0.0
  0
LINE
  5
11047
  8
1HATCH
  6
CONTINUOUS
 10
-2011.571656883254
 20
5980.347667692213
 30
0.0
 11
-2010.656701173501
 21
5979.43271198246
 31
0.0
1001
ACAD
1010
0.0
1020
0.0
1030
0.0
  0
LINE
  5
11048
  8
1HATCH
  6
CONTINUOUS
 10
-2013.461701127084
 20
5979.992647905775
 30
0.0
 11
-2011.656701173501
 21
5978.187647952192
 31
0.0
1001
ACAD
1010
0.0
1020
0.0
1030
0.0
  0
LINE
  5
11049
  8
1HATCH
  6
CONTINUOUS
 10
-2013.6567011735
 20
5977.942583921924
 30
0.0
 11
-2011.6567011735
 21
5975.942583921925
 31
0.0
1001
ACAD
1010
0.0
1020
0.0
1030
0.0
  0
LINE
  5
1104A
  8
1HATCH
  6
CONTINUOUS
 10
-2013.6567011735
 20
5975.697519891657
 30
0.0
 11
-2011.6567011735
 21
5973.697519891657
 31
0.0
1001
ACAD
1010
0.0
1020
0.0
1030
0.0
  0
LINE
  5
1104B
  8
1HATCH
  6
CONTINUOUS
 10
-2013.656701173499
 20
5973.452455861389
 30
0.0
 11
-2011.6567011735
 21
5971.45245586139
 31
0.0
1001
ACAD
1010
0.0
1020
0.0
1030
0.0
  0
LINE
  5
1104C
  8
1HATCH
  6
CONTINUOUS
 10
-2022.796965267916
 20
5980.347655925538
 30
0.0
 11
-2021.656701173502
 21
5979.207391831124
 31
0.0
1001
ACAD
1010
0.0
1020
0.0
1030
0.0
  0
LINE
  5
1104D
  8
1HATCH
  6
CONTINUOUS
 10
-2013.656701173499
 20
5971.207391831122
 30
0.0
 11
-2011.6567011735
 21
5969.207391831123
 31
0.0
1001
ACAD
1010
0.0
1020
0.0
1030
0.0
  0
LINE
  5
1104E
  8
1HATCH
  6
CONTINUOUS
 10
-2024.656701173499
 20
5979.962327800855
 30
0.0
 11
-2021.656701173502
 21
5976.962327800858
 31
0.0
1001
ACAD
1010
0.0
1020
0.0
1030
0.0
  0
LINE
  5
1104F
  8
1HATCH
  6
CONTINUOUS
 10
-2013.656701173499
 20
5968.962327800854
 30
0.0
 11
-2011.6567011735
 21
5966.962327800855
 31
0.0
1001
ACAD
1010
0.0
1020
0.0
1030
0.0
  0
LINE
  5
11050
  8
1HATCH
  6
CONTINUOUS
 10
-2023.656701173501
 20
5976.717263770588
 30
0.0
 11
-2021.656701173503
 21
5974.71726377059
 31
0.0
1001
ACAD
1010
0.0
1020
0.0
1030
0.0
  0
LINE
  5
11051
  8
1HATCH
  6
CONTINUOUS
 10
-2023.656701173501
 20
5974.472199740321
 30
0.0
 11
-2021.656701173503
 21
5972.472199740323
 31
0.0
1001
ACAD
1010
0.0
1020
0.0
1030
0.0
  0
LINE
  5
11052
  8
1HATCH
  6
CONTINUOUS
 10
-2023.656701173501
 20
5972.227135710054
 30
0.0
 11
-2021.656701173503
 21
5970.227135710056
 31
0.0
1001
ACAD
1010
0.0
1020
0.0
1030
0.0
  0
LINE
  5
11053
  8
1HATCH
  6
CONTINUOUS
 10
-2023.656701173501
 20
5969.982071679787
 30
0.0
 11
-2021.656701173503
 21
5967.982071679789
 31
0.0
1001
ACAD
1010
0.0
1020
0.0
1030
0.0
  0
LINE
  5
11054
  8
1HATCH
  6
CONTINUOUS
 10
-2013.656701173499
 20
5966.717263770587
 30
0.0
 11
-2011.6567011735
 21
5964.717263770588
 31
0.0
1001
ACAD
1010
0.0
1020
0.0
1030
0.0
  0
LINE
  5
11055
  8
1HATCH
  6
CONTINUOUS
 10
-2013.656701173499
 20
5964.472199740319
 30
0.0
 11
-2011.6567011735
 21
5962.47219974032
 31
0.0
1001
ACAD
1010
0.0
1020
0.0
1030
0.0
  0
LINE
  5
11056
  8
1HATCH
  6
CONTINUOUS
 10
-2013.656701173499
 20
5962.227135710052
 30
0.0
 11
-2011.6567011735
 21
5960.227135710053
 31
0.0
1001
ACAD
1010
0.0
1020
0.0
1030
0.0
  0
LINE
  5
11057
  8
1HATCH
  6
CONTINUOUS
 10
-2013.656701173498
 20
5959.982071679784
 30
0.0
 11
-2011.656701173499
 21
5957.982071679786
 31
0.0
1001
ACAD
1010
0.0
1020
0.0
1030
0.0
  0
LINE
  5
11058
  8
1HATCH
  6
CONTINUOUS
 10
-2023.656701173501
 20
5967.737007649519
 30
0.0
 11
-2021.656701173503
 21
5965.737007649522
 31
0.0
1001
ACAD
1010
0.0
1020
0.0
1030
0.0
  0
LINE
  5
11059
  8
1HATCH
  6
CONTINUOUS
 10
-2014.231701173499
 20
5958.312007649518
 30
0.0
 11
-2011.656701173499
 21
5955.737007649518
 31
0.0
1001
ACAD
1010
0.0
1020
0.0
1030
0.0
  0
LINE
  5
1105A
  8
1HATCH
  6
CONTINUOUS
 10
-2023.656701173501
 20
5965.491943619252
 30
0.0
 11
-2021.656701173503
 21
5963.491943619254
 31
0.0
1001
ACAD
1010
0.0
1020
0.0
1030
0.0
  0
LINE
  5
1105B
  8
1HATCH
  6
CONTINUOUS
 10
-2014.372070046498
 20
5956.207312492249
 30
0.0
 11
-2011.656701173499
 21
5953.49194361925
 31
0.0
1001
ACAD
1010
0.0
1020
0.0
1030
0.0
  0
LINE
  5
1105C
  8
1HATCH
  6
CONTINUOUS
 10
-2023.656701173501
 20
5963.246879588984
 30
0.0
 11
-2021.656701173503
 21
5961.246879588987
 31
0.0
1001
ACAD
1010
0.0
1020
0.0
1030
0.0
  0
LINE
  5
1105D
  8
1HATCH
  6
CONTINUOUS
 10
-2015.494611203284
 20
5955.084789618769
 30
0.0
 11
-2011.75738815011
 21
5951.347566565594
 31
0.0
1001
ACAD
1010
0.0
1020
0.0
1030
0.0
  0
LINE
  5
1105E
  8
1HATCH
  6
CONTINUOUS
 10
-2023.656701173501
 20
5961.001815558718
 30
0.0
 11
-2021.081701173501
 21
5958.426815558718
 31
0.0
1001
ACAD
1010
0.0
1020
0.0
1030
0.0
  0
LINE
  5
1105F
  8
1HATCH
  6
CONTINUOUS
 10
-2016.617152360071
 20
5953.962266745288
 30
0.0
 11
-2014.002452180378
 21
5951.347566565594
 31
0.0
1001
ACAD
1010
0.0
1020
0.0
1030
0.0
  0
LINE
  5
11060
  8
1HATCH
  6
CONTINUOUS
 10
-2023.656701173501
 20
5958.75675152845
 30
0.0
 11
-2017.657051734087
 21
5952.757102089036
 31
0.0
1001
ACAD
1010
0.0
1020
0.0
1030
0.0
  0
LINE
  5
11061
  8
1HATCH
  6
CONTINUOUS
 10
-2017.657051734087
 20
5952.757102089036
 30
0.0
 11
-2016.247516210645
 21
5951.347566565594
 31
0.0
1001
ACAD
1010
0.0
1020
0.0
1030
0.0
  0
LINE
  5
11062
  8
1HATCH
  6
CONTINUOUS
 10
-2023.656701173501
 20
5956.511687498183
 30
0.0
 11
-2018.492580240912
 21
5951.347566565594
 31
0.0
1001
ACAD
1010
0.0
1020
0.0
1030
0.0
  0
LINE
  5
11063
  8
1HATCH
  6
CONTINUOUS
 10
-2023.656701173501
 20
5954.266623467915
 30
0.0
 11
-2020.737644271179
 21
5951.347566565594
 31
0.0
1001
ACAD
1010
0.0
1020
0.0
1030
0.0
  0
LINE
  5
11064
  8
1HATCH
  6
CONTINUOUS
 10
-2023.656701173501
 20
5952.021559437648
 30
0.0
 11
-2022.982708301447
 21
5951.347566565594
 31
0.0
1001
ACAD
1010
0.0
1020
0.0
1030
0.0
  0
LINE
  5
11065
  8
1HATCH
  6
CONTINUOUS
 10
-1997.51232411984
 20
5939.347566565591
 30
0.0
 11
-1996.843766397064
 21
5938.679008842815
 31
0.0
1001
ACAD
1010
0.0
1020
0.0
1030
0.0
  0
LINE
  5
11066
  8
1HATCH
  6
CONTINUOUS
 10
-1999.757388150107
 20
5939.347566565591
 30
0.0
 11
-1998.019790558426
 21
5937.60996897391
 31
0.0
1001
ACAD
1010
0.0
1020
0.0
1030
0.0
  0
LINE
  5
11067
  8
1HATCH
  6
CONTINUOUS
 10
-2002.002452180374
 20
5939.347566565591
 30
0.0
 11
-1999.195814719787
 21
5936.540929105005
 31
0.0
1001
ACAD
1010
0.0
1020
0.0
1030
0.0
  0
LINE
  5
11068
  8
1HATCH
  6
CONTINUOUS
 10
-2004.247516210642
 20
5939.347566565591
 30
0.0
 11
-2000.35717858946
 21
5935.45722894441
 31
0.0
1001
ACAD
1010
0.0
1020
0.0
1030
0.0
  0
LINE
  5
11069
  8
1HATCH
  6
CONTINUOUS
 10
-2006.492580240909
 20
5939.347566565591
 30
0.0
 11
-2001.074119829511
 21
5933.929106154194
 31
0.0
1001
ACAD
1010
0.0
1020
0.0
1030
0.0
  0
LINE
  5
1106A
  8
1HATCH
  6
CONTINUOUS
 10
-2007.057051734086
 20
5937.666974028501
 30
0.0
 11
-2001.149099681551
 21
5931.759021975966
 31
0.0
1001
ACAD
1010
0.0
1020
0.0
1030
0.0
  0
LINE
  5
1106B
  8
1HATCH
  6
CONTINUOUS
 10
-2007.057051734086
 20
5935.421909998234
 30
0.0
 11
-1993.718610005706
 21
5922.083468269854
 31
0.0
1001
ACAD
1010
0.0
1020
0.0
1030
0.0
  0
LINE
  5
1106C
  8
1HATCH
  6
CONTINUOUS
 10
-2013.192236752604
 20
5939.312030986485
 30
0.0
 11
-2011.257051734088
 21
5937.376845967969
 31
0.0
1001
ACAD
1010
0.0
1020
0.0
1030
0.0
  0
LINE
  5
1106D
  8
1HATCH
  6
CONTINUOUS
 10
-2007.057051734086
 20
5933.176845967966
 30
0.0
 11
-1993.143555531803
 21
5919.263349765683
 31
0.0
1001
ACAD
1010
0.0
1020
0.0
1030
0.0
  0
LINE
  5
1106E
  8
1HATCH
  6
CONTINUOUS
 10
-2013.6567011735
 20
5937.531431377114
 30
0.0
 11
-2011.257051734089
 21
5935.131781937703
 31
0.0
1001
ACAD
1010
0.0
1020
0.0
1030
0.0
  0
LINE
  5
1106F
  8
1HATCH
  6
CONTINUOUS
 10
-2007.764944048032
 20
5931.639674251645
 30
0.0
 11
-1993.719734619247
 21
5917.59446482286
 31
0.0
1001
ACAD
1010
0.0
1020
0.0
1030
0.0
  0
LINE
  5
11070
  8
1HATCH
  6
CONTINUOUS
 10
-2013.6567011735
 20
5935.286367346846
 30
0.0
 11
-2011.257051734091
 21
5932.886717907437
 31
0.0
1001
ACAD
1010
0.0
1020
0.0
1030
0.0
  0
LINE
  5
11071
  8
1HATCH
  6
CONTINUOUS
 10
-2008.887476063166
 20
5930.517142236512
 30
0.0
 11
-1995.717900392244
 21
5917.347566565591
 31
0.0
1001
ACAD
1010
0.0
1020
0.0
1030
0.0
  0
LINE
  5
11072
  8
1HATCH
  6
CONTINUOUS
 10
-2013.6567011735
 20
5933.041303316579
 30
0.0
 11
-1997.962964422512
 21
5917.347566565591
 31
0.0
1001
ACAD
1010
0.0
1020
0.0
1030
0.0
  0
LINE
  5
11073
  8
1HATCH
  6
CONTINUOUS
 10
-2022.20802845278
 20
5939.347566565591
 30
0.0
 11
-2021.656701173501
 21
5938.796239286313
 31
0.0
1001
ACAD
1010
0.0
1020
0.0
1030
0.0
  0
LINE
  5
11074
  8
1HATCH
  6
CONTINUOUS
 10
-2024.453092483047
 20
5939.347566565591
 30
0.0
 11
-2021.656701173501
 21
5936.551175256045
 31
0.0
1001
ACAD
1010
0.0
1020
0.0
1030
0.0
  0
LINE
  5
11075
  8
1HATCH
  6
CONTINUOUS
 10
-2026.698156513314
 20
5939.347566565591
 30
0.0
 11
-2021.656701173501
 21
5934.306111225778
 31
0.0
1001
ACAD
1010
0.0
1020
0.0
1030
0.0
  0
LINE
  5
11076
  8
1HATCH
  6
CONTINUOUS
 10
-2013.656701173499
 20
5930.796239286311
 30
0.0
 11
-2000.208028452779
 21
5917.347566565591
 31
0.0
1001
ACAD
1010
0.0
1020
0.0
1030
0.0
  0
LINE
  5
11077
  8
1HATCH
  6
CONTINUOUS
 10
-2013.656701173499
 20
5928.551175256043
 30
0.0
 11
-2002.453092483046
 21
5917.347566565591
 31
0.0
1001
ACAD
1010
0.0
1020
0.0
1030
0.0
  0
LINE
  5
11078
  8
1HATCH
  6
CONTINUOUS
 10
-2013.656701173499
 20
5926.306111225776
 30
0.0
 11
-2004.698156513314
 21
5917.347566565591
 31
0.0
1001
ACAD
1010
0.0
1020
0.0
1030
0.0
  0
LINE
  5
11079
  8
1HATCH
  6
CONTINUOUS
 10
-2028.943220543582
 20
5939.347566565591
 30
0.0
 11
-2021.656701173501
 21
5932.061047195511
 31
0.0
1001
ACAD
1010
0.0
1020
0.0
1030
0.0
  0
LINE
  5
1107A
  8
1HATCH
  6
CONTINUOUS
 10
-2014.231701173499
 20
5924.636047195509
 30
0.0
 11
-2006.943220543581
 21
5917.347566565591
 31
0.0
1001
ACAD
1010
0.0
1020
0.0
1030
0.0
  0
LINE
  5
1107B
  8
1HATCH
  6
CONTINUOUS
 10
-2031.188284573849
 20
5939.347566565591
 30
0.0
 11
-2021.656701173501
 21
5929.815983165244
 31
0.0
1001
ACAD
1010
0.0
1020
0.0
1030
0.0
  0
LINE
  5
1107C
  8
1HATCH
  6
CONTINUOUS
 10
-2033.433348604116
 20
5939.347566565591
 30
0.0
 11
-2021.656701173501
 21
5927.570919134976
 31
0.0
1001
ACAD
1010
0.0
1020
0.0
1030
0.0
  0
LINE
  5
1107D
  8
1HATCH
  6
CONTINUOUS
 10
-2014.459994732836
 20
5922.619276724578
 30
0.0
 11
-2009.188284573848
 21
5917.347566565591
 31
0.0
1001
ACAD
1010
0.0
1020
0.0
1030
0.0
  0
LINE
  5
1107E
  8
1HATCH
  6
CONTINUOUS
 10
-2015.582535889622
 20
5921.496753851097
 30
0.0
 11
-2011.433348604116
 21
5917.347566565591
 31
0.0
1001
ACAD
1010
0.0
1020
0.0
1030
0.0
  0
LINE
  5
1107F
  8
1HATCH
  6
CONTINUOUS
 10
-2035.678412634384
 20
5939.347566565591
 30
0.0
 11
-2021.081701173501
 21
5924.750855104709
 31
0.0
1001
ACAD
1010
0.0
1020
0.0
1030
0.0
  0
LINE
  5
11080
  8
1HATCH
  6
CONTINUOUS
 10
-2016.705077046409
 20
5920.374230977617
 30
0.0
 11
-2013.678412634383
 21
5917.347566565591
 31
0.0
1001
ACAD
1010
0.0
1020
0.0
1030
0.0
  0
LINE
  5
11081
  8
1HATCH
  6
CONTINUOUS
 10
-2037.923476664651
 20
5939.347566565591
 30
0.0
 11
-2015.92347666465
 21
5917.347566565591
 31
0.0
1001
ACAD
1010
0.0
1020
0.0
1030
0.0
  0
LINE
  5
11082
  8
1HATCH
  6
CONTINUOUS
 10
-2040.168540694918
 20
5939.347566565591
 30
0.0
 11
-2018.168540694917
 21
5917.347566565591
 31
0.0
1001
ACAD
1010
0.0
1020
0.0
1030
0.0
  0
LINE
  5
11083
  8
1HATCH
  6
CONTINUOUS
 10
-2042.19201548442
 20
5939.125977324826
 30
0.0
 11
-2020.413604725185
 21
5917.347566565591
 31
0.0
1001
ACAD
1010
0.0
1020
0.0
1030
0.0
  0
LINE
  5
11084
  8
1HATCH
  6
CONTINUOUS
 10
-2042.657051734088
 20
5937.345949544227
 30
0.0
 11
-2022.658668755452
 21
5917.347566565591
 31
0.0
1001
ACAD
1010
0.0
1020
0.0
1030
0.0
  0
LINE
  5
11085
  8
1HATCH
  6
CONTINUOUS
 10
-2042.657051734088
 20
5935.10088551396
 30
0.0
 11
-2024.903732785719
 21
5917.347566565591
 31
0.0
1001
ACAD
1010
0.0
1020
0.0
1030
0.0
  0
LINE
  5
11086
  8
1HATCH
  6
CONTINUOUS
 10
-2042.657051734088
 20
5932.855821483692
 30
0.0
 11
-2027.148796815987
 21
5917.347566565591
 31
0.0
1001
ACAD
1010
0.0
1020
0.0
1030
0.0
  0
LINE
  5
11087
  8
1HATCH
  6
CONTINUOUS
 10
-2042.657051734088
 20
5930.610757453425
 30
0.0
 11
-2029.393860846254
 21
5917.347566565591
 31
0.0
1001
ACAD
1010
0.0
1020
0.0
1030
0.0
  0
LINE
  5
11088
  8
1HATCH
  6
CONTINUOUS
 10
-2042.657051734089
 20
5928.365693423159
 30
0.0
 11
-2031.638924876521
 21
5917.347566565591
 31
0.0
1001
ACAD
1010
0.0
1020
0.0
1030
0.0
  0
LINE
  5
11089
  8
1HATCH
  6
CONTINUOUS
 10
-2042.657051734089
 20
5926.120629392891
 30
0.0
 11
-2033.883988906788
 21
5917.347566565591
 31
0.0
1001
ACAD
1010
0.0
1020
0.0
1030
0.0
  0
LINE
  5
1108A
  8
1HATCH
  6
CONTINUOUS
 10
-2042.657051734089
 20
5923.875565362624
 30
0.0
 11
-2036.129052937056
 21
5917.347566565591
 31
0.0
1001
ACAD
1010
0.0
1020
0.0
1030
0.0
  0
LINE
  5
1108B
  8
1HATCH
  6
CONTINUOUS
 10
-2042.657051734089
 20
5921.630501332356
 30
0.0
 11
-2038.374116967323
 21
5917.347566565591
 31
0.0
1001
ACAD
1010
0.0
1020
0.0
1030
0.0
  0
LINE
  5
1108C
  8
1HATCH
  6
CONTINUOUS
 10
-2042.657051734089
 20
5919.385437302089
 30
0.0
 11
-2040.61918099759
 21
5917.347566565591
 31
0.0
1001
ACAD
1010
0.0
1020
0.0
1030
0.0
  0
LINE
  5
1108D
  8
1HATCH
  6
CONTINUOUS
 10
-1444.261798980466
 20
5817.76073747308
 30
0.0
 11
-1444.988237166952
 21
5818.487175659565
 31
0.0
1001
ACAD
1010
0.0
1020
0.0
1030
0.0
  0
LINE
  5
1108E
  8
1HATCH
  6
CONTINUOUS
 10
-1443.363773446868
 20
5817.760737551587
 30
0.0
 11
-1444.988237127698
 21
5819.385201232418
 31
0.0
1001
ACAD
1010
0.0
1020
0.0
1030
0.0
  0
LINE
  5
1108F
  8
1HATCH
  6
CONTINUOUS
 10
-1442.465747913268
 20
5817.760737630096
 30
0.0
 11
-1444.988237088443
 21
5820.283226805271
 31
0.0
1001
ACAD
1010
0.0
1020
0.0
1030
0.0
  0
LINE
  5
11090
  8
1HATCH
  6
CONTINUOUS
 10
-1441.567722379669
 20
5817.760737708603
 30
0.0
 11
-1444.988237049189
 21
5821.181252378124
 31
0.0
1001
ACAD
1010
0.0
1020
0.0
1030
0.0
  0
LINE
  5
11091
  8
1HATCH
  6
CONTINUOUS
 10
-1440.66969684607
 20
5817.760737787111
 30
0.0
 11
-1444.41971358869
 21
5821.510754529731
 31
0.0
1001
ACAD
1010
0.0
1020
0.0
1030
0.0
  0
LINE
  5
11092
  8
1HATCH
  6
CONTINUOUS
 10
-1439.771671312471
 20
5817.760737865618
 30
0.0
 11
-1443.521713361353
 21
5821.510779914501
 31
0.0
1001
ACAD
1010
0.0
1020
0.0
1030
0.0
  0
LINE
  5
11093
  8
1HATCH
  6
CONTINUOUS
 10
-1438.873645778872
 20
5817.760737944127
 30
0.0
 11
-1442.623713134017
 21
5821.510805299271
 31
0.0
1001
ACAD
1010
0.0
1020
0.0
1030
0.0
  0
LINE
  5
11094
  8
1HATCH
  6
CONTINUOUS
 10
-1437.975620245273
 20
5817.760738022635
 30
0.0
 11
-1441.72571290668
 21
5821.510830684042
 31
0.0
1001
ACAD
1010
0.0
1020
0.0
1030
0.0
  0
LINE
  5
11095
  8
1HATCH
  6
CONTINUOUS
 10
-1437.077594711674
 20
5817.760738101142
 30
0.0
 11
-1440.827712679344
 21
5821.510856068812
 31
0.0
1001
ACAD
1010
0.0
1020
0.0
1030
0.0
  0
LINE
  5
11096
  8
1HATCH
  6
CONTINUOUS
 10
-1436.179569178075
 20
5817.760738179651
 30
0.0
 11
-1439.929712452007
 21
5821.510881453582
 31
0.0
1001
ACAD
1010
0.0
1020
0.0
1030
0.0
  0
LINE
  5
11097
  8
1HATCH
  6
CONTINUOUS
 10
-1435.281543644476
 20
5817.760738258158
 30
0.0
 11
-1439.031712224671
 21
5821.510906838354
 31
0.0
1001
ACAD
1010
0.0
1020
0.0
1030
0.0
  0
LINE
  5
11098
  8
1HATCH
  6
CONTINUOUS
 10
-1434.383518110877
 20
5817.760738336666
 30
0.0
 11
-1438.133711997334
 21
5821.510932223124
 31
0.0
1001
ACAD
1010
0.0
1020
0.0
1030
0.0
  0
LINE
  5
11099
  8
1HATCH
  6
CONTINUOUS
 10
-1433.485492577278
 20
5817.760738415174
 30
0.0
 11
-1437.235711769998
 21
5821.510957607894
 31
0.0
1001
ACAD
1010
0.0
1020
0.0
1030
0.0
  0
LINE
  5
1109A
  8
1HATCH
  6
CONTINUOUS
 10
-1432.988236969217
 20
5818.161508419221
 30
0.0
 11
-1436.337711542662
 21
5821.510982992664
 31
0.0
1001
ACAD
1010
0.0
1020
0.0
1030
0.0
  0
LINE
  5
1109B
  8
1HATCH
  6
CONTINUOUS
 10
-1432.988236969217
 20
5819.059534031328
 30
0.0
 11
-1435.439711315325
 21
5821.511008377435
 31
0.0
1001
ACAD
1010
0.0
1020
0.0
1030
0.0
  0
LINE
  5
1109C
  8
1HATCH
  6
CONTINUOUS
 10
-1432.988236969217
 20
5819.957559643434
 30
0.0
 11
-1434.541711087988
 21
5821.511033762205
 31
0.0
1001
ACAD
1010
0.0
1020
0.0
1030
0.0
  0
LINE
  5
1109D
  8
1HATCH
  6
CONTINUOUS
 10
-1432.988236969217
 20
5820.855585255541
 30
0.0
 11
-1433.643710860652
 21
5821.511059146976
 31
0.0
1001
ACAD
1010
0.0
1020
0.0
1030
0.0
  0
LINE
  5
1109E
  8
1HATCH
  6
CONTINUOUS
 10
-1444.337467008644
 20
5829.510738458647
 30
0.0
 11
-1444.988236715437
 21
5830.16150816544
 31
0.0
1001
ACAD
1010
0.0
1020
0.0
1030
0.0
  0
LINE
  5
1109F
  8
1HATCH
  6
CONTINUOUS
 10
-1443.439441396537
 20
5829.510738458647
 30
0.0
 11
-1444.988236757308
 21
5831.059533819418
 31
0.0
1001
ACAD
1010
0.0
1020
0.0
1030
0.0
  0
LINE
  5
110A0
  8
1HATCH
  6
CONTINUOUS
 10
-1442.54141578443
 20
5829.510738458647
 30
0.0
 11
-1444.988236799179
 21
5831.957559473396
 31
0.0
1001
ACAD
1010
0.0
1020
0.0
1030
0.0
  0
LINE
  5
110A1
  8
1HATCH
  6
CONTINUOUS
 10
-1441.643390172324
 20
5829.510738458647
 30
0.0
 11
-1444.98823684105
 21
5832.855585127374
 31
0.0
1001
ACAD
1010
0.0
1020
0.0
1030
0.0
  0
LINE
  5
110A2
  8
1HATCH
  6
CONTINUOUS
 10
-1440.745364560217
 20
5829.510738458647
 30
0.0
 11
-1444.495363554229
 21
5833.26073745266
 31
0.0
1001
ACAD
1010
0.0
1020
0.0
1030
0.0
  0
LINE
  5
110A3
  8
1HATCH
  6
CONTINUOUS
 10
-1439.84733894811
 20
5829.510738458647
 30
0.0
 11
-1443.59733802063
 21
5833.260737531168
 31
0.0
1001
ACAD
1010
0.0
1020
0.0
1030
0.0
  0
LINE
  5
110A4
  8
1HATCH
  6
CONTINUOUS
 10
-1438.949313336003
 20
5829.510738458647
 30
0.0
 11
-1442.699312487031
 21
5833.260737609676
 31
0.0
1001
ACAD
1010
0.0
1020
0.0
1030
0.0
  0
LINE
  5
110A5
  8
1HATCH
  6
CONTINUOUS
 10
-1438.051287723896
 20
5829.510738458647
 30
0.0
 11
-1441.801286953432
 21
5833.260737688183
 31
0.0
1001
ACAD
1010
0.0
1020
0.0
1030
0.0
  0
LINE
  5
110A6
  8
1HATCH
  6
CONTINUOUS
 10
-1437.153262111789
 20
5829.510738458647
 30
0.0
 11
-1440.903261419833
 21
5833.260737766692
 31
0.0
1001
ACAD
1010
0.0
1020
0.0
1030
0.0
  0
LINE
  5
110A7
  8
1HATCH
  6
CONTINUOUS
 10
-1436.255236499682
 20
5829.510738458647
 30
0.0
 11
-1440.005235886234
 21
5833.260737845199
 31
0.0
1001
ACAD
1010
0.0
1020
0.0
1030
0.0
  0
LINE
  5
110A8
  8
1HATCH
  6
CONTINUOUS
 10
-1435.357210887575
 20
5829.510738458647
 30
0.0
 11
-1439.107210352635
 21
5833.260737923707
 31
0.0
1001
ACAD
1010
0.0
1020
0.0
1030
0.0
  0
LINE
  5
110A9
  8
1HATCH
  6
CONTINUOUS
 10
-1434.459185275468
 20
5829.510738458647
 30
0.0
 11
-1438.209184819036
 21
5833.260738002215
 31
0.0
1001
ACAD
1010
0.0
1020
0.0
1030
0.0
  0
LINE
  5
110AA
  8
1HATCH
  6
CONTINUOUS
 10
-1433.561159663361
 20
5829.510738458647
 30
0.0
 11
-1437.311159285437
 21
5833.260738080723
 31
0.0
1001
ACAD
1010
0.0
1020
0.0
1030
0.0
  0
LINE
  5
110AB
  8
1HATCH
  6
CONTINUOUS
 10
-1432.988236959746
 20
5829.835841367139
 30
0.0
 11
-1436.413133751838
 21
5833.260738159232
 31
0.0
1001
ACAD
1010
0.0
1020
0.0
1030
0.0
  0
LINE
  5
110AC
  8
1HATCH
  6
CONTINUOUS
 10
-1432.988236933576
 20
5830.733866953076
 30
0.0
 11
-1435.515108218239
 21
5833.260738237739
 31
0.0
1001
ACAD
1010
0.0
1020
0.0
1030
0.0
  0
LINE
  5
110AD
  8
1HATCH
  6
CONTINUOUS
 10
-1432.988236907407
 20
5831.631892539013
 30
0.0
 11
-1434.61708268464
 21
5833.260738316247
 31
0.0
1001
ACAD
1010
0.0
1020
0.0
1030
0.0
  0
LINE
  5
110AE
  8
1HATCH
  6
CONTINUOUS
 10
-1432.988236881237
 20
5832.529918124951
 30
0.0
 11
-1433.719057151041
 21
5833.260738394755
 31
0.0
1001
ACAD
1010
0.0
1020
0.0
1030
0.0
  0
LINE
  5
110AF
  8
1HATCH
  6
CONTINUOUS
 10
-2009.907051266877
 20
5983.159103637053
 30
0.0
 11
-2011.218560505577
 21
5981.847594398353
 31
0.0
1001
ACAD
1010
0.0
1020
0.0
1030
0.0
  0
LINE
  5
110B0
  8
1HATCH
  6
CONTINUOUS
 10
-2009.907051325758
 20
5984.506141996332
 30
0.0
 11
-2012.565598982619
 21
5981.847594339471
 31
0.0
1001
ACAD
1010
0.0
1020
0.0
1030
0.0
  0
LINE
  5
110B1
  8
1HATCH
  6
CONTINUOUS
 10
-2009.907051384639
 20
5985.853180355612
 30
0.0
 11
-2013.657630001589
 21
5982.102601738662
 31
0.0
1001
ACAD
1010
0.0
1020
0.0
1030
0.0
  0
LINE
  5
110B2
  8
1HATCH
  6
CONTINUOUS
 10
-2009.90705144352
 20
5987.200218714891
 30
0.0
 11
-2013.657642790648
 21
5983.449627367763
 31
0.0
1001
ACAD
1010
0.0
1020
0.0
1030
0.0
  0
LINE
  5
110B3
  8
1HATCH
  6
CONTINUOUS
 10
-2009.907051502401
 20
5988.54725707417
 30
0.0
 11
-2013.657655579707
 21
5984.796652996865
 31
0.0
1001
ACAD
1010
0.0
1020
0.0
1030
0.0
  0
LINE
  5
110B4
  8
1HATCH
  6
CONTINUOUS
 10
-2009.907051561282
 20
5989.894295433451
 30
0.0
 11
-2013.657668368766
 21
5986.143678625966
 31
0.0
1001
ACAD
1010
0.0
1020
0.0
1030
0.0
  0
LINE
  5
110B5
  8
1HATCH
  6
CONTINUOUS
 10
-2009.907051620163
 20
5991.24133379273
 30
0.0
 11
-2013.657681157825
 21
5987.490704255068
 31
0.0
1001
ACAD
1010
0.0
1020
0.0
1030
0.0
  0
LINE
  5
110B6
  8
1HATCH
  6
CONTINUOUS
 10
-2009.907051679044
 20
5992.588372152009
 30
0.0
 11
-2013.657693946884
 21
5988.837729884169
 31
0.0
1001
ACAD
1010
0.0
1020
0.0
1030
0.0
  0
LINE
  5
110B7
  8
1HATCH
  6
CONTINUOUS
 10
-2009.994867797371
 20
5993.847594451841
 30
0.0
 11
-2013.657706735943
 21
5990.184755513271
 31
0.0
1001
ACAD
1010
0.0
1020
0.0
1030
0.0
  0
LINE
  5
110B8
  8
1HATCH
  6
CONTINUOUS
 10
-2011.341906274413
 20
5993.847594392961
 30
0.0
 11
-2013.657719525002
 21
5991.531781142372
 31
0.0
1001
ACAD
1010
0.0
1020
0.0
1030
0.0
  0
LINE
  5
110B9
  8
1HATCH
  6
CONTINUOUS
 10
-2012.688944751454
 20
5993.84759433408
 30
0.0
 11
-2013.657732314061
 21
5992.878806771473
 31
0.0
1001
ACAD
1010
0.0
1020
0.0
1030
0.0
  0
LINE
  5
110BA
  8
1HATCH
  6
CONTINUOUS
 10
-2021.657630782641
 20
5982.184831466573
 30
0.0
 11
-2021.99486832191
 21
5981.847593927304
 31
0.0
1001
ACAD
1010
0.0
1020
0.0
1030
0.0
  0
LINE
  5
110BB
  8
1HATCH
  6
CONTINUOUS
 10
-2021.657643571701
 20
5983.531857095672
 30
0.0
 11
-2023.341906798951
 21
5981.847593868422
 31
0.0
1001
ACAD
1010
0.0
1020
0.0
1030
0.0
  0
LINE
  5
110BC
  8
1HATCH
  6
CONTINUOUS
 10
-2021.657656360762
 20
5984.878882724773
 30
0.0
 11
-2024.688945275992
 21
5981.847593809542
 31
0.0
1001
ACAD
1010
0.0
1020
0.0
1030
0.0
  0
LINE
  5
110BD
  8
1HATCH
  6
CONTINUOUS
 10
-2021.657669149822
 20
5986.225908353872
 30
0.0
 11
-2025.407051237041
 21
5982.476526266653
 31
0.0
1001
ACAD
1010
0.0
1020
0.0
1030
0.0
  0
LINE
  5
110BE
  8
1HATCH
  6
CONTINUOUS
 10
-2021.657681938883
 20
5987.572933982971
 30
0.0
 11
-2025.407051295922
 21
5983.823564625933
 31
0.0
1001
ACAD
1010
0.0
1020
0.0
1030
0.0
  0
LINE
  5
110BF
  8
1HATCH
  6
CONTINUOUS
 10
-2021.657694727944
 20
5988.919959612072
 30
0.0
 11
-2025.407051354802
 21
5985.170602985213
 31
0.0
1001
ACAD
1010
0.0
1020
0.0
1030
0.0
  0
LINE
  5
110C0
  8
1HATCH
  6
CONTINUOUS
 10
-2021.657707517004
 20
5990.266985241171
 30
0.0
 11
-2025.407051413683
 21
5986.517641344492
 31
0.0
1001
ACAD
1010
0.0
1020
0.0
1030
0.0
  0
LINE
  5
110C1
  8
1HATCH
  6
CONTINUOUS
 10
-2021.657720306065
 20
5991.614010870271
 30
0.0
 11
-2025.407051472564
 21
5987.864679703772
 31
0.0
1001
ACAD
1010
0.0
1020
0.0
1030
0.0
  0
LINE
  5
110C2
  8
1HATCH
  6
CONTINUOUS
 10
-2021.657733095126
 20
5992.96103649937
 30
0.0
 11
-2025.407051531444
 21
5989.211718063052
 31
0.0
1001
ACAD
1010
0.0
1020
0.0
1030
0.0
  0
LINE
  5
110C3
  8
1HATCH
  6
CONTINUOUS
 10
-2022.118214090744
 20
5993.847593921912
 30
0.0
 11
-2025.407051590325
 21
5990.558756422331
 31
0.0
1001
ACAD
1010
0.0
1020
0.0
1030
0.0
  0
LINE
  5
110C4
  8
1HATCH
  6
CONTINUOUS
 10
-2023.465252567786
 20
5993.847593863032
 30
0.0
 11
-2025.407051649206
 21
5991.905794781611
 31
0.0
1001
ACAD
1010
0.0
1020
0.0
1030
0.0
  0
LINE
  5
110C5
  8
1HATCH
  6
CONTINUOUS
 10
-2024.812291044827
 20
5993.84759380415
 30
0.0
 11
-2025.407051708087
 21
5993.252833140891
 31
0.0
1001
ACAD
1010
0.0
1020
0.0
1030
0.0
  0
LINE
  5
110C6
  8
1HATCH
  6
CONTINUOUS
 10
-2029.549832434481
 20
5997.647593778152
 30
0.0
 11
-2030.15705173409
 21
5998.25481307776
 31
0.0
1001
ACAD
1010
0.0
1020
0.0
1030
0.0
  0
LINE
  5
110C7
  8
1HATCH
  6
CONTINUOUS
 10
-2027.65705173409
 20
5997.999877108028
 30
0.0
 11
-2030.15705173409
 21
6000.499877108028
 31
0.0
1001
ACAD
1010
0.0
1020
0.0
1030
0.0
  0
LINE
  5
110C8
  8
1HATCH
  6
CONTINUOUS
 10
-2027.65705173409
 20
6000.244941138295
 30
0.0
 11
-2030.15705173409
 21
6002.744941138295
 31
0.0
1001
ACAD
1010
0.0
1020
0.0
1030
0.0
  0
LINE
  5
110C9
  8
1HATCH
  6
CONTINUOUS
 10
-2027.65705173409
 20
6002.490005168563
 30
0.0
 11
-2030.15705173409
 21
6004.990005168563
 31
0.0
1001
ACAD
1010
0.0
1020
0.0
1030
0.0
  0
LINE
  5
110CA
  8
1HATCH
  6
CONTINUOUS
 10
-2027.65705173409
 20
6004.73506919883
 30
0.0
 11
-2030.138566002589
 21
6007.216583467329
 31
0.0
1001
ACAD
1010
0.0
1020
0.0
1030
0.0
  0
LINE
  5
110CB
  8
1HATCH
  6
CONTINUOUS
 10
-2026.824512283145
 20
6006.147593778152
 30
0.0
 11
-2028.824512283145
 21
6008.147593778152
 31
0.0
1001
ACAD
1010
0.0
1020
0.0
1030
0.0
  0
LINE
  5
110CC
  8
1HATCH
  6
CONTINUOUS
 10
-2024.579448252877
 20
6006.147593778152
 30
0.0
 11
-2026.579448252878
 21
6008.147593778152
 31
0.0
1001
ACAD
1010
0.0
1020
0.0
1030
0.0
  0
LINE
  5
110CD
  8
1HATCH
  6
CONTINUOUS
 10
-2022.33438422261
 20
6006.147593778152
 30
0.0
 11
-2024.33438422261
 21
6008.147593778152
 31
0.0
1001
ACAD
1010
0.0
1020
0.0
1030
0.0
  0
LINE
  5
110CE
  8
1HATCH
  6
CONTINUOUS
 10
-2020.089320192342
 20
6006.147593778152
 30
0.0
 11
-2022.089320192343
 21
6008.147593778152
 31
0.0
1001
ACAD
1010
0.0
1020
0.0
1030
0.0
  0
LINE
  5
110CF
  8
1HATCH
  6
CONTINUOUS
 10
-2017.844256162075
 20
6006.147593778152
 30
0.0
 11
-2019.844256162076
 21
6008.147593778152
 31
0.0
1001
ACAD
1010
0.0
1020
0.0
1030
0.0
  0
LINE
  5
110D0
  8
1HATCH
  6
CONTINUOUS
 10
-2007.099192131808
 20
5997.647593778152
 30
0.0
 11
-2007.65705173409
 21
5998.205453380434
 31
0.0
1001
ACAD
1010
0.0
1020
0.0
1030
0.0
  0
LINE
  5
110D1
  8
1HATCH
  6
CONTINUOUS
 10
-2015.599192131808
 20
6006.147593778152
 30
0.0
 11
-2017.599192131808
 21
6008.147593778152
 31
0.0
1001
ACAD
1010
0.0
1020
0.0
1030
0.0
  0
LINE
  5
110D2
  8
1HATCH
  6
CONTINUOUS
 10
-2005.157051734088
 20
5997.950517410699
 30
0.0
 11
-2007.65705173409
 21
6000.450517410701
 31
0.0
1001
ACAD
1010
0.0
1020
0.0
1030
0.0
  0
LINE
  5
110D3
  8
1HATCH
  6
CONTINUOUS
 10
-2005.157051734088
 20
6000.195581440967
 30
0.0
 11
-2007.65705173409
 21
6002.695581440968
 31
0.0
1001
ACAD
1010
0.0
1020
0.0
1030
0.0
  0
LINE
  5
110D4
  8
1HATCH
  6
CONTINUOUS
 10
-2005.157051734088
 20
6002.440645471233
 30
0.0
 11
-2007.65705173409
 21
6004.940645471235
 31
0.0
1001
ACAD
1010
0.0
1020
0.0
1030
0.0
  0
LINE
  5
110D5
  8
1HATCH
  6
CONTINUOUS
 10
-2013.354128101541
 20
6006.147593778152
 30
0.0
 11
-2015.354128101541
 21
6008.147593778152
 31
0.0
1001
ACAD
1010
0.0
1020
0.0
1030
0.0
  0
LINE
  5
110D6
  8
1HATCH
  6
CONTINUOUS
 10
-2011.109064071274
 20
6006.147593778152
 30
0.0
 11
-2013.109064071274
 21
6008.147593778152
 31
0.0
1001
ACAD
1010
0.0
1020
0.0
1030
0.0
  0
LINE
  5
110D7
  8
1HATCH
  6
CONTINUOUS
 10
-2008.864000041007
 20
6006.147593778152
 30
0.0
 11
-2010.864000041007
 21
6008.147593778152
 31
0.0
1001
ACAD
1010
0.0
1020
0.0
1030
0.0
  0
LINE
  5
110D8
  8
1HATCH
  6
CONTINUOUS
 10
-2005.157051734088
 20
6004.685709501501
 30
0.0
 11
-2008.618936010739
 21
6008.147593778152
 31
0.0
1001
ACAD
1010
0.0
1020
0.0
1030
0.0
  0
LINE
  5
110D9
  8
1HATCH
  6
CONTINUOUS
 10
-2005.157051734088
 20
6006.930773531768
 30
0.0
 11
-2006.373871980472
 21
6008.147593778152
 31
0.0
1001
ACAD
1010
0.0
1020
0.0
1030
0.0
  0
LINE
  5
110DA
  8
1HATCH
  6
CONTINUOUS
 10
-2027.556390849108
 20
6003.732689895222
 30
0.0
 11
-2025.641486966178
 21
6005.647593778152
 31
0.0
1001
ACAD
1010
0.0
1020
0.0
1030
0.0
  0
LINE
  5
110DB
  8
1HATCH
  6
CONTINUOUS
 10
-2027.556390849108
 20
6001.487625864956
 30
0.0
 11
-2025.156390849107
 21
6003.887625864956
 31
0.0
1001
ACAD
1010
0.0
1020
0.0
1030
0.0
  0
LINE
  5
110DC
  8
1HATCH
  6
CONTINUOUS
 10
-2030.156390849101
 20
5996.642561834695
 30
0.0
 11
-2029.151358905644
 21
5997.647593778152
 31
0.0
1001
ACAD
1010
0.0
1020
0.0
1030
0.0
  0
LINE
  5
110DD
  8
1HATCH
  6
CONTINUOUS
 10
-2027.556390849108
 20
5999.242561834688
 30
0.0
 11
-2025.156390849107
 21
6001.642561834688
 31
0.0
1001
ACAD
1010
0.0
1020
0.0
1030
0.0
  0
LINE
  5
110DE
  8
1HATCH
  6
CONTINUOUS
 10
-2030.156390849101
 20
5994.397497804428
 30
0.0
 11
-2025.156390849108
 21
5999.397497804421
 31
0.0
1001
ACAD
1010
0.0
1020
0.0
1030
0.0
  0
LINE
  5
110DF
  8
1HATCH
  6
CONTINUOUS
 10
-2027.46123084511
 20
5994.847593778151
 30
0.0
 11
-2024.661230845109
 21
5997.647593778152
 31
0.0
1001
ACAD
1010
0.0
1020
0.0
1030
0.0
  0
LINE
  5
110E0
  8
1HATCH
  6
CONTINUOUS
 10
-2025.216166814843
 20
5994.847593778151
 30
0.0
 11
-2022.656390849105
 21
5997.40736974389
 31
0.0
1001
ACAD
1010
0.0
1020
0.0
1030
0.0
  0
LINE
  5
110E1
  8
1HATCH
  6
CONTINUOUS
 10
-2022.971102784575
 20
5994.847593778151
 30
0.0
 11
-2022.656390849106
 21
5995.16230571362
 31
0.0
1001
ACAD
1010
0.0
1020
0.0
1030
0.0
  0
LINE
  5
110E2
  8
1HATCH
  6
CONTINUOUS
 10
-2010.156390849108
 20
6005.417241683352
 30
0.0
 11
-2009.926038754307
 21
6005.647593778152
 31
0.0
1001
ACAD
1010
0.0
1020
0.0
1030
0.0
  0
LINE
  5
110E3
  8
1HATCH
  6
CONTINUOUS
 10
-2010.156390849108
 20
6003.172177653084
 30
0.0
 11
-2007.756390849107
 21
6005.572177653085
 31
0.0
1001
ACAD
1010
0.0
1020
0.0
1030
0.0
  0
LINE
  5
110E4
  8
1HATCH
  6
CONTINUOUS
 10
-2010.156390849108
 20
6000.927113622817
 30
0.0
 11
-2007.756390849107
 21
6003.327113622819
 31
0.0
1001
ACAD
1010
0.0
1020
0.0
1030
0.0
  0
LINE
  5
110E5
  8
1HATCH
  6
CONTINUOUS
 10
-2012.656390849103
 20
5996.182049592555
 30
0.0
 11
-2011.190846663505
 21
5997.647593778152
 31
0.0
1001
ACAD
1010
0.0
1020
0.0
1030
0.0
  0
LINE
  5
110E6
  8
1HATCH
  6
CONTINUOUS
 10
-2010.156390849108
 20
5998.682049592549
 30
0.0
 11
-2007.756390849107
 21
6001.082049592551
 31
0.0
1001
ACAD
1010
0.0
1020
0.0
1030
0.0
  0
LINE
  5
110E7
  8
1HATCH
  6
CONTINUOUS
 10
-2011.745782633238
 20
5994.847593778152
 30
0.0
 11
-2007.756390849107
 21
5998.836985562284
 31
0.0
1001
ACAD
1010
0.0
1020
0.0
1030
0.0
  0
LINE
  5
110E8
  8
1HATCH
  6
CONTINUOUS
 10
-2009.500718602971
 20
5994.847593778152
 30
0.0
 11
-2006.70071860297
 21
5997.647593778152
 31
0.0
1001
ACAD
1010
0.0
1020
0.0
1030
0.0
  0
LINE
  5
110E9
  8
1HATCH
  6
CONTINUOUS
 10
-2007.255654572703
 20
5994.847593778152
 30
0.0
 11
-2005.156390849101
 21
5996.946857501755
 31
0.0
1001
ACAD
1010
0.0
1020
0.0
1030
0.0
  0
LINE
  5
110EA
  8
1HATCH
  6
CONTINUOUS
 10
-2005.710590542436
 20
5994.147593778152
 30
0.0
 11
-2005.156390849101
 21
5994.701793471488
 31
0.0
1001
ACAD
1010
0.0
1020
0.0
1030
0.0
  0
LINE
  5
110EB
  8
1HATCH
  6
CONTINUOUS
 10
-2005.156701173501
 20
5940.690359648867
 30
0.0
 11
-2006.499494256776
 21
5939.347566565591
 31
0.0
1001
ACAD
1010
0.0
1020
0.0
1030
0.0
  0
LINE
  5
110EC
  8
1HATCH
  6
CONTINUOUS
 10
-2005.156701173501
 20
5942.935423679134
 30
0.0
 11
-2007.157051734088
 21
5940.935073118547
 31
0.0
1001
ACAD
1010
0.0
1020
0.0
1030
0.0
  0
LINE
  5
110ED
  8
1HATCH
  6
CONTINUOUS
 10
-2005.156701173501
 20
5945.180487709402
 30
0.0
 11
-2007.157051734088
 21
5943.180137148815
 31
0.0
1001
ACAD
1010
0.0
1020
0.0
1030
0.0
  0
LINE
  5
110EE
  8
1HATCH
  6
CONTINUOUS
 10
-2005.156701173501
 20
5947.425551739669
 30
0.0
 11
-2007.157051734088
 21
5945.425201179081
 31
0.0
1001
ACAD
1010
0.0
1020
0.0
1030
0.0
  0
LINE
  5
110EF
  8
1HATCH
  6
CONTINUOUS
 10
-2011.157051734086
 20
5941.425201179083
 30
0.0
 11
-2013.234686347579
 21
5939.347566565591
 31
0.0
1001
ACAD
1010
0.0
1020
0.0
1030
0.0
  0
LINE
  5
110F0
  8
1HATCH
  6
CONTINUOUS
 10
-2005.156701173501
 20
5949.670615769936
 30
0.0
 11
-2007.157051734088
 21
5947.670265209349
 31
0.0
1001
ACAD
1010
0.0
1020
0.0
1030
0.0
  0
LINE
  5
110F1
  8
1HATCH
  6
CONTINUOUS
 10
-2011.157051734086
 20
5943.670265209351
 30
0.0
 11
-2013.556701173502
 21
5941.270615769935
 31
0.0
1001
ACAD
1010
0.0
1020
0.0
1030
0.0
  0
LINE
  5
110F2
  8
1HATCH
  6
CONTINUOUS
 10
-2005.156701173501
 20
5951.915679800203
 30
0.0
 11
-2007.507051734086
 21
5949.565329239617
 31
0.0
1001
ACAD
1010
0.0
1020
0.0
1030
0.0
  0
LINE
  5
110F3
  8
1HATCH
  6
CONTINUOUS
 10
-2011.157051734086
 20
5945.915329239618
 30
0.0
 11
-2013.556701173501
 21
5943.515679800203
 31
0.0
1001
ACAD
1010
0.0
1020
0.0
1030
0.0
  0
LINE
  5
110F4
  8
1HATCH
  6
CONTINUOUS
 10
-2005.156701173501
 20
5954.160743830471
 30
0.0
 11
-2008.238465086233
 21
5951.078979917738
 31
0.0
1001
ACAD
1010
0.0
1020
0.0
1030
0.0
  0
LINE
  5
110F5
  8
1HATCH
  6
CONTINUOUS
 10
-2010.807051734087
 20
5948.510393269884
 30
0.0
 11
-2013.556701173501
 21
5945.76074383047
 31
0.0
1001
ACAD
1010
0.0
1020
0.0
1030
0.0
  0
LINE
  5
110F6
  8
1HATCH
  6
CONTINUOUS
 10
-2005.156701173501
 20
5956.405807860738
 30
0.0
 11
-2013.556701173501
 21
5948.005807860738
 31
0.0
1001
ACAD
1010
0.0
1020
0.0
1030
0.0
  0
LINE
  5
110F7
  8
1HATCH
  6
CONTINUOUS
 10
-2021.756701173497
 20
5939.805807860741
 30
0.0
 11
-2022.214942468647
 21
5939.347566565591
 31
0.0
1001
ACAD
1010
0.0
1020
0.0
1030
0.0
  0
LINE
  5
110F8
  8
1HATCH
  6
CONTINUOUS
 10
-2005.156701173501
 20
5958.650871891005
 30
0.0
 11
-2011.456701173502
 21
5952.350871891004
 31
0.0
1001
ACAD
1010
0.0
1020
0.0
1030
0.0
  0
LINE
  5
110F9
  8
1HATCH
  6
CONTINUOUS
 10
-2012.460006498912
 20
5951.347566565594
 30
0.0
 11
-2013.5567011735
 21
5950.250871891006
 31
0.0
1001
ACAD
1010
0.0
1020
0.0
1030
0.0
  0
LINE
  5
110FA
  8
1HATCH
  6
CONTINUOUS
 10
-2021.756701173498
 20
5942.050871891008
 30
0.0
 11
-2024.460006498914
 21
5939.347566565591
 31
0.0
1001
ACAD
1010
0.0
1020
0.0
1030
0.0
  0
LINE
  5
110FB
  8
1HATCH
  6
CONTINUOUS
 10
-2005.156701173501
 20
5960.895935921272
 30
0.0
 11
-2011.456701173502
 21
5954.595935921271
 31
0.0
1001
ACAD
1010
0.0
1020
0.0
1030
0.0
  0
LINE
  5
110FC
  8
1HATCH
  6
CONTINUOUS
 10
-2005.156701173501
 20
5963.14099995154
 30
0.0
 11
-2011.456701173502
 21
5956.840999951539
 31
0.0
1001
ACAD
1010
0.0
1020
0.0
1030
0.0
  0
LINE
  5
110FD
  8
1HATCH
  6
CONTINUOUS
 10
-2021.756701173498
 20
5944.295935921275
 30
0.0
 11
-2026.705070529182
 21
5939.347566565591
 31
0.0
1001
ACAD
1010
0.0
1020
0.0
1030
0.0
  0
LINE
  5
110FE
  8
1HATCH
  6
CONTINUOUS
 10
-2021.756701173498
 20
5946.540999951542
 30
0.0
 11
-2028.950134559449
 21
5939.347566565591
 31
0.0
1001
ACAD
1010
0.0
1020
0.0
1030
0.0
  0
LINE
  5
110FF
  8
1HATCH
  6
CONTINUOUS
 10
-2005.156701173501
 20
5965.386063981808
 30
0.0
 11
-2011.456701173502
 21
5959.086063981807
 31
0.0
1001
ACAD
1010
0.0
1020
0.0
1030
0.0
  0
LINE
  5
11100
  8
1HATCH
  6
CONTINUOUS
 10
-2005.156701173501
 20
5967.631128012074
 30
0.0
 11
-2011.456701173502
 21
5961.331128012073
 31
0.0
1001
ACAD
1010
0.0
1020
0.0
1030
0.0
  0
LINE
  5
11101
  8
1HATCH
  6
CONTINUOUS
 10
-2021.756701173499
 20
5948.786063981809
 30
0.0
 11
-2030.156701173501
 21
5940.386063981808
 31
0.0
1001
ACAD
1010
0.0
1020
0.0
1030
0.0
  0
LINE
  5
11102
  8
1HATCH
  6
CONTINUOUS
 10
-2021.756701173499
 20
5951.031128012076
 30
0.0
 11
-2030.156701173501
 21
5942.631128012074
 31
0.0
1001
ACAD
1010
0.0
1020
0.0
1030
0.0
  0
LINE
  5
11103
  8
1HATCH
  6
CONTINUOUS
 10
-2005.156701173501
 20
5969.876192042342
 30
0.0
 11
-2011.456701173502
 21
5963.576192042341
 31
0.0
1001
ACAD
1010
0.0
1020
0.0
1030
0.0
  0
LINE
  5
11104
  8
1HATCH
  6
CONTINUOUS
 10
-2023.685326650248
 20
5951.347566565594
 30
0.0
 11
-2030.156701173501
 21
5944.876192042342
 31
0.0
1001
ACAD
1010
0.0
1020
0.0
1030
0.0
  0
LINE
  5
11105
  8
1HATCH
  6
CONTINUOUS
 10
-2005.156701173501
 20
5972.121256072609
 30
0.0
 11
-2011.456701173502
 21
5965.821256072608
 31
0.0
1001
ACAD
1010
0.0
1020
0.0
1030
0.0
  0
LINE
  5
11106
  8
1HATCH
  6
CONTINUOUS
 10
-2005.156701173501
 20
5974.366320102877
 30
0.0
 11
-2011.456701173502
 21
5968.066320102876
 31
0.0
1001
ACAD
1010
0.0
1020
0.0
1030
0.0
  0
LINE
  5
11107
  8
1HATCH
  6
CONTINUOUS
 10
-2005.156701173501
 20
5976.611384133143
 30
0.0
 11
-2011.456701173502
 21
5970.311384133142
 31
0.0
1001
ACAD
1010
0.0
1020
0.0
1030
0.0
  0
LINE
  5
11108
  8
1HATCH
  6
CONTINUOUS
 10
-2005.156701173501
 20
5978.856448163411
 30
0.0
 11
-2011.456701173502
 21
5972.55644816341
 31
0.0
1001
ACAD
1010
0.0
1020
0.0
1030
0.0
  0
LINE
  5
11109
  8
1HATCH
  6
CONTINUOUS
 10
-2005.156701173501
 20
5981.101512193678
 30
0.0
 11
-2011.456701173502
 21
5974.801512193677
 31
0.0
1001
ACAD
1010
0.0
1020
0.0
1030
0.0
  0
LINE
  5
1110A
  8
1HATCH
  6
CONTINUOUS
 10
-2023.856701173501
 20
5953.421256072608
 30
0.0
 11
-2030.156701173501
 21
5947.121256072609
 31
0.0
1001
ACAD
1010
0.0
1020
0.0
1030
0.0
  0
LINE
  5
1110B
  8
1HATCH
  6
CONTINUOUS
 10
-2023.856701173501
 20
5955.666320102876
 30
0.0
 11
-2030.156701173501
 21
5949.366320102877
 31
0.0
1001
ACAD
1010
0.0
1020
0.0
1030
0.0
  0
LINE
  5
1110C
  8
1HATCH
  6
CONTINUOUS
 10
-2023.856701173501
 20
5957.911384133144
 30
0.0
 11
-2030.156701173501
 21
5951.611384133143
 31
0.0
1001
ACAD
1010
0.0
1020
0.0
1030
0.0
  0
LINE
  5
1110D
  8
1HATCH
  6
CONTINUOUS
 10
-2023.856701173501
 20
5960.15644816341
 30
0.0
 11
-2030.156701173501
 21
5953.856448163411
 31
0.0
1001
ACAD
1010
0.0
1020
0.0
1030
0.0
  0
LINE
  5
1110E
  8
1HATCH
  6
CONTINUOUS
 10
-2023.856701173501
 20
5962.401512193678
 30
0.0
 11
-2030.156701173501
 21
5956.101512193678
 31
0.0
1001
ACAD
1010
0.0
1020
0.0
1030
0.0
  0
LINE
  5
1110F
  8
1HATCH
  6
CONTINUOUS
 10
-2007.65585968769
 20
5980.847417709756
 30
0.0
 11
-2010.456701173502
 21
5978.046576223945
 31
0.0
1001
ACAD
1010
0.0
1020
0.0
1030
0.0
  0
LINE
  5
11110
  8
1HATCH
  6
CONTINUOUS
 10
-2010.655648087743
 20
5977.847629309703
 30
0.0
 11
-2011.456701173502
 21
5977.046576223945
 31
0.0
1001
ACAD
1010
0.0
1020
0.0
1030
0.0
  0
LINE
  5
11111
  8
1HATCH
  6
CONTINUOUS
 10
-2023.8567011735
 20
5964.646576223946
 30
0.0
 11
-2030.156701173501
 21
5958.346576223946
 31
0.0
1001
ACAD
1010
0.0
1020
0.0
1030
0.0
  0
LINE
  5
11112
  8
1HATCH
  6
CONTINUOUS
 10
-2009.900895778103
 20
5980.847445649611
 30
0.0
 11
-2010.456701173502
 21
5980.291640254211
 31
0.0
1001
ACAD
1010
0.0
1020
0.0
1030
0.0
  0
LINE
  5
11113
  8
1HATCH
  6
CONTINUOUS
 10
-2023.8567011735
 20
5966.891640254214
 30
0.0
 11
-2030.156701173501
 21
5960.591640254213
 31
0.0
1001
ACAD
1010
0.0
1020
0.0
1030
0.0
  0
LINE
  5
11114
  8
1HATCH
  6
CONTINUOUS
 10
-2023.8567011735
 20
5969.13670428448
 30
0.0
 11
-2030.156701173501
 21
5962.83670428448
 31
0.0
1001
ACAD
1010
0.0
1020
0.0
1030
0.0
  0
LINE
  5
11115
  8
1HATCH
  6
CONTINUOUS
 10
-2023.8567011735
 20
5971.381768314748
 30
0.0
 11
-2030.156701173501
 21
5965.081768314747
 31
0.0
1001
ACAD
1010
0.0
1020
0.0
1030
0.0
  0
LINE
  5
11116
  8
1HATCH
  6
CONTINUOUS
 10
-2023.8567011735
 20
5973.626832345016
 30
0.0
 11
-2030.156701173501
 21
5967.326832345015
 31
0.0
1001
ACAD
1010
0.0
1020
0.0
1030
0.0
  0
LINE
  5
11117
  8
1HATCH
  6
CONTINUOUS
 10
-2023.8567011735
 20
5975.871896375283
 30
0.0
 11
-2030.156701173501
 21
5969.571896375282
 31
0.0
1001
ACAD
1010
0.0
1020
0.0
1030
0.0
  0
LINE
  5
11118
  8
1HATCH
  6
CONTINUOUS
 10
-2024.12603889536
 20
5977.84762268369
 30
0.0
 11
-2030.156701173501
 21
5971.816960405549
 31
0.0
1001
ACAD
1010
0.0
1020
0.0
1030
0.0
  0
LINE
  5
11119
  8
1HATCH
  6
CONTINUOUS
 10
-2024.856701173499
 20
5979.362024435818
 30
0.0
 11
-2030.156701173501
 21
5974.062024435817
 31
0.0
1001
ACAD
1010
0.0
1020
0.0
1030
0.0
  0
LINE
  5
1111A
  8
1HATCH
  6
CONTINUOUS
 10
-2025.616180278439
 20
5980.847609361145
 30
0.0
 11
-2030.156701173501
 21
5976.307088466084
 31
0.0
1001
ACAD
1010
0.0
1020
0.0
1030
0.0
  0
LINE
  5
1111B
  8
1HATCH
  6
CONTINUOUS
 10
-2027.861192836737
 20
5980.847660833115
 30
0.0
 11
-2030.156701173501
 21
5978.552152496351
 31
0.0
1001
ACAD
1010
0.0
1020
0.0
1030
0.0
  0
LINE
  5
1111C
  8
1HATCH
  6
CONTINUOUS
 10
-2029.406325584764
 20
5981.547592115355
 30
0.0
 11
-2030.156701173501
 21
5980.797216526618
 31
0.0
1001
ACAD
1010
0.0
1020
0.0
1030
0.0
  0
LINE
  5
1111D
  8
1HATCH
  6
CONTINUOUS
 10
-1465.72053997611
 20
5830.268957733686
 30
0.0
 11
-1464.478759251149
 21
5831.510738458647
 31
0.0
1001
ACAD
1010
0.0
1020
0.0
1030
0.0
  0
LINE
  5
1111E
  8
1HATCH
  6
CONTINUOUS
 10
-1465.131720832988
 20
5829.510738458647
 30
0.0
 11
-1463.131720832988
 21
5831.510738458647
 31
0.0
1001
ACAD
1010
0.0
1020
0.0
1030
0.0
  0
LINE
  5
1111F
  8
1HATCH
  6
CONTINUOUS
 10
-1463.784682414828
 20
5829.510738458647
 30
0.0
 11
-1461.784682414828
 21
5831.510738458647
 31
0.0
1001
ACAD
1010
0.0
1020
0.0
1030
0.0
  0
LINE
  5
11120
  8
1HATCH
  6
CONTINUOUS
 10
-1462.437643996667
 20
5829.510738458647
 30
0.0
 11
-1460.437643996668
 21
5831.510738458647
 31
0.0
1001
ACAD
1010
0.0
1020
0.0
1030
0.0
  0
LINE
  5
11121
  8
1HATCH
  6
CONTINUOUS
 10
-1461.090605578507
 20
5829.510738458647
 30
0.0
 11
-1459.090605578507
 21
5831.510738458647
 31
0.0
1001
ACAD
1010
0.0
1020
0.0
1030
0.0
  0
LINE
  5
11122
  8
1HATCH
  6
CONTINUOUS
 10
-1459.743567160347
 20
5829.510738458647
 30
0.0
 11
-1457.743567160347
 21
5831.510738458647
 31
0.0
1001
ACAD
1010
0.0
1020
0.0
1030
0.0
  0
LINE
  5
11123
  8
1HATCH
  6
CONTINUOUS
 10
-1458.396528742187
 20
5829.510738458647
 30
0.0
 11
-1456.396528742187
 21
5831.510738458646
 31
0.0
1001
ACAD
1010
0.0
1020
0.0
1030
0.0
  0
LINE
  5
11124
  8
1HATCH
  6
CONTINUOUS
 10
-1457.049490324026
 20
5829.510738458647
 30
0.0
 11
-1455.049490324026
 21
5831.510738458646
 31
0.0
1001
ACAD
1010
0.0
1020
0.0
1030
0.0
  0
LINE
  5
11125
  8
1HATCH
  6
CONTINUOUS
 10
-1455.702451905866
 20
5829.510738458646
 30
0.0
 11
-1453.702451905866
 21
5831.510738458646
 31
0.0
1001
ACAD
1010
0.0
1020
0.0
1030
0.0
  0
LINE
  5
11126
  8
1HATCH
  6
CONTINUOUS
 10
-1462.837972561757
 20
5821.028179384595
 30
0.0
 11
-1462.355413487708
 21
5821.510738458644
 31
0.0
1001
ACAD
1010
0.0
1020
0.0
1030
0.0
  0
LINE
  5
11127
  8
1HATCH
  6
CONTINUOUS
 10
-1462.57091042646
 20
5819.948203101732
 30
0.0
 11
-1461.008375069547
 21
5821.510738458644
 31
0.0
1001
ACAD
1010
0.0
1020
0.0
1030
0.0
  0
LINE
  5
11128
  8
1HATCH
  6
CONTINUOUS
 10
-1454.355413487706
 20
5829.510738458646
 30
0.0
 11
-1452.355413487706
 21
5831.510738458646
 31
0.0
1001
ACAD
1010
0.0
1020
0.0
1030
0.0
  0
LINE
  5
11129
  8
1HATCH
  6
CONTINUOUS
 10
-1453.008375069546
 20
5829.510738458646
 30
0.0
 11
-1451.008375069546
 21
5831.510738458646
 31
0.0
1001
ACAD
1010
0.0
1020
0.0
1030
0.0
  0
LINE
  5
1112A
  8
1HATCH
  6
CONTINUOUS
 10
-1461.661336651385
 20
5819.510738458646
 30
0.0
 11
-1459.661336651387
 21
5821.510738458644
 31
0.0
1001
ACAD
1010
0.0
1020
0.0
1030
0.0
  0
LINE
  5
1112B
  8
1HATCH
  6
CONTINUOUS
 10
-1451.661336651385
 20
5829.510738458646
 30
0.0
 11
-1449.661336651385
 21
5831.510738458646
 31
0.0
1001
ACAD
1010
0.0
1020
0.0
1030
0.0
  0
LINE
  5
1112C
  8
1HATCH
  6
CONTINUOUS
 10
-1460.314298233225
 20
5819.510738458646
 30
0.0
 11
-1458.314298233227
 21
5821.510738458644
 31
0.0
1001
ACAD
1010
0.0
1020
0.0
1030
0.0
  0
LINE
  5
1112D
  8
1HATCH
  6
CONTINUOUS
 10
-1450.314298233225
 20
5829.510738458646
 30
0.0
 11
-1447.314298233226
 21
5832.510738458645
 31
0.0
1001
ACAD
1010
0.0
1020
0.0
1030
0.0
  0
LINE
  5
1112E
  8
1HATCH
  6
CONTINUOUS
 10
-1458.967259815065
 20
5819.510738458646
 30
0.0
 11
-1456.967259815066
 21
5821.510738458644
 31
0.0
1001
ACAD
1010
0.0
1020
0.0
1030
0.0
  0
LINE
  5
1112F
  8
1HATCH
  6
CONTINUOUS
 10
-1457.620221396904
 20
5819.510738458646
 30
0.0
 11
-1455.620221396906
 21
5821.510738458644
 31
0.0
1001
ACAD
1010
0.0
1020
0.0
1030
0.0
  0
LINE
  5
11130
  8
1HATCH
  6
CONTINUOUS
 10
-1448.967259815065
 20
5829.510738458646
 30
0.0
 11
-1446.488158151046
 21
5831.989840122665
 31
0.0
1001
ACAD
1010
0.0
1020
0.0
1030
0.0
  0
LINE
  5
11131
  8
1HATCH
  6
CONTINUOUS
 10
-1447.620221396904
 20
5829.510738458646
 30
0.0
 11
-1446.488174915376
 21
5830.642784940174
 31
0.0
1001
ACAD
1010
0.0
1020
0.0
1030
0.0
  0
LINE
  5
11132
  8
1HATCH
  6
CONTINUOUS
 10
-1456.273182978744
 20
5819.510738458646
 30
0.0
 11
-1454.273182978745
 21
5821.510738458645
 31
0.0
1001
ACAD
1010
0.0
1020
0.0
1030
0.0
  0
LINE
  5
11133
  8
1HATCH
  6
CONTINUOUS
 10
-1454.926144560583
 20
5819.510738458646
 30
0.0
 11
-1452.926144560585
 21
5821.510738458645
 31
0.0
1001
ACAD
1010
0.0
1020
0.0
1030
0.0
  0
LINE
  5
11134
  8
1HATCH
  6
CONTINUOUS
 10
-1453.579106142423
 20
5819.510738458646
 30
0.0
 11
-1451.579106142424
 21
5821.510738458645
 31
0.0
1001
ACAD
1010
0.0
1020
0.0
1030
0.0
  0
LINE
  5
11135
  8
1HATCH
  6
CONTINUOUS
 10
-1452.232067724263
 20
5819.510738458646
 30
0.0
 11
-1450.232067724264
 21
5821.510738458645
 31
0.0
1001
ACAD
1010
0.0
1020
0.0
1030
0.0
  0
LINE
  5
11136
  8
1HATCH
  6
CONTINUOUS
 10
-1450.885029306102
 20
5819.510738458646
 30
0.0
 11
-1448.885029306103
 21
5821.510738458645
 31
0.0
1001
ACAD
1010
0.0
1020
0.0
1030
0.0
  0
LINE
  5
11137
  8
1HATCH
  6
CONTINUOUS
 10
-1449.537990887942
 20
5819.510738458646
 30
0.0
 11
-1447.537990887943
 21
5821.510738458645
 31
0.0
1001
ACAD
1010
0.0
1020
0.0
1030
0.0
  0
LINE
  5
11138
  8
1HATCH
  6
CONTINUOUS
 10
-1448.488160423625
 20
5819.213530504803
 30
0.0
 11
-1446.614568441863
 21
5821.087122486565
 31
0.0
1001
ACAD
1010
0.0
1020
0.0
1030
0.0
  0
LINE
  5
11139
  8
1HATCH
  6
CONTINUOUS
 10
-1447.843914051621
 20
5818.510738458646
 30
0.0
 11
-1446.488168549586
 21
5819.866483960682
 31
0.0
1001
ACAD
1010
0.0
1020
0.0
1030
0.0
  0
LINE
  5
1113A
  8
1HATCH
  6
CONTINUOUS
 10
-1446.49687563346
 20
5818.510738458647
 30
0.0
 11
-1446.488151785674
 21
5818.519462306434
 31
0.0
1001
ACAD
1010
0.0
1020
0.0
1030
0.0
  0
LINE
  5
1113B
  8
1HATCH
  6
CONTINUOUS
 10
-1431.988106583005
 20
5835.987231536755
 30
0.0
 11
-1431.165991360223
 21
5836.809346759536
 31
0.0
1001
ACAD
1010
0.0
1020
0.0
1030
0.0
  0
LINE
  5
1113C
  8
1HATCH
  6
CONTINUOUS
 10
-1431.988123347335
 20
5834.640176354264
 30
0.0
 11
-1429.988098456531
 21
5836.640201245068
 31
0.0
1001
ACAD
1010
0.0
1020
0.0
1030
0.0
  0
LINE
  5
1113D
  8
1HATCH
  6
CONTINUOUS
 10
-1431.988140111665
 20
5833.293121171774
 30
0.0
 11
-1429.27181995305
 21
5836.00944133039
 31
0.0
1001
ACAD
1010
0.0
1020
0.0
1030
0.0
  0
LINE
  5
1113E
  8
1HATCH
  6
CONTINUOUS
 10
-1431.988156875995
 20
5831.946065989284
 30
0.0
 11
-1427.924798298802
 21
5836.009424566477
 31
0.0
1001
ACAD
1010
0.0
1020
0.0
1030
0.0
  0
LINE
  5
1113F
  8
1HATCH
  6
CONTINUOUS
 10
-1431.988173640325
 20
5830.599010806794
 30
0.0
 11
-1426.577776644554
 21
5836.009407802564
 31
0.0
1001
ACAD
1010
0.0
1020
0.0
1030
0.0
  0
LINE
  5
11140
  8
1HATCH
  6
CONTINUOUS
 10
-1430.730804685871
 20
5830.509341343087
 30
0.0
 11
-1429.18815555753
 21
5832.051990471427
 31
0.0
1001
ACAD
1010
0.0
1020
0.0
1030
0.0
  0
LINE
  5
11141
  8
1HATCH
  6
CONTINUOUS
 10
-1429.383783031623
 20
5830.509324579174
 30
0.0
 11
-1429.18817232186
 21
5830.704935288937
 31
0.0
1001
ACAD
1010
0.0
1020
0.0
1030
0.0
  0
LINE
  5
11142
  8
1HATCH
  6
CONTINUOUS
 10
-1428.230717655495
 20
5833.009428373463
 30
0.0
 11
-1425.230754990306
 21
5836.009391038651
 31
0.0
1001
ACAD
1010
0.0
1020
0.0
1030
0.0
  0
LINE
  5
11143
  8
1HATCH
  6
CONTINUOUS
 10
-1426.883696001247
 20
5833.009411609551
 30
0.0
 11
-1423.883733336059
 21
5836.009374274739
 31
0.0
1001
ACAD
1010
0.0
1020
0.0
1030
0.0
  0
LINE
  5
11144
  8
1HATCH
  6
CONTINUOUS
 10
-1425.536674346999
 20
5833.009394845638
 30
0.0
 11
-1422.536711681811
 21
5836.009357510826
 31
0.0
1001
ACAD
1010
0.0
1020
0.0
1030
0.0
  0
LINE
  5
11145
  8
1HATCH
  6
CONTINUOUS
 10
-1424.189652692752
 20
5833.009378081725
 30
0.0
 11
-1421.189690027563
 21
5836.009340746913
 31
0.0
1001
ACAD
1010
0.0
1020
0.0
1030
0.0
  0
LINE
  5
11146
  8
1HATCH
  6
CONTINUOUS
 10
-1422.842631038504
 20
5833.009361317812
 30
0.0
 11
-1419.842668373316
 21
5836.009323983001
 31
0.0
1001
ACAD
1010
0.0
1020
0.0
1030
0.0
  0
LINE
  5
11147
  8
1HATCH
  6
CONTINUOUS
 10
-1421.495609384256
 20
5833.0093445539
 30
0.0
 11
-1419.388710047717
 21
5835.116243890439
 31
0.0
1001
ACAD
1010
0.0
1020
0.0
1030
0.0
  0
LINE
  5
11148
  8
1HATCH
  6
CONTINUOUS
 10
-1420.148587730009
 20
5833.009327789987
 30
0.0
 11
-1419.388640447646
 21
5833.769275072349
 31
0.0
1001
ACAD
1010
0.0
1020
0.0
1030
0.0
  0
LINE
  5
11149
  8
1HATCH
  6
CONTINUOUS
 10
-1431.988307754964
 20
5819.822569346871
 30
0.0
 11
-1431.301528656767
 21
5820.509348445069
 31
0.0
1001
ACAD
1010
0.0
1020
0.0
1030
0.0
  0
LINE
  5
1114A
  8
1HATCH
  6
CONTINUOUS
 10
-1431.988324519294
 20
5818.475514164381
 30
0.0
 11
-1429.954507002519
 21
5820.509331681156
 31
0.0
1001
ACAD
1010
0.0
1020
0.0
1030
0.0
  0
LINE
  5
1114B
  8
1HATCH
  6
CONTINUOUS
 10
-1415.388707917816
 20
5835.075130765859
 30
0.0
 11
-1414.454581756325
 21
5836.00925692735
 31
0.0
1001
ACAD
1010
0.0
1020
0.0
1030
0.0
  0
LINE
  5
1114C
  8
1HATCH
  6
CONTINUOUS
 10
-1431.988341283624
 20
5817.128458981891
 30
0.0
 11
-1429.188306436499
 21
5819.928493829016
 31
0.0
1001
ACAD
1010
0.0
1020
0.0
1030
0.0
  0
LINE
  5
1114D
  8
1HATCH
  6
CONTINUOUS
 10
-1415.388638317745
 20
5833.72816194777
 30
0.0
 11
-1413.107560102078
 21
5836.009240163437
 31
0.0
1001
ACAD
1010
0.0
1020
0.0
1030
0.0
  0
LINE
  5
1114E
  8
1HATCH
  6
CONTINUOUS
 10
-1431.988358047955
 20
5815.781403799399
 30
0.0
 11
-1429.188323200829
 21
5818.581438646525
 31
0.0
1001
ACAD
1010
0.0
1020
0.0
1030
0.0
  0
LINE
  5
1114F
  8
1HATCH
  6
CONTINUOUS
 10
-1414.760501113018
 20
5833.009260734337
 30
0.0
 11
-1411.76053844783
 21
5836.009223399525
 31
0.0
1001
ACAD
1010
0.0
1020
0.0
1030
0.0
  0
LINE
  5
11150
  8
1HATCH
  6
CONTINUOUS
 10
-1431.988374812285
 20
5814.434348616909
 30
0.0
 11
-1428.411586190411
 21
5818.011137238783
 31
0.0
1001
ACAD
1010
0.0
1020
0.0
1030
0.0
  0
LINE
  5
11151
  8
1HATCH
  6
CONTINUOUS
 10
-1413.41347945877
 20
5833.009243970424
 30
0.0
 11
-1410.413516793582
 21
5836.009206635612
 31
0.0
1001
ACAD
1010
0.0
1020
0.0
1030
0.0
  0
LINE
  5
11152
  8
1HATCH
  6
CONTINUOUS
 10
-1430.866341982437
 20
5814.209343028596
 30
0.0
 11
-1427.064564536164
 21
5818.01112047487
 31
0.0
1001
ACAD
1010
0.0
1020
0.0
1030
0.0
  0
LINE
  5
11153
  8
1HATCH
  6
CONTINUOUS
 10
-1412.066457804522
 20
5833.009227206511
 30
0.0
 11
-1409.52730072368
 21
5835.548384287354
 31
0.0
1001
ACAD
1010
0.0
1020
0.0
1030
0.0
  0
LINE
  5
11154
  8
1HATCH
  6
CONTINUOUS
 10
-1428.717505547105
 20
5815.011141045768
 30
0.0
 11
-1425.717542881916
 21
5818.011103710957
 31
0.0
1001
ACAD
1010
0.0
1020
0.0
1030
0.0
  0
LINE
  5
11155
  8
1HATCH
  6
CONTINUOUS
 10
-1427.370483892857
 20
5815.011124281856
 30
0.0
 11
-1424.370521227668
 21
5818.011086947045
 31
0.0
1001
ACAD
1010
0.0
1020
0.0
1030
0.0
  0
LINE
  5
11156
  8
1HATCH
  6
CONTINUOUS
 10
-1410.719436150275
 20
5833.009210442598
 30
0.0
 11
-1408.988122096704
 21
5834.740524496169
 31
0.0
1001
ACAD
1010
0.0
1020
0.0
1030
0.0
  0
LINE
  5
11157
  8
1HATCH
  6
CONTINUOUS
 10
-1409.372414496027
 20
5833.009193678686
 30
0.0
 11
-1408.988138861034
 21
5833.393469313679
 31
0.0
1001
ACAD
1010
0.0
1020
0.0
1030
0.0
  0
LINE
  5
11158
  8
1HATCH
  6
CONTINUOUS
 10
-1426.023462238609
 20
5815.011107517944
 30
0.0
 11
-1423.02349957342
 21
5818.011070183133
 31
0.0
1001
ACAD
1010
0.0
1020
0.0
1030
0.0
  0
LINE
  5
11159
  8
1HATCH
  6
CONTINUOUS
 10
-1424.676440584361
 20
5815.011090754031
 30
0.0
 11
-1421.676477919172
 21
5818.01105341922
 31
0.0
1001
ACAD
1010
0.0
1020
0.0
1030
0.0
  0
LINE
  5
1115A
  8
1HATCH
  6
CONTINUOUS
 10
-1423.329418930113
 20
5815.011073990118
 30
0.0
 11
-1420.329456264924
 21
5818.011036655307
 31
0.0
1001
ACAD
1010
0.0
1020
0.0
1030
0.0
  0
LINE
  5
1115B
  8
1HATCH
  6
CONTINUOUS
 10
-1421.982397275865
 20
5815.011057226206
 30
0.0
 11
-1419.388347485796
 21
5817.605107016275
 31
0.0
1001
ACAD
1010
0.0
1020
0.0
1030
0.0
  0
LINE
  5
1115C
  8
1HATCH
  6
CONTINUOUS
 10
-1420.635375621617
 20
5815.011040462294
 30
0.0
 11
-1419.388347485796
 21
5816.258068598115
 31
0.0
1001
ACAD
1010
0.0
1020
0.0
1030
0.0
  0
LINE
  5
1115D
  8
1HATCH
  6
CONTINUOUS
 10
-1415.38821370156
 20
5817.56412554603
 30
0.0
 11
-1414.941369647934
 21
5818.010969599656
 31
0.0
1001
ACAD
1010
0.0
1020
0.0
1030
0.0
  0
LINE
  5
1115E
  8
1HATCH
  6
CONTINUOUS
 10
-1415.38821370156
 20
5816.217087127869
 30
0.0
 11
-1413.594347993686
 21
5818.010952835743
 31
0.0
1001
ACAD
1010
0.0
1020
0.0
1030
0.0
  0
LINE
  5
1115F
  8
1HATCH
  6
CONTINUOUS
 10
-1415.247289004627
 20
5815.010973406643
 30
0.0
 11
-1412.247326339439
 21
5818.010936071831
 31
0.0
1001
ACAD
1010
0.0
1020
0.0
1030
0.0
  0
LINE
  5
11160
  8
1HATCH
  6
CONTINUOUS
 10
-1413.900267350379
 20
5815.01095664273
 30
0.0
 11
-1410.900304685191
 21
5818.010919307918
 31
0.0
1001
ACAD
1010
0.0
1020
0.0
1030
0.0
  0
LINE
  5
11161
  8
1HATCH
  6
CONTINUOUS
 10
-1412.553245696131
 20
5815.010939878817
 30
0.0
 11
-1409.553283030943
 21
5818.010902544005
 31
0.0
1001
ACAD
1010
0.0
1020
0.0
1030
0.0
  0
LINE
  5
11162
  8
1HATCH
  6
CONTINUOUS
 10
-1411.206224041884
 20
5815.010923114904
 30
0.0
 11
-1408.988340032993
 21
5817.228807123795
 31
0.0
1001
ACAD
1010
0.0
1020
0.0
1030
0.0
  0
TEXT
  5
11163
  8
1DIM
  6
CONTINUOUS
 10
-1720.496119420406
 20
5880.366286065967
 30
0.0
 40
7.0
  1
Material：Aluminium
  0
TEXT
  5
11164
  8
1DIM
  6
CONTINUOUS
 10
-1720.496119420406
 20
5868.6996193993
 30
0.0
 40
7.0
  1
Finish：Various Finish
  0
LINE
  5
11166
  8
1DIM
 10
-1772.015822202442
 20
5925.331502478245
 30
0.0
 11
-1725.896119420406
 21
5867.2996193993
 31
0.0
1001
ACAD
1000
DSTYLE
1002
{
1070
    40
1040
2.0
1002
}
  0
LINE
  5
11167
  8
1DIM
 10
-1725.896119420406
 20
5867.2996193993
 30
0.0
 11
-1613.562786087073
 21
5867.2996193993
 31
0.0
1001
ACAD
1000
DSTYLE
1002
{
1070
    40
1040
2.0
1002
}
  0
TEXT
  5
11168
  8
1DIM
  6
CONTINUOUS
 10
-1529.916364781553
 20
6070.850388929774
 30
0.0
 40
7.0
  1
Material：Aluminium
  0
TEXT
  5
11169
  8
1DIM
  6
CONTINUOUS
 10
-1529.916364781553
 20
6059.183722263107
 30
0.0
 40
7.0
  1
Finish：Various Finish
  0
LINE
  5
1116B
  8
1DIM
 10
-1552.917049853358
 20
6032.433300340624
 30
0.0
 11
-1535.316364781553
 21
6057.783722263107
 31
0.0
1001
ACAD
1000
DSTYLE
1002
{
1070
    40
1040
2.0
1002
}
  0
LINE
  5
1116C
  8
1DIM
 10
-1535.316364781553
 20
6057.783722263107
 30
0.0
 11
-1422.98303144822
 21
6057.783722263107
 31
0.0
1001
ACAD
1000
DSTYLE
1002
{
1070
    40
1040
2.0
1002
}
  0
TEXT
  5
1116D
  8
1DIM
  6
CONTINUOUS
 10
-1981.406091719602
 20
6049.073351888477
 30
0.0
 40
7.0
  1
Material：Aluminium
  0
TEXT
  5
1116E
  8
1DIM
  6
CONTINUOUS
 10
-1981.406091719602
 20
6037.40668522181
 30
0.0
 40
7.0
  1
Finish：Various Finish
  0
LINE
  5
11170
  8
1DIM
 10
-2004.406776791407
 20
6010.656263299327
 30
0.0
 11
-1986.806091719602
 21
6036.006685221811
 31
0.0
1001
ACAD
1000
DSTYLE
1002
{
1070
    40
1040
2.0
1002
}
  0
LINE
  5
11171
  8
1DIM
 10
-1986.806091719602
 20
6036.006685221811
 30
0.0
 11
-1874.472758386269
 21
6036.006685221811
 31
0.0
1001
ACAD
1000
DSTYLE
1002
{
1070
    40
1040
2.0
1002
}
  0
TEXT
  5
11172
  8
1DIM
  6
CONTINUOUS
 10
-1498.345655519537
 20
5940.781167869465
 30
0.0
 40
7.0
  1
Glass door thickness
  0
TEXT
  5
11173
  8
1DIM
  6
CONTINUOUS
 10
-1498.345655519537
 20
5929.114501202798
 30
0.0
 40
7.0
  1
8~12mm
  0
LINE
  5
11175
  8
1DIM
 10
-1527.068877845318
 20
5980.349381498439
 30
0.0
 11
-1503.745655519537
 21
5927.714501202799
 31
0.0
1001
ACAD
1000
DSTYLE
1002
{
1070
    40
1040
2.0
1002
}
  0
LINE
  5
11176
  8
1DIM
 10
-1503.745655519537
 20
5927.714501202799
 30
0.0
 11
-1392.945655519537
 21
5927.714501202799
 31
0.0
1001
ACAD
1000
DSTYLE
1002
{
1070
    40
1040
2.0
1002
}
  0
LINE
  5
11177
  8
1DIM
 10
-1575.407402294677
 20
5993.847593166192
 30
0.0
 11
-1540.423257917457
 21
6035.540072911579
 31
0.0
1001
ACAD
1000
DSTYLE
1002
{
1070
    40
1040
2.0
1002
}
  0
LINE
  5
11178
  8
1DIM
 10
-1559.907402294679
 20
5993.847592488665
 30
0.0
 11
-1524.923257348946
 21
6035.540072911579
 31
0.0
1001
ACAD
1000
DSTYLE
1002
{
1070
    40
1040
2.0
1002
}
  0
LINE
  5
11179
  8
1DIM
 10
-1526.601456611301
 20
6033.540072911579
 30
0.0
 11
-1356.468123277967
 21
6033.540072911579
 31
0.0
1001
ACAD
1000
DSTYLE
1002
{
1070
    40
1040
2.0
1002
}
  0
LINE
  5
1117A
  8
1DIM
 10
-1538.101457179812
 20
6033.540072911579
 30
0.0
 11
-1530.601456611301
 21
6033.540072911579
 31
0.0
1001
ACAD
1000
DSTYLE
1002
{
1070
    40
1040
2.0
1002
}
  0
TEXT
  5
1117E
  8
1DIM
  6
CONTINUOUS
 10
-1686.128986708342
 20
6023.907389109558
 30
0.0
 40
7.0
  1
Material：Rubber
  0
TEXT
  5
1117F
  8
1DIM
  6
CONTINUOUS
 10
-1686.128986708342
 20
6012.240722442891
 30
0.0
 40
7.0
  1
Finish：Black
  0
LINE
  5
11181
  8
1DIM
 10
-1575.515989423071
 20
5990.75591886619
 30
0.0
 11
-1595.968228893143
 21
6010.840722442891
 31
0.0
1001
ACAD
1000
DSTYLE
1002
{
1070
    40
1040
2.0
1002
}
  0
LINE
  5
11182
  8
1DIM
 10
-1595.968228893143
 20
6010.840722442891
 30
0.0
 11
-1684.768228893143
 21
6010.840722442891
 31
0.0
1001
ACAD
1000
DSTYLE
1002
{
1070
    40
1040
2.0
1002
}
  0
TEXT
  5
11183
  8
1DIM
  6
CONTINUOUS
 10
-1982.924251566575
 20
6022.08438450941
 30
0.0
 40
7.0
  1
Material：Synthetic Rubber
  0
TEXT
  5
11184
  8
1DIM
  6
CONTINUOUS
 10
-1982.924251566575
 20
6010.417717842743
 30
0.0
 40
7.0
  1
Finish：Grey
  0
LINE
  5
11186
  8
1DIM
 10
-2007.238801046153
 20
5984.174682645649
 30
0.0
 11
-1988.324251566575
 21
6006.68438450941
 31
0.0
1001
ACAD
1000
DSTYLE
1002
{
1070
    40
1040
2.0
1002
}
  0
LINE
  5
11187
  8
1DIM
 10
-1988.324251566575
 20
6006.68438450941
 30
0.0
 11
-1847.990918233242
 21
6006.68438450941
 31
0.0
1001
ACAD
1000
DSTYLE
1002
{
1070
    40
1040
2.0
1002
}
  0
LINE
  5
11188
  8
1DIM
 10
-2017.657051734086
 20
5815.511305467929
 30
0.0
 11
-2017.657051734086
 21
5762.931011216664
 31
0.0
1001
ACAD
1000
DSTYLE
1002
{
1070
    40
1040
2.0
1002
}
  0
LINE
  5
11189
  8
1DIM
 10
-1567.657051734089
 20
5815.511305467929
 30
0.0
 11
-1567.657051734089
 21
5762.931011216664
 31
0.0
1001
ACAD
1000
DSTYLE
1002
{
1070
    40
1040
2.0
1002
}
  0
LINE
  5
1118A
  8
1DIM
 10
-2013.657051734086
 20
5764.931011216664
 30
0.0
 11
-1571.657051734089
 21
5764.931011216664
 31
0.0
1001
ACAD
1000
DSTYLE
1002
{
1070
    40
1040
2.0
1002
}
  0
LINE
  5
1118E
  8
1DIM
 10
-2042.657051734088
 20
5815.509983697926
 30
0.0
 11
-2042.657051734088
 21
5745.625289716497
 31
0.0
1001
ACAD
1000
DSTYLE
1002
{
1070
    40
1040
2.0
1002
}
  0
LINE
  5
1118F
  8
1DIM
 10
-1542.657051734087
 20
5815.509983697928
 30
0.0
 11
-1542.657051734087
 21
5745.625289716497
 31
0.0
1001
ACAD
1000
DSTYLE
1002
{
1070
    40
1040
2.0
1002
}
  0
LINE
  5
11190
  8
1DIM
 10
-2038.657051734088
 20
5747.625289716497
 30
0.0
 11
-1546.657051734087
 21
5747.625289716497
 31
0.0
1001
ACAD
1000
DSTYLE
1002
{
1070
    40
1040
2.0
1002
}
  0
LINE
  5
11194
  8
1DIM
 10
-1444.98823696922
 20
5780.56765130931
 30
0.0
 11
-1444.98823696922
 21
5745.625289716497
 31
0.0
1001
ACAD
1000
DSTYLE
1002
{
1070
    40
1040
2.0
1002
}
  0
LINE
  5
11195
  8
1DIM
 10
-1509.488264181781
 20
5815.510738458645
 30
0.0
 11
-1509.488264181781
 21
5745.625289716497
 31
0.0
1001
ACAD
1000
DSTYLE
1002
{
1070
    40
1040
2.0
1002
}
  0
LINE
  5
11196
  8
1DIM
 10
-1448.98823696922
 20
5747.625289716497
 30
0.0
 11
-1505.488264181781
 21
5747.625289716497
 31
0.0
1001
ACAD
1000
DSTYLE
1002
{
1070
    40
1040
2.0
1002
}
  0
LINE
  5
1119A
  8
1DIM
 10
-1432.98823696922
 20
5780.56765130931
 30
0.0
 11
-1432.98823696922
 21
5745.625289716497
 31
0.0
1001
ACAD
1000
DSTYLE
1002
{
1070
    40
1040
2.0
1002
}
  0
LINE
  5
1119B
  8
1DIM
 10
-1392.688236969218
 20
5784.509983697933
 30
0.0
 11
-1392.688236969218
 21
5745.625289716497
 31
0.0
1001
ACAD
1000
DSTYLE
1002
{
1070
    40
1040
2.0
1002
}
  0
LINE
  5
1119C
  8
1DIM
 10
-1428.98823696922
 20
5747.625289716497
 30
0.0
 11
-1396.688236969218
 21
5747.625289716497
 31
0.0
1001
ACAD
1000
DSTYLE
1002
{
1070
    40
1040
2.0
1002
}
  0
LINE
  5
111A0
  8
1DIM
 10
-1432.98823696922
 20
5780.56765130931
 30
0.0
 11
-1432.98823696922
 21
5760.376705439269
 31
0.0
1001
ACAD
1000
DSTYLE
1002
{
1070
    40
1040
2.0
1070
   271
1070
     0
1002
}
  0
LINE
  5
111A1
  8
1DIM
 10
-1408.688236969218
 20
5784.509983697933
 30
0.0
 11
-1408.688236969218
 21
5760.376705439269
 31
0.0
1001
ACAD
1000
DSTYLE
1002
{
1070
    40
1040
2.0
1070
   271
1070
     0
1002
}
  0
LINE
  5
111A2
  8
1DIM
 10
-1428.98823696922
 20
5762.376705439269
 30
0.0
 11
-1412.688236969218
 21
5762.376705439269
 31
0.0
1001
ACAD
1000
DSTYLE
1002
{
1070
    40
1040
2.0
1070
   271
1070
     0
1002
}
  0
LINE
  5
111A6
  8
1DIM
 10
-1444.98823696922
 20
5780.56765130931
 30
0.0
 11
-1444.98823696922
 21
5760.376705439269
 31
0.0
1001
ACAD
1000
DSTYLE
1002
{
1070
    40
1040
2.0
1002
}
  0
LINE
  5
111A7
  8
1DIM
 10
-1487.488264181778
 20
5815.510738458644
 30
0.0
 11
-1487.488264181778
 21
5760.376705439269
 31
0.0
1001
ACAD
1000
DSTYLE
1002
{
1070
    40
1040
2.0
1002
}
  0
LINE
  5
111A8
  8
1DIM
 10
-1448.98823696922
 20
5762.376705439269
 30
0.0
 11
-1483.488264181778
 21
5762.376705439269
 31
0.0
1001
ACAD
1000
DSTYLE
1002
{
1070
    40
1040
2.0
1002
}
  0
LINE
  5
111AC
  8
1DIM
 10
-1487.488264181778
 20
5815.510738458644
 30
0.0
 11
-1487.488264181778
 21
5760.376705439269
 31
0.0
1001
ACAD
1000
DSTYLE
1002
{
1070
    40
1040
2.0
1002
}
  0
LINE
  5
111AD
  8
1DIM
 10
-1509.488264181781
 20
5815.510738458645
 30
0.0
 11
-1509.488264181781
 21
5760.376705439269
 31
0.0
1001
ACAD
1000
DSTYLE
1002
{
1070
    40
1040
2.0
1002
}
  0
LINE
  5
111AE
  8
1DIM
 10
-1491.488264181778
 20
5762.376705439269
 30
0.0
 11
-1505.488264181781
 21
5762.376705439269
 31
0.0
1001
ACAD
1000
DSTYLE
1002
{
1070
    40
1040
2.0
1002
}
  0
LINE
  5
111B2
  8
1DIM
 10
-1508.488264181781
 20
5814.510738458645
 30
0.0
 11
-1524.339593041347
 21
5814.510738458645
 31
0.0
1001
ACAD
1000
DSTYLE
1002
{
1070
    40
1040
2.0
1002
}
  0
LINE
  5
111B3
  8
1DIM
 10
-1508.488264181781
 20
5836.510738458646
 30
0.0
 11
-1524.339593041347
 21
5836.510738458646
 31
0.0
1001
ACAD
1000
DSTYLE
1002
{
1070
    40
1040
2.0
1002
}
  0
LINE
  5
111B4
  8
1DIM
 10
-1522.339593041347
 20
5818.510738458645
 30
0.0
 11
-1522.339593041347
 21
5832.510738458646
 31
0.0
1001
ACAD
1000
DSTYLE
1002
{
1070
    40
1040
2.0
1002
}
  0
LINE
  5
111B8
  8
1DIM
 10
-1394.688236969218
 20
5782.509983697933
 30
0.0
 11
-1361.511316685342
 21
5782.509983697933
 31
0.0
1001
ACAD
1000
DSTYLE
1002
{
1070
    40
1040
2.0
1002
}
  0
LINE
  5
111B9
  8
1DIM
 10
-1394.688236969221
 20
5838.009983697933
 30
0.0
 11
-1361.511316685342
 21
5838.009983697933
 31
0.0
1001
ACAD
1000
DSTYLE
1002
{
1070
    40
1040
2.0
1002
}
  0
LINE
  5
111BA
  8
1DIM
 10
-1363.511316685342
 20
5786.509983697933
 30
0.0
 11
-1363.511316685342
 21
5834.009983697933
 31
0.0
1001
ACAD
1000
DSTYLE
1002
{
1070
    40
1040
2.0
1002
}
  0
LINE
  5
111BE
  8
1DIM
 10
-1394.688236969221
 20
5838.009983697933
 30
0.0
 11
-1375.463494121902
 21
5838.009983697933
 31
0.0
1001
ACAD
1000
DSTYLE
1002
{
1070
    40
1040
2.0
1002
}
  0
LINE
  5
111BF
  8
1DIM
 10
-1414.388347485796
 20
5813.509983670506
 30
0.0
 11
-1375.463494121902
 21
5813.509983670506
 31
0.0
1001
ACAD
1000
DSTYLE
1002
{
1070
    40
1040
2.0
1002
}
  0
LINE
  5
111C0
  8
1DIM
 10
-1377.463494121902
 20
5834.009983697933
 30
0.0
 11
-1377.463494121902
 21
5817.509983670506
 31
0.0
1001
ACAD
1000
DSTYLE
1002
{
1070
    40
1040
2.0
1002
}
  0
LINE
  5
111C4
  8
1DIM
 10
-1555.157402294675
 20
6033.147593775557
 30
0.0
 11
-1555.157402294675
 21
6058.11492895684
 31
0.0
1001
ACAD
1000
DSTYLE
1002
{
1070
    40
1040
2.0
1002
}
  0
LINE
  5
111C5
  8
1DIM
 10
-1580.157402294675
 20
6033.147593775557
 30
0.0
 11
-1580.157402294675
 21
6058.11492895684
 31
0.0
1001
ACAD
1000
DSTYLE
1002
{
1070
    40
1040
2.0
1002
}
  0
LINE
  5
111C6
  8
1DIM
 10
-1559.157402294675
 20
6056.11492895684
 30
0.0
 11
-1576.157402294675
 21
6056.11492895684
 31
0.0
1001
ACAD
1000
DSTYLE
1002
{
1070
    40
1040
2.0
1002
}
  0
LINE
  5
111CA
  8
1DIM
 10
-2005.157051734088
 20
6007.147593778152
 30
0.0
 11
-2005.157051734088
 21
6058.11492895684
 31
0.0
1001
ACAD
1000
DSTYLE
1002
{
1070
    40
1040
2.0
1002
}
  0
LINE
  5
111CB
  8
1DIM
 10
-2030.15705173409
 20
6007.147593778152
 30
0.0
 11
-2030.15705173409
 21
6058.11492895684
 31
0.0
1001
ACAD
1000
DSTYLE
1002
{
1070
    40
1040
2.0
1002
}
  0
LINE
  5
111CC
  8
1DIM
 10
-2009.157051734088
 20
6056.11492895684
 30
0.0
 11
-2026.15705173409
 21
6056.11492895684
 31
0.0
1001
ACAD
1000
DSTYLE
1002
{
1070
    40
1040
2.0
1002
}
  0
TEXT
  5
111D0
  8
1DIM
  6
CONTINUOUS
 10
-1442.42123075924
 20
5712.115064191494
 30
0.0
 40
10.5
  1
(S=1:2)
  0
LINE
  5
111D1
  8
0
  6
BYBLOCK
 10
-1772.854906815985
 20
5924.664656411352
 30
0.0
 11
-1774.50452739221
 21
5928.463011136771
 31
0.0
  0
LINE
  5
111D2
  8
0
  6
BYBLOCK
 10
-1774.50452739221
 20
5928.463011136771
 30
0.0
 11
-1771.176737588899
 21
5925.998348545138
 31
0.0
  0
LINE
  5
111D3
  8
0
  6
BYBLOCK
 10
-1774.50452739221
 20
5928.463011136771
 30
0.0
 11
-1772.015822202442
 21
5925.331502478245
 31
0.0
  0
LINE
  5
111D4
  8
0
  6
BYBLOCK
 10
-1552.036647398042
 20
6031.822040835758
 30
0.0
 11
-1555.198303020437
 21
6029.1475912866
 31
0.0
  0
LINE
  5
111D5
  8
0
  6
BYBLOCK
 10
-1555.198303020437
 20
6029.1475912866
 30
0.0
 11
-1553.797452308675
 21
6033.044559845489
 31
0.0
  0
LINE
  5
111D6
  8
0
  6
BYBLOCK
 10
-1555.198303020437
 20
6029.1475912866
 30
0.0
 11
-1552.917049853358
 21
6032.433300340624
 31
0.0
  0
LINE
  5
111D7
  8
0
  6
BYBLOCK
 10
-2003.526374336091
 20
6010.045003794462
 30
0.0
 11
-2006.688029958486
 21
6007.370554245304
 31
0.0
  0
LINE
  5
111D8
  8
0
  6
BYBLOCK
 10
-2006.688029958486
 20
6007.370554245304
 30
0.0
 11
-2005.287179246724
 21
6011.267522804193
 31
0.0
  0
LINE
  5
111D9
  8
0
  6
BYBLOCK
 10
-2006.688029958486
 20
6007.370554245304
 30
0.0
 11
-2004.406776791407
 21
6010.656263299327
 31
0.0
  0
LINE
  5
111DA
  8
0
  6
BYBLOCK
 10
-1528.048780859593
 20
5979.915173313083
 30
0.0
 11
-1528.689366017906
 21
5984.006431960561
 31
0.0
  0
LINE
  5
111DB
  8
0
  6
BYBLOCK
 10
-1528.689366017906
 20
5984.006431960561
 30
0.0
 11
-1526.088974831043
 21
5980.783589683796
 31
0.0
  0
LINE
  5
111DC
  8
0
  6
BYBLOCK
 10
-1528.689366017906
 20
5984.006431960561
 30
0.0
 11
-1527.068877845318
 21
5980.349381498439
 31
0.0
  0
LINE
  5
111DD
  8
0
  6
BYBLOCK
 10
-1538.101457179812
 20
6032.468276911579
 30
0.0
 11
-1542.101457179812
 21
6033.540072911579
 31
0.0
  0
LINE
  5
111DE
  8
0
  6
BYBLOCK
 10
-1542.101457179812
 20
6033.540072911579
 30
0.0
 11
-1538.101457179812
 21
6034.611868911579
 31
0.0
  0
LINE
  5
111DF
  8
0
  6
BYBLOCK
 10
-1542.101457179812
 20
6033.540072911579
 30
0.0
 11
-1538.101457179812
 21
6033.540072911579
 31
0.0
  0
LINE
  5
111E0
  8
0
  6
BYBLOCK
 10
-1530.601456611301
 20
6034.611868911579
 30
0.0
 11
-1526.601456611301
 21
6033.540072911579
 31
0.0
  0
LINE
  5
111E1
  8
0
  6
BYBLOCK
 10
-1526.601456611301
 20
6033.540072911579
 30
0.0
 11
-1530.601456611301
 21
6032.468276911579
 31
0.0
  0
LINE
  5
111E2
  8
0
  6
BYBLOCK
 10
-1526.601456611301
 20
6033.540072911579
 30
0.0
 11
-1530.601456611301
 21
6033.540072911579
 31
0.0
  0
TEXT
  5
111E3
  8
1DIM
  6
CONTINUOUS
 10
-1530.554234389078
 20
6037.273406244913
 30
0.0
 40
7.0
  1
Glass door hole processing:φ16
1001
ACAD
1000
DSTYLE
1002
{
1070
    40
1040
2.0
1002
}
  0
LINE
  5
111E4
  8
0
  6
BYBLOCK
 10
-1574.765015576716
 20
5991.520631196225
 30
0.0
 11
-1572.66204210461
 21
5987.953244303661
 31
0.0
  0
LINE
  5
111E5
  8
0
  6
BYBLOCK
 10
-1572.66204210461
 20
5987.953244303661
 30
0.0
 11
-1576.266963269426
 21
5989.991206536156
 31
0.0
  0
LINE
  5
111E6
  8
0
  6
BYBLOCK
 10
-1572.66204210461
 20
5987.953244303661
 30
0.0
 11
-1575.515989423071
 21
5990.75591886619
 31
0.0
  0
LINE
  5
111E7
  8
0
  6
BYBLOCK
 10
-2006.418236546076
 20
5983.485175164305
 30
0.0
 11
-2009.812079846761
 21
5981.11229204118
 31
0.0
  0
LINE
  5
111E8
  8
0
  6
BYBLOCK
 10
-2009.812079846761
 20
5981.11229204118
 30
0.0
 11
-2008.05936554623
 21
5984.864190126993
 31
0.0
  0
LINE
  5
111E9
  8
0
  6
BYBLOCK
 10
-2009.812079846761
 20
5981.11229204118
 30
0.0
 11
-2007.238801046153
 21
5984.174682645649
 31
0.0
  0
LINE
  5
111EA
  8
0
  6
BYBLOCK
 10
-2013.657051734086
 20
5763.859215216664
 30
0.0
 11
-2017.657051734086
 21
5764.931011216664
 31
0.0
  0
LINE
  5
111EB
  8
0
  6
BYBLOCK
 10
-2017.657051734086
 20
5764.931011216664
 30
0.0
 11
-2013.657051734086
 21
5766.002807216664
 31
0.0
  0
LINE
  5
111EC
  8
0
  6
BYBLOCK
 10
-2017.657051734086
 20
5764.931011216664
 30
0.0
 11
-2013.657051734086
 21
5764.931011216664
 31
0.0
  0
LINE
  5
111ED
  8
0
  6
BYBLOCK
 10
-1571.657051734089
 20
5766.002807216664
 30
0.0
 11
-1567.657051734089
 21
5764.931011216664
 31
0.0
  0
LINE
  5
111EE
  8
0
  6
BYBLOCK
 10
-1567.657051734089
 20
5764.931011216664
 30
0.0
 11
-1571.657051734089
 21
5763.859215216664
 31
0.0
  0
LINE
  5
111EF
  8
0
  6
BYBLOCK
 10
-1567.657051734089
 20
5764.931011216664
 30
0.0
 11
-1571.657051734089
 21
5764.931011216664
 31
0.0
  0
TEXT
  5
111F0
  8
1DIM
  6
CONTINUOUS
 10
-1805.077190622977
 20
5766.331011216665
 30
0.0
 40
7.0
  1
P450
1001
ACAD
1000
DSTYLE
1002
{
1070
    40
1040
2.0
1002
}
  0
LINE
  5
111F1
  8
0
  6
BYBLOCK
 10
-2038.657051734088
 20
5746.553493716497
 30
0.0
 11
-2042.657051734088
 21
5747.625289716497
 31
0.0
  0
LINE
  5
111F2
  8
0
  6
BYBLOCK
 10
-2042.657051734088
 20
5747.625289716497
 30
0.0
 11
-2038.657051734088
 21
5748.697085716497
 31
0.0
  0
LINE
  5
111F3
  8
0
  6
BYBLOCK
 10
-2042.657051734088
 20
5747.625289716497
 30
0.0
 11
-2038.657051734088
 21
5747.625289716497
 31
0.0
  0
LINE
  5
111F4
  8
0
  6
BYBLOCK
 10
-1546.657051734087
 20
5748.697085716497
 30
0.0
 11
-1542.657051734087
 21
5747.625289716497
 31
0.0
  0
LINE
  5
111F5
  8
0
  6
BYBLOCK
 10
-1542.657051734087
 20
5747.625289716497
 30
0.0
 11
-1546.657051734087
 21
5746.553493716497
 31
0.0
  0
LINE
  5
111F6
  8
0
  6
BYBLOCK
 10
-1542.657051734087
 20
5747.625289716497
 30
0.0
 11
-1546.657051734087
 21
5747.625289716497
 31
0.0
  0
TEXT
  5
111F7
  8
1DIM
  6
CONTINUOUS
 10
-1800.993857289643
 20
5749.025289716497
 30
0.0
 40
7.0
  1
500
1001
ACAD
1000
DSTYLE
1002
{
1070
    40
1040
2.0
1002
}
  0
LINE
  5
111F8
  8
0
  6
BYBLOCK
 10
-1448.98823696922
 20
5748.697085716497
 30
0.0
 11
-1444.98823696922
 21
5747.625289716497
 31
0.0
  0
LINE
  5
111F9
  8
0
  6
BYBLOCK
 10
-1444.98823696922
 20
5747.625289716497
 30
0.0
 11
-1448.98823696922
 21
5746.553493716497
 31
0.0
  0
LINE
  5
111FA
  8
0
  6
BYBLOCK
 10
-1444.98823696922
 20
5747.625289716497
 30
0.0
 11
-1448.98823696922
 21
5747.625289716497
 31
0.0
  0
LINE
  5
111FB
  8
0
  6
BYBLOCK
 10
-1505.488264181781
 20
5746.553493716497
 30
0.0
 11
-1509.488264181781
 21
5747.625289716497
 31
0.0
  0
LINE
  5
111FC
  8
0
  6
BYBLOCK
 10
-1509.488264181781
 20
5747.625289716497
 30
0.0
 11
-1505.488264181781
 21
5748.697085716497
 31
0.0
  0
LINE
  5
111FD
  8
0
  6
BYBLOCK
 10
-1509.488264181781
 20
5747.625289716497
 30
0.0
 11
-1505.488264181781
 21
5747.625289716497
 31
0.0
  0
TEXT
  5
111FE
  8
1DIM
  6
CONTINUOUS
 10
-1487.762556131056
 20
5749.025289716497
 30
0.0
 40
7.0
  1
64.5
1001
ACAD
1000
DSTYLE
1002
{
1070
    40
1040
2.0
1002
}
  0
LINE
  5
111FF
  8
0
  6
BYBLOCK
 10
-1428.98823696922
 20
5746.553493716497
 30
0.0
 11
-1432.98823696922
 21
5747.625289716497
 31
0.0
  0
LINE
  5
11200
  8
0
  6
BYBLOCK
 10
-1432.98823696922
 20
5747.625289716497
 30
0.0
 11
-1428.98823696922
 21
5748.697085716497
 31
0.0
  0
LINE
  5
11201
  8
0
  6
BYBLOCK
 10
-1432.98823696922
 20
5747.625289716497
 30
0.0
 11
-1428.98823696922
 21
5747.625289716497
 31
0.0
  0
LINE
  5
11202
  8
0
  6
BYBLOCK
 10
-1396.688236969218
 20
5748.697085716497
 30
0.0
 11
-1392.688236969218
 21
5747.625289716497
 31
0.0
  0
LINE
  5
11203
  8
0
  6
BYBLOCK
 10
-1392.688236969218
 20
5747.625289716497
 30
0.0
 11
-1396.688236969218
 21
5746.553493716497
 31
0.0
  0
LINE
  5
11204
  8
0
  6
BYBLOCK
 10
-1392.688236969218
 20
5747.625289716497
 30
0.0
 11
-1396.688236969218
 21
5747.625289716497
 31
0.0
  0
TEXT
  5
11205
  8
1DIM
  6
CONTINUOUS
 10
-1422.754903635886
 20
5749.025289716496
 30
0.0
 40
7.0
  1
40.3
1001
ACAD
1000
DSTYLE
1002
{
1070
    40
1040
2.0
1002
}
  0
LINE
  5
11206
  8
0
  6
BYBLOCK
 10
-1428.98823696922
 20
5761.304909439269
 30
0.0
 11
-1432.98823696922
 21
5762.376705439269
 31
0.0
  0
LINE
  5
11207
  8
0
  6
BYBLOCK
 10
-1432.98823696922
 20
5762.376705439269
 30
0.0
 11
-1428.98823696922
 21
5763.448501439269
 31
0.0
  0
LINE
  5
11208
  8
0
  6
BYBLOCK
 10
-1432.98823696922
 20
5762.376705439269
 30
0.0
 11
-1428.98823696922
 21
5762.376705439269
 31
0.0
  0
LINE
  5
11209
  8
0
  6
BYBLOCK
 10
-1412.688236969218
 20
5763.448501439269
 30
0.0
 11
-1408.688236969218
 21
5762.376705439269
 31
0.0
  0
LINE
  5
1120A
  8
0
  6
BYBLOCK
 10
-1408.688236969218
 20
5762.376705439269
 30
0.0
 11
-1412.688236969218
 21
5761.304909439269
 31
0.0
  0
LINE
  5
1120B
  8
0
  6
BYBLOCK
 10
-1408.688236969218
 20
5762.376705439269
 30
0.0
 11
-1412.688236969218
 21
5762.376705439269
 31
0.0
  0
TEXT
  5
1120C
  8
1DIM
  6
CONTINUOUS
 10
-1426.671570302552
 20
5763.776705439269
 30
0.0
 40
7.0
  1
24
1001
ACAD
1000
DSTYLE
1002
{
1070
    40
1040
2.0
1070
   271
1070
     0
1002
}
  0
LINE
  5
1120D
  8
0
  6
BYBLOCK
 10
-1448.98823696922
 20
5763.448501439269
 30
0.0
 11
-1444.98823696922
 21
5762.376705439269
 31
0.0
  0
LINE
  5
1120E
  8
0
  6
BYBLOCK
 10
-1444.98823696922
 20
5762.376705439269
 30
0.0
 11
-1448.98823696922
 21
5761.304909439269
 31
0.0
  0
LINE
  5
1120F
  8
0
  6
BYBLOCK
 10
-1444.98823696922
 20
5762.376705439269
 30
0.0
 11
-1448.98823696922
 21
5762.376705439269
 31
0.0
  0
LINE
  5
11210
  8
0
  6
BYBLOCK
 10
-1483.488264181778
 20
5761.304909439269
 30
0.0
 11
-1487.488264181778
 21
5762.376705439269
 31
0.0
  0
LINE
  5
11211
  8
0
  6
BYBLOCK
 10
-1487.488264181778
 20
5762.376705439269
 30
0.0
 11
-1483.488264181778
 21
5763.448501439269
 31
0.0
  0
LINE
  5
11212
  8
0
  6
BYBLOCK
 10
-1487.488264181778
 20
5762.376705439269
 30
0.0
 11
-1483.488264181778
 21
5762.376705439269
 31
0.0
  0
TEXT
  5
11213
  8
1DIM
  6
CONTINUOUS
 10
-1476.738250575499
 20
5763.77670543927
 30
0.0
 40
7.0
  1
42.5
1001
ACAD
1000
DSTYLE
1002
{
1070
    40
1040
2.0
1002
}
  0
LINE
  5
11214
  8
0
  6
BYBLOCK
 10
-1491.488264181778
 20
5763.448501439269
 30
0.0
 11
-1487.488264181778
 21
5762.376705439269
 31
0.0
  0
LINE
  5
11215
  8
0
  6
BYBLOCK
 10
-1487.488264181778
 20
5762.376705439269
 30
0.0
 11
-1491.488264181778
 21
5761.304909439269
 31
0.0
  0
LINE
  5
11216
  8
0
  6
BYBLOCK
 10
-1487.488264181778
 20
5762.376705439269
 30
0.0
 11
-1491.488264181778
 21
5762.376705439269
 31
0.0
  0
LINE
  5
11217
  8
0
  6
BYBLOCK
 10
-1505.488264181781
 20
5761.304909439269
 30
0.0
 11
-1509.488264181781
 21
5762.376705439269
 31
0.0
  0
LINE
  5
11218
  8
0
  6
BYBLOCK
 10
-1509.488264181781
 20
5762.376705439269
 30
0.0
 11
-1505.488264181781
 21
5763.448501439269
 31
0.0
  0
LINE
  5
11219
  8
0
  6
BYBLOCK
 10
-1509.488264181781
 20
5762.376705439269
 30
0.0
 11
-1505.488264181781
 21
5762.376705439269
 31
0.0
  0
TEXT
  5
1121A
  8
1DIM
  6
CONTINUOUS
 10
-1504.321597515113
 20
5763.776705439269
 30
0.0
 40
7.0
  1
22
1001
ACAD
1000
DSTYLE
1002
{
1070
    40
1040
2.0
1002
}
  0
LINE
  5
1121B
  8
0
  6
BYBLOCK
 10
-1521.267797041347
 20
5818.510738458645
 30
0.0
 11
-1522.339593041347
 21
5814.510738458645
 31
0.0
  0
LINE
  5
1121C
  8
0
  6
BYBLOCK
 10
-1522.339593041347
 20
5814.510738458645
 30
0.0
 11
-1523.411389041347
 21
5818.510738458645
 31
0.0
  0
LINE
  5
1121D
  8
0
  6
BYBLOCK
 10
-1522.339593041347
 20
5814.510738458645
 30
0.0
 11
-1522.339593041347
 21
5818.510738458645
 31
0.0
  0
LINE
  5
1121E
  8
0
  6
BYBLOCK
 10
-1523.411389041347
 20
5832.510738458646
 30
0.0
 11
-1522.339593041347
 21
5836.510738458646
 31
0.0
  0
LINE
  5
1121F
  8
0
  6
BYBLOCK
 10
-1522.339593041347
 20
5836.510738458646
 30
0.0
 11
-1521.267797041347
 21
5832.510738458646
 31
0.0
  0
LINE
  5
11220
  8
0
  6
BYBLOCK
 10
-1522.339593041347
 20
5836.510738458646
 30
0.0
 11
-1522.339593041347
 21
5832.510738458646
 31
0.0
  0
TEXT
  5
11221
  8
1DIM
  6
CONTINUOUS
 10
-1523.739593041348
 20
5819.677405125313
 30
0.0
 40
7.0
  1
22
 50
90.0
1001
ACAD
1000
DSTYLE
1002
{
1070
    40
1040
2.0
1002
}
  0
LINE
  5
11222
  8
0
  6
BYBLOCK
 10
-1362.439520685342
 20
5786.509983697933
 30
0.0
 11
-1363.511316685342
 21
5782.509983697933
 31
0.0
  0
LINE
  5
11223
  8
0
  6
BYBLOCK
 10
-1363.511316685342
 20
5782.509983697933
 30
0.0
 11
-1364.583112685342
 21
5786.509983697933
 31
0.0
  0
LINE
  5
11224
  8
0
  6
BYBLOCK
 10
-1363.511316685342
 20
5782.509983697933
 30
0.0
 11
-1363.511316685342
 21
5786.509983697933
 31
0.0
  0
LINE
  5
11225
  8
0
  6
BYBLOCK
 10
-1364.583112685342
 20
5834.009983697933
 30
0.0
 11
-1363.511316685342
 21
5838.009983697933
 31
0.0
  0
LINE
  5
11226
  8
0
  6
BYBLOCK
 10
-1363.511316685342
 20
5838.009983697933
 30
0.0
 11
-1362.439520685342
 21
5834.009983697933
 31
0.0
  0
LINE
  5
11227
  8
0
  6
BYBLOCK
 10
-1363.511316685342
 20
5838.009983697933
 30
0.0
 11
-1363.511316685342
 21
5834.009983697933
 31
0.0
  0
TEXT
  5
11228
  8
1DIM
  6
CONTINUOUS
 10
-1364.911316685343
 20
5799.711372586823
 30
0.0
 40
7.0
  1
55.5
 50
90.0
1001
ACAD
1000
DSTYLE
1002
{
1070
    40
1040
2.0
1002
}
  0
LINE
  5
11229
  8
0
  6
BYBLOCK
 10
-1378.535290121902
 20
5834.009983697933
 30
0.0
 11
-1377.463494121902
 21
5838.009983697933
 31
0.0
  0
LINE
  5
1122A
  8
0
  6
BYBLOCK
 10
-1377.463494121902
 20
5838.009983697933
 30
0.0
 11
-1376.391698121902
 21
5834.009983697933
 31
0.0
  0
LINE
  5
1122B
  8
0
  6
BYBLOCK
 10
-1377.463494121902
 20
5838.009983697933
 30
0.0
 11
-1377.463494121902
 21
5834.009983697933
 31
0.0
  0
LINE
  5
1122C
  8
0
  6
BYBLOCK
 10
-1376.391698121902
 20
5817.509983670506
 30
0.0
 11
-1377.463494121902
 21
5813.509983670506
 31
0.0
  0
LINE
  5
1122D
  8
0
  6
BYBLOCK
 10
-1377.463494121902
 20
5813.509983670506
 30
0.0
 11
-1378.535290121902
 21
5817.509983670506
 31
0.0
  0
LINE
  5
1122E
  8
0
  6
BYBLOCK
 10
-1377.463494121902
 20
5813.509983670506
 30
0.0
 11
-1377.463494121902
 21
5817.509983670506
 31
0.0
  0
TEXT
  5
1122F
  8
1DIM
  6
CONTINUOUS
 10
-1378.863494121903
 20
5815.25998368422
 30
0.0
 40
7.0
  1
24.5
 50
90.0
1001
ACAD
1000
DSTYLE
1002
{
1070
    40
1040
2.0
1002
}
  0
LINE
  5
11230
  8
0
  6
BYBLOCK
 10
-1559.157402294675
 20
6057.18672495684
 30
0.0
 11
-1555.157402294675
 21
6056.11492895684
 31
0.0
  0
LINE
  5
11231
  8
0
  6
BYBLOCK
 10
-1555.157402294675
 20
6056.11492895684
 30
0.0
 11
-1559.157402294675
 21
6055.04313295684
 31
0.0
  0
LINE
  5
11232
  8
0
  6
BYBLOCK
 10
-1555.157402294675
 20
6056.11492895684
 30
0.0
 11
-1559.157402294675
 21
6056.11492895684
 31
0.0
  0
LINE
  5
11233
  8
0
  6
BYBLOCK
 10
-1576.157402294675
 20
6055.04313295684
 30
0.0
 11
-1580.157402294675
 21
6056.11492895684
 31
0.0
  0
LINE
  5
11234
  8
0
  6
BYBLOCK
 10
-1580.157402294675
 20
6056.11492895684
 30
0.0
 11
-1576.157402294675
 21
6057.18672495684
 31
0.0
  0
LINE
  5
11235
  8
0
  6
BYBLOCK
 10
-1580.157402294675
 20
6056.11492895684
 30
0.0
 11
-1576.157402294675
 21
6056.11492895684
 31
0.0
  0
TEXT
  5
11236
  8
1DIM
  6
CONTINUOUS
 10
-1573.490735628008
 20
6057.514928956841
 30
0.0
 40
7.0
  1
25
1001
ACAD
1000
DSTYLE
1002
{
1070
    40
1040
2.0
1002
}
  0
LINE
  5
11237
  8
0
  6
BYBLOCK
 10
-2009.157051734088
 20
6057.18672495684
 30
0.0
 11
-2005.157051734088
 21
6056.11492895684
 31
0.0
  0
LINE
  5
11238
  8
0
  6
BYBLOCK
 10
-2005.157051734088
 20
6056.11492895684
 30
0.0
 11
-2009.157051734088
 21
6055.04313295684
 31
0.0
  0
LINE
  5
11239
  8
0
  6
BYBLOCK
 10
-2005.157051734088
 20
6056.11492895684
 30
0.0
 11
-2009.157051734088
 21
6056.11492895684
 31
0.0
  0
LINE
  5
1123A
  8
0
  6
BYBLOCK
 10
-2026.15705173409
 20
6055.04313295684
 30
0.0
 11
-2030.15705173409
 21
6056.11492895684
 31
0.0
  0
LINE
  5
1123B
  8
0
  6
BYBLOCK
 10
-2030.15705173409
 20
6056.11492895684
 30
0.0
 11
-2026.15705173409
 21
6057.18672495684
 31
0.0
  0
LINE
  5
1123C
  8
0
  6
BYBLOCK
 10
-2030.15705173409
 20
6056.11492895684
 30
0.0
 11
-2026.15705173409
 21
6056.11492895684
 31
0.0
  0
TEXT
  5
1123D
  8
1DIM
  6
CONTINUOUS
 10
-2023.490385067422
 20
6057.514928956841
 30
0.0
 40
7.0
  1
25
1001
ACAD
1000
DSTYLE
1002
{
1070
    40
1040
2.0
1002
}
  0
VIEWPORT
  5
F74B
 67
     1
  8
0
 10
0.0
 20
0.0
 30
0.0
 40
667.0958549222798
 41
297.0
 68
     1
 69
     1
1001
ACAD
1000
MVIEW
1002
{
1070
    16
1010
0.0
1020
0.0
1030
0.0
1010
0.0
1020
0.0
1030
1.0
1040
0.0
1040
297.0
1040
-4.300000000000011
1040
12.7999999999999
1040
50.0
1040
0.0
1040
0.0
1070
    16
1070
   100
1070
     0
1070
     3
1070
     0
1070
     0
1070
     0
1070
     0
1040
0.0
1040
0.0
1040
0.0
1040
10.0
1040
10.0
1040
10.0
1040
10.0
1070
     0
1002
{
1002
}
1002
}
  0
ENDSEC
  0
EOF
