  0
SECTION
  2
HEADER
  9
$ACADVER
  1
AC1009
  9
$DWGCODEPAGE
  3
ansi_1252
  9
$INSBASE
 10
0.0
 20
0.0
 30
0.0
  9
$EXTMIN
 10
4.417249948122318
 20
-1120.788751103205
 30
0.0
  9
$EXTMAX
 10
2276.495773145827
 20
-440.5040335215126
 30
0.0
  9
$LIMMIN
 10
0.0
 20
0.0
  9
$LIMMAX
 10
420.0
 20
297.0
  9
$ORTHOMODE
 70
     0
  9
$REGENMODE
 70
     1
  9
$FILLMODE
 70
     1
  9
$QTEXTMODE
 70
     0
  9
$MIRRTEXT
 70
     0
  9
$DRAGMODE
 70
     2
  9
$LTSCALE
 40
0.5
  9
$OSMODE
 70
 15199
  9
$ATTMODE
 70
     1
  9
$TEXTSIZE
 40
4.0
  9
$TRACEWID
 40
1.0
  9
$TEXTSTYLE
  7
STANDARD
  9
$CLAYER
  8
1TEXT
  9
$CELTYPE
  6
BYLAYER
  9
$CECOLOR
 62
   256
  9
$DIMSCALE
 40
1.0
  9
$DIMASZ
 40
2.0
  9
$DIMEXO
 40
0.0
  9
$DIMDLI
 40
7.0
  9
$DIMRND
 40
0.0
  9
$DIMDLE
 40
0.0
  9
$DIMEXE
 40
1.0
  9
$DIMTP
 40
0.0
  9
$DIMTM
 40
0.0
  9
$DIMTXT
 40
3.5
  9
$DIMCEN
 40
0.0
  9
$DIMTSZ
 40
0.0
  9
$DIMTOL
 70
     0
  9
$DIMLIM
 70
     0
  9
$DIMTIH
 70
     0
  9
$DIMTOH
 70
     0
  9
$DIMSE1
 70
     0
  9
$DIMSE2
 70
     0
  9
$DIMTAD
 70
     1
  9
$DIMZIN
 70
     8
  9
$DIMBLK
  1

  9
$DIMASO
 70
     1
  9
$DIMSHO
 70
     1
  9
$DIMPOST
  1
 
  9
$DIMAPOST
  1

  9
$DIMALT
 70
     0
  9
$DIMALTD
 70
     2
  9
$DIMALTF
 40
25.4
  9
$DIMLFAC
 40
1.0
  9
$DIMTOFL
 70
     1
  9
$DIMTVP
 40
0.0
  9
$DIMTIX
 70
     0
  9
$DIMSOXD
 70
     0
  9
$DIMSAH
 70
     1
  9
$DIMBLK1
  1
OPEN30
  9
$DIMBLK2
  1
OPEN30
  9
$DIMSTYLE
  2
NEWX10
  9
$DIMCLRD
 70
   256
  9
$DIMCLRE
 70
   256
  9
$DIMCLRT
 70
   201
  9
$DIMTFAC
 40
0.7
  9
$DIMGAP
 40
0.7
  9
$LUNITS
 70
     2
  9
$LUPREC
 70
     4
  9
$SKETCHINC
 40
1.0
  9
$FILLETRAD
 40
0.0
  9
$AUNITS
 70
     0
  9
$AUPREC
 70
     2
  9
$MENU
  1
acad
  9
$ELEVATION
 40
0.0
  9
$PELEVATION
 40
0.0
  9
$THICKNESS
 40
0.0
  9
$LIMCHECK
 70
     0
  9
$CHAMFERA
 40
1.0
  9
$CHAMFERB
 40
1.0
  9
$SKPOLY
 70
     0
  9
$TDCREATE
 40
2453033.690996817
  9
$TDUPDATE
 40
2459102.727902002
  9
$TDINDWG
 40
2.6523011921
  9
$TDUSRTIMER
 40
2.6523012037
  9
$USRTIMER
 70
     1
  9
$ANGBASE
 50
0.0
  9
$ANGDIR
 70
     0
  9
$PDMODE
 70
     0
  9
$PDSIZE
 40
0.0
  9
$PLINEWID
 40
0.0
  9
$COORDS
 70
     2
  9
$SPLFRAME
 70
     0
  9
$SPLINETYPE
 70
     6
  9
$SPLINESEGS
 70
     8
  9
$ATTDIA
 70
     0
  9
$ATTREQ
 70
     1
  9
$HANDLING
 70
     1
  9
$HANDSEED
  5
21B9D
  9
$SURFTAB1
 70
     6
  9
$SURFTAB2
 70
     6
  9
$SURFTYPE
 70
     6
  9
$SURFU
 70
     6
  9
$SURFV
 70
     6
  9
$UCSNAME
  2

  9
$UCSORG
 10
0.0
 20
0.0
 30
0.0
  9
$UCSXDIR
 10
1.0
 20
0.0
 30
0.0
  9
$UCSYDIR
 10
0.0
 20
1.0
 30
0.0
  9
$PUCSNAME
  2

  9
$PUCSORG
 10
0.0
 20
0.0
 30
0.0
  9
$PUCSXDIR
 10
1.0
 20
0.0
 30
0.0
  9
$PUCSYDIR
 10
0.0
 20
1.0
 30
0.0
  9
$USERI1
 70
     0
  9
$USERI2
 70
     0
  9
$USERI3
 70
     0
  9
$USERI4
 70
     0
  9
$USERI5
 70
     0
  9
$USERR1
 40
0.0
  9
$USERR2
 40
0.0
  9
$USERR3
 40
0.0
  9
$USERR4
 40
0.0
  9
$USERR5
 40
0.0
  9
$WORLDVIEW
 70
     1
  9
$SHADEDGE
 70
     3
  9
$SHADEDIF
 70
    70
  9
$TILEMODE
 70
     1
  9
$MAXACTVP
 70
    48
  9
$PLIMCHECK
 70
     0
  9
$PEXTMIN
 10
1.000000000000000E+20
 20
1.000000000000000E+20
 30
1.000000000000000E+20
  9
$PEXTMAX
 10
-1.000000000000000E+20
 20
-1.000000000000000E+20
 30
-1.000000000000000E+20
  9
$PLIMMIN
 10
0.0
 20
0.0
  9
$PLIMMAX
 10
420.0
 20
297.0
  9
$UNITMODE
 70
     0
  9
$VISRETAIN
 70
     1
  9
$PLINEGEN
 70
     0
  9
$PSLTSCALE
 70
     1
  0
ENDSEC
  0
SECTION
  2
TABLES
  0
TABLE
  2
VPORT
 70
     1
  0
VPORT
  2
*ACTIVE
 70
     0
 10
0.0
 20
0.0
 11
1.0
 21
1.0
 12
1140.456511546975
 22
-780.646392312359
 13
0.0
 23
0.0
 14
10.0
 24
10.0
 15
10.0
 25
10.0
 16
0.0
 26
0.0
 36
1.0
 17
0.0
 27
0.0
 37
0.0
 40
1177.541624716086
 41
2.07168458781362
 42
50.0
 43
0.0
 44
0.0
 50
0.0
 51
0.0
 71
    16
 72
   100
 73
     1
 74
     1
 75
     0
 76
     0
 77
     0
 78
     0
  0
ENDTAB
  0
TABLE
  2
LTYPE
 70
    18
  0
LTYPE
  2
CONTINUOUS
 70
     0
  3
Solid line
 72
    65
 73
     0
 40
0.0
  0
LTYPE
  2
CENTER2
 70
     0
  3
Center (.5x) ___ _ ___ _ ___ _ ___ _ ___ _ ___
 72
    65
 73
     4
 40
28.575
 49
19.05
 49
-3.175
 49
3.175
 49
-3.175
  0
ENDTAB
  0
TABLE
  2
LAYER
 70
    65
  0
LAYER
  2
0
 70
     0
 62
     7
  6
CONTINUOUS
  0
LAYER
  2
1CENTER
 70
     0
 62
     7
  6
CENTER2
  0
LAYER
  2
1TEXT
 70
     0
 62
     7
  6
CONTINUOUS
  0
LAYER
  2
1DIM
 70
     0
 62
     7
  6
CONTINUOUS
  0
LAYER
  2
1DIM1
 70
     0
 62
     7
  6
CONTINUOUS
  0
LAYER
  2
01
 70
     0
 62
     1
  6
CONTINUOUS
  0
ENDTAB
  0
TABLE
  2
STYLE
 70
    24
  0
STYLE
  2
STANDARD
 70
     0
 40
0.0
 41
1.0
 50
0.0
 71
     0
 42
4.0
  3
txt.shx
  4
extfont.shx
  0
ENDTAB
  0
TABLE
  2
VIEW
 70
     0
  0
ENDTAB
  0
TABLE
  2
UCS
 70
     0
  0
ENDTAB
  0
TABLE
  2
APPID
 70
    21
  0
APPID
  2
ACAD
 70
     0
  0
APPID
  2
DRAWINGVARIABLESXDATA
 70
     0
  0
APPID
  2
CONTENTTABDATA
 70
     0
  0
APPID
  2
CONTENTCURRENTTAB
 70
     0
  0
APPID
  2
CONTENTBLOCKDESCRIPTION
 70
     0
  0
APPID
  2
CONTENTBLOCKICON
 70
     0
  0
APPID
  2
CONTENTLONGBLOCKNAME
 70
     0
  0
APPID
  2
ACAD_PSEXT
 70
     0
  0
APPID
  2
ACAD_DSTYLE_DIMTEXT_FILL
 70
     0
  0
APPID
  2
ACAD_MLEADERVER
 70
     0
  0
APPID
  2
ACAD_DSTYLE_DIMRADIAL_EXTE
 70
     0
  0
APPID
  2
ACADANNOTATIVE
 70
     0
  0
APPID
  2
ACAD_EXEMPT_FROM_CAD_STAND
 70
     0
  0
APPID
  2
ACDBBLOCKREPETAG
 70
     0
  0
APPID
  2
ACAD_OBJECT_CHANGE_GUID
 70
     0
  0
APPID
  2
ACLAYERTOOLS
 70
     0
  0
APPID
  2
ACAD_NAV_VCDISPLAY
 70
     0
  0
APPID
  2
ACADSTRINGINFO
 70
     0
  0
APPID
  2
GRADIENTCOLOR1ACI
 70
     0
  0
APPID
  2
GRADIENTCOLOR2ACI
 70
     0
  0
APPID
  2
ACADANNOMONITORALERTICONDI
 70
     0
  0
ENDTAB
  0
TABLE
  2
DIMSTYLE
 70
    10
  0
DIMSTYLE
  2
NEWX10
 70
     0
  3
 
  4

  5

  6
OPEN30
  7
OPEN30
 40
1.0
 41
2.0
 42
0.0
 43
7.0
 44
1.0
 45
0.0
 46
0.0
 47
0.0
 48
0.0
140
3.5
141
0.0
142
0.0
143
25.4
144
1.0
145
0.0
146
0.7
147
0.7
 71
     0
 72
     0
 73
     0
 74
     0
 75
     0
 76
     0
 77
     1
 78
     8
170
     0
171
     2
172
     1
173
     1
174
     0
175
     0
176
   256
177
   256
178
   201
  0
ENDTAB
  0
ENDSEC
  0
SECTION
  2
BLOCKS
  0
BLOCK
  8
0
  2
$MODEL_SPACE
 70
     0
 10
0.0
 20
0.0
 30
0.0
  3
$MODEL_SPACE
  1

  0
ENDBLK
  5
1A
  8
0
  0
BLOCK
 67
     1
  8
0
  2
$PAPER_SPACE
 70
     0
 10
0.0
 20
0.0
 30
0.0
  3
$PAPER_SPACE
  1

  0
ENDBLK
  5
17
 67
     1
  8
0
  0
BLOCK
  8
0
  2
_OPEN30
 70
     0
 10
0.0
 20
0.0
 30
0.0
  3
_OPEN30
  1

  0
LINE
  5
44
  8
0
  6
BYBLOCK
 62
     0
 10
-1.0
 20
0.26794919
 30
0.0
 11
0.0
 21
0.0
 31
0.0
  0
LINE
  5
45
  8
0
  6
BYBLOCK
 62
     0
 10
0.0
 20
0.0
 30
0.0
 11
-1.0
 21
-0.26794919
 31
0.0
  0
LINE
  5
46
  8
0
  6
BYBLOCK
 62
     0
 10
0.0
 20
0.0
 30
0.0
 11
-1.0
 21
0.0
 31
0.0
  0
ENDBLK
  5
47
  8
0
  0
BLOCK
  8
0
  2
A3WAKUKAWAJUN2017_HYOUDAI_
 70
     0
 10
0.0
 20
0.0
 30
0.0
  3
A3WAKUKAWAJUN2017_HYOUDAI_
  1

  0
LINE
  5
1FC48
  8
0
 10
13.26299999998673
 20
-0.0001000000000317
 30
0.0
 11
9.236999999990758
 21
8.999899999990987
 31
0.0
1001
ACAD
1000
ASC_BOUNDS
1002
{
1070
    19
1005
1FC89
1002
}
  0
LINE
  5
1FC49
  8
0
 10
5.657999999994331
 20
0.9999999999989768
 30
0.0
 11
9.236999999990758
 21
8.999999999991019
 31
0.0
1001
ACAD
1000
ASC_BOUNDS
1002
{
1070
    19
1005
1FC89
1002
}
  0
LINE
  5
1FC4A
  8
0
 10
18.59199999998134
 20
-0.2368999999997641
 30
0.0
 11
16.46099999998353
 21
5.432899999994561
 31
0.0
1001
ACAD
1000
ASC_BOUNDS
1002
{
1070
    19
1005
1FC8A
1002
}
  0
LINE
  5
1FC4B
  8
0
 10
18.59199999998134
 20
-0.2368999999997641
 30
0.0
 11
22.38199999997767
 21
8.763099999991255
 31
0.0
1001
ACAD
1000
ASC_BOUNDS
1002
{
1070
    19
1005
1FC8A
1002
}
  0
LINE
  5
1FC4C
  8
0
 10
14.32899999998563
 20
-0.2368999999997641
 30
0.0
 11
16.46099999998353
 21
5.432899999994561
 31
0.0
1001
ACAD
1000
ASC_BOUNDS
1002
{
1070
    19
1005
1FC8A
1002
}
  0
LINE
  5
1FC4D
  8
0
 10
14.32899999998563
 20
-0.2368999999997641
 30
0.0
 11
10.53899999998941
 21
8.763099999991255
 31
0.0
1001
ACAD
1000
ASC_BOUNDS
1002
{
1070
    19
1005
1FC8A
1002
}
  0
LINE
  5
1FC4E
  8
0
 10
19.53899999998043
 20
-0.0001000000000317
 30
0.0
 11
23.56599999997638
 21
8.999899999990987
 31
0.0
1001
ACAD
1000
ASC_BOUNDS
1002
{
1070
    19
1005
1FC8B
1002
}
  0
LINE
  5
1FC4F
  8
0
 10
26.97358892824991
 20
1.383099999991202
 30
0.0
 11
23.56599999997638
 21
8.999899999990987
 31
0.0
1001
ACAD
1000
ASC_BOUNDS
1002
{
1070
    19
1005
1FC8B
1002
}
  0
LINE
  5
1FC50
  8
0
 10
5.657999999994331
 20
0.9999999999989768
 30
0.0
 11
3.181999999996833
 21
4.668599999995308
 31
0.0
1001
ACAD
1000
ASC_BOUNDS
1002
{
1070
    19
1005
1FC89
1002
}
  0
LINE
  5
1FC51
  8
0
 10
4.617999999995391
 20
-0.0001000000000317
 30
0.0
 11
1.420999999998571
 21
4.736799999995242
 31
0.0
1001
ACAD
1000
ASC_BOUNDS
1002
{
1070
    19
1005
1FC89
1002
}
  0
LINE
  5
1FC52
  8
0
 10
1.420999999998571
 20
8.763099999991255
 30
0.0
 11
1.420999999998571
 21
0.0
 31
0.0
1001
ACAD
1000
ASC_BOUNDS
1002
{
1070
    19
1005
1FC8E
1002
}
  0
LINE
  5
1FC53
  8
0
 10
0.0
 20
8.763099999991255
 30
0.0
 11
0.0
 21
0.0
 31
0.0
1001
ACAD
1000
ASC_BOUNDS
1002
{
1070
    19
1005
1FC8E
1002
}
  0
LINE
  5
1FC54
  8
0
 10
6.766999999993232
 20
-0.0001000000000317
 30
0.0
 11
7.826999999992154
 21
2.368399999997621
 31
0.0
1001
ACAD
1000
ASC_BOUNDS
1002
{
1070
    19
1005
1FC89
1002
}
  0
LINE
  5
1FC55
  8
0
 10
0.0
 20
0.0
 30
0.0
 11
1.420999999998571
 21
0.0
 31
0.0
1001
ACAD
1000
ASC_BOUNDS
1002
{
1070
    19
1005
1FC8E
1002
}
  0
LINE
  5
1FC56
  8
0
 10
4.617999999995391
 20
0.0
 30
0.0
 11
6.766999999993232
 21
0.0
 31
0.0
1001
ACAD
1000
ASC_BOUNDS
1002
{
1070
    19
1005
1FC89
1002
}
  0
LINE
  5
1FC57
  8
0
 10
11.70599999998831
 20
-0.0001000000000317
 30
0.0
 11
10.64699999998936
 21
2.368399999997621
 31
0.0
1001
ACAD
1000
ASC_BOUNDS
1002
{
1070
    19
1005
1FC89
1002
}
  0
LINE
  5
1FC58
  8
0
 10
7.826999999992154
 20
2.368399999997621
 30
0.0
 11
10.64699999998936
 21
2.368399999997621
 31
0.0
1001
ACAD
1000
ASC_BOUNDS
1002
{
1070
    19
1005
1FC89
1002
}
  0
LINE
  5
1FC59
  8
0
 10
11.70599999998831
 20
0.0
 30
0.0
 11
13.26299999998673
 21
0.0
 31
0.0
1001
ACAD
1000
ASC_BOUNDS
1002
{
1070
    19
1005
1FC89
1002
}
  0
LINE
  5
1FC5A
  8
0
 10
22.15599999997789
 20
2.368399999997621
 30
0.0
 11
24.97599999997499
 21
2.368399999997621
 31
0.0
1001
ACAD
1000
ASC_BOUNDS
1002
{
1070
    19
1005
1FC8B
1002
}
  0
LINE
  5
1FC5B
  8
0
 10
19.53899999998043
 20
0.0
 30
0.0
 11
21.09599999997886
 21
0.0
 31
0.0
1001
ACAD
1000
ASC_BOUNDS
1002
{
1070
    19
1005
1FC8B
1002
}
  0
LINE
  5
1FC5C
  8
0
 10
21.09599999997886
 20
-0.0001000000000317
 30
0.0
 11
22.15599999997789
 21
2.368399999997621
 31
0.0
1001
ACAD
1000
ASC_BOUNDS
1002
{
1070
    19
1005
1FC8B
1002
}
  0
LINE
  5
1FC5D
  8
0
 10
26.02015566812236
 20
0.0330999999912365
 30
0.0
 11
24.97599999997499
 21
2.368399999997621
 31
0.0
1001
ACAD
1000
ASC_BOUNDS
1002
{
1070
    19
1005
1FC8B
1002
}
  0
LINE
  5
1FC5E
  8
0
 10
14.32399999998563
 20
3.315799999996671
 30
0.0
 11
16.46099999998353
 21
8.999899999990987
 31
0.0
1001
ACAD
1000
ASC_BOUNDS
1002
{
1070
    19
1005
1FC8A
1002
}
  0
LINE
  5
1FC5F
  8
0
 10
6.432999999993513
 20
8.763099999991255
 30
0.0
 11
3.181999999996833
 21
4.668599999995308
 31
0.0
1001
ACAD
1000
ASC_BOUNDS
1002
{
1070
    19
1005
1FC89
1002
}
  0
LINE
  5
1FC60
  8
0
 10
4.617999999995391
 20
8.763099999991255
 30
0.0
 11
1.420999999998571
 21
4.736799999995242
 31
0.0
1001
ACAD
1000
ASC_BOUNDS
1002
{
1070
    19
1005
1FC89
1002
}
  0
LINE
  5
1FC61
  8
0
 10
0.0
 20
8.763099999991255
 30
0.0
 11
1.420999999998571
 21
8.763099999991255
 31
0.0
1001
ACAD
1000
ASC_BOUNDS
1002
{
1070
    19
1005
1FC8E
1002
}
  0
LINE
  5
1FC62
  8
0
 10
4.617999999995391
 20
8.763099999991255
 30
0.0
 11
6.432999999993513
 21
8.763099999991255
 31
0.0
1001
ACAD
1000
ASC_BOUNDS
1002
{
1070
    19
1005
1FC89
1002
}
  0
LINE
  5
1FC63
  8
0
 10
14.32399999998563
 20
3.315799999996671
 30
0.0
 11
12.02999999998792
 21
8.763099999991255
 31
0.0
1001
ACAD
1000
ASC_BOUNDS
1002
{
1070
    19
1005
1FC8A
1002
}
  0
LINE
  5
1FC64
  8
0
 10
10.06399999998996
 20
3.670999999996297
 30
0.0
 11
9.236999999990758
 21
5.5200999999945
 31
0.0
1001
ACAD
1000
ASC_BOUNDS
1002
{
1070
    19
1005
1FC89
1002
}
  0
LINE
  5
1FC65
  8
0
 10
8.409999999991555
 20
3.670999999996297
 30
0.0
 11
9.236999999990758
 21
5.5200999999945
 31
0.0
1001
ACAD
1000
ASC_BOUNDS
1002
{
1070
    19
1005
1FC89
1002
}
  0
LINE
  5
1FC66
  8
0
 10
8.409999999991555
 20
3.670999999996297
 30
0.0
 11
10.06399999998996
 21
3.670999999996297
 31
0.0
1001
ACAD
1000
ASC_BOUNDS
1002
{
1070
    19
1005
1FC89
1002
}
  0
LINE
  5
1FC67
  8
0
 10
10.53899999998941
 20
8.763099999991255
 30
0.0
 11
12.02999999998792
 21
8.763099999991255
 31
0.0
1001
ACAD
1000
ASC_BOUNDS
1002
{
1070
    19
1005
1FC8A
1002
}
  0
LINE
  5
1FC68
  8
0
 10
22.7389999999773
 20
3.670999999996297
 30
0.0
 11
23.56599999997638
 21
5.5200999999945
 31
0.0
1001
ACAD
1000
ASC_BOUNDS
1002
{
1070
    19
1005
1FC8B
1002
}
  0
LINE
  5
1FC69
  8
0
 10
22.7389999999773
 20
3.670999999996297
 30
0.0
 11
24.39299999997559
 21
3.670999999996297
 31
0.0
1001
ACAD
1000
ASC_BOUNDS
1002
{
1070
    19
1005
1FC8B
1002
}
  0
LINE
  5
1FC6A
  8
0
 10
18.59799999998143
 20
3.315799999996671
 30
0.0
 11
20.89099999997916
 21
8.763099999991255
 31
0.0
1001
ACAD
1000
ASC_BOUNDS
1002
{
1070
    19
1005
1FC8A
1002
}
  0
LINE
  5
1FC6B
  8
0
 10
18.59799999998143
 20
3.315799999996671
 30
0.0
 11
16.46099999998353
 21
8.999899999990987
 31
0.0
1001
ACAD
1000
ASC_BOUNDS
1002
{
1070
    19
1005
1FC8A
1002
}
  0
LINE
  5
1FC6C
  8
0
 10
20.89099999997916
 20
8.763099999991255
 30
0.0
 11
22.38199999997767
 21
8.763099999991255
 31
0.0
1001
ACAD
1000
ASC_BOUNDS
1002
{
1070
    19
1005
1FC8A
1002
}
  0
LINE
  5
1FC6D
  8
0
 10
24.39299999997559
 20
3.670999999996297
 30
0.0
 11
23.56599999997638
 21
5.5200999999945
 31
0.0
1001
ACAD
1000
ASC_BOUNDS
1002
{
1070
    19
1005
1FC8B
1002
}
  0
LINE
  5
1FC6E
  8
0
 10
44.99999999995498
 20
-0.2368999999997641
 30
0.0
 11
40.02599999995994
 21
5.341799999994635
 31
0.0
1001
ACAD
1000
ASC_BOUNDS
1002
{
1070
    19
1005
1FC8D
1002
}
  0
LINE
  5
1FC6F
  8
0
 10
40.02599999995994
 20
5.341799999994635
 30
0.0
 11
40.02599999995994
 21
0.0
 31
0.0
1001
ACAD
1000
ASC_BOUNDS
1002
{
1070
    19
1005
1FC8D
1002
}
  0
LINE
  5
1FC70
  8
0
 10
38.60499999996136
 20
8.999999999991019
 30
0.0
 11
38.60499999996136
 21
0.0
 31
0.0
1001
ACAD
1000
ASC_BOUNDS
1002
{
1070
    19
1005
1FC8D
1002
}
  0
LINE
  5
1FC71
  8
0
 10
44.99999999995498
 20
8.763099999991255
 30
0.0
 11
44.99999999995498
 21
-0.2368999999997641
 31
0.0
1001
ACAD
1000
ASC_BOUNDS
1002
{
1070
    19
1005
1FC8D
1002
}
  0
LINE
  5
1FC72
  8
0
 10
38.60499999996136
 20
0.0
 30
0.0
 11
40.02599999995994
 21
0.0
 31
0.0
1001
ACAD
1000
ASC_BOUNDS
1002
{
1070
    19
1005
1FC8D
1002
}
  0
LINE
  5
1FC73
  8
0
 10
43.57899999995641
 20
3.421199999996588
 30
0.0
 11
38.60499999996136
 21
8.999899999990987
 31
0.0
1001
ACAD
1000
ASC_BOUNDS
1002
{
1070
    19
1005
1FC8D
1002
}
  0
LINE
  5
1FC74
  8
0
 10
43.57899999995641
 20
8.763099999991255
 30
0.0
 11
43.57899999995641
 21
3.421199999996588
 31
0.0
1001
ACAD
1000
ASC_BOUNDS
1002
{
1070
    19
1005
1FC8D
1002
}
  0
LINE
  5
1FC75
  8
0
 10
43.57899999995641
 20
8.763099999991255
 30
0.0
 11
44.99999999995498
 21
8.763099999991255
 31
0.0
1001
ACAD
1000
ASC_BOUNDS
1002
{
1070
    19
1005
1FC8D
1002
}
  0
LINE
  5
1FC76
  8
0
 10
37.67199999996831
 20
8.763099999991255
 30
0.0
 11
36.23199999996837
 21
8.763099999991255
 31
0.0
  0
LINE
  5
1FC77
  8
0
 10
31.64199999996833
 20
8.763099999991255
 30
0.0
 11
31.64199999996833
 21
2.481619422925121
 31
0.0
  0
LINE
  5
1FC78
  8
0
 10
37.67199999996831
 20
8.763099999991255
 30
0.0
 11
37.67199999996831
 21
2.481619422925121
 31
0.0
  0
LINE
  5
1FC79
  8
0
 10
36.23199999996837
 20
8.763099999991255
 30
0.0
 11
36.23199999996837
 21
2.481619422925064
 31
0.0
  0
LINE
  5
1FC7A
  8
0
 10
33.08199999996839
 20
8.763099999991255
 30
0.0
 11
33.08199999996839
 21
2.481619422925121
 31
0.0
  0
ARC
  5
1FC7B
  8
0
 10
34.65699999996832
 20
3.183099999991214
 30
0.0
 40
3.420000000000007
 50
240.0000000000255
 51
299.9999999999766
  0
ARC
  5
1FC7C
  8
0
 10
34.65699999996832
 20
3.183099999991214
 30
0.0
 40
1.97999999999999
 50
240.000000000026
 51
299.9999999999703
  0
LINE
  5
1FC7D
  8
0
 10
33.08199999996828
 20
8.763099999991255
 30
0.0
 11
31.64199999996833
 21
8.763099999991255
 31
0.0
  0
ARC
  5
1FC7E
  8
0
 10
35.06199999996829
 20
2.481619422925064
 30
0.0
 40
1.17
 50
299.9999999999699
 51
0.0
  0
ARC
  5
1FC7F
  8
0
 10
34.25199999996835
 20
2.481619422925121
 30
0.0
 40
1.17
 50
180.0
 51
240.0000000000238
  0
ARC
  5
1FC80
  8
0
 10
35.06199999996841
 20
2.481619422925121
 30
0.0
 40
2.61
 50
299.9999999999756
 51
0.0
  0
ARC
  5
1FC81
  8
0
 10
34.25199999996835
 20
2.481619422925121
 30
0.0
 40
2.61
 50
180.0
 51
240.0000000000244
  0
LINE
  5
1FC82
  8
0
 10
29.30199999996933
 20
8.763099999991255
 30
0.0
 11
30.74199999996927
 21
8.763099999991255
 31
0.0
1001
ACAD
1000
ASC_BOUNDS
1002
{
1070
    19
1005
1FC8B
1002
}
  0
LINE
  5
1FC83
  8
0
 10
30.74199999996927
 20
8.763099999991255
 30
0.0
 11
30.74199999996927
 21
2.373099999991211
 31
0.0
1001
ACAD
1000
ASC_BOUNDS
1002
{
1070
    19
1005
1FC8B
1002
}
  0
LINE
  5
1FC84
  8
0
 10
26.02015566812236
 20
0.0330999999912365
 30
0.0
 11
28.40199999996923
 21
0.0330999999912365
 31
0.0
1001
ACAD
1000
ASC_BOUNDS
1002
{
1070
    19
1005
1FC8B
1002
}
  0
LINE
  5
1FC85
  8
0
 10
29.30199999996933
 20
8.763099999991255
 30
0.0
 11
29.30199999996933
 21
2.283099999991236
 31
0.0
1001
ACAD
1000
ASC_BOUNDS
1002
{
1070
    19
1005
1FC8B
1002
}
  0
LINE
  5
1FC86
  8
0
 10
26.97358892824991
 20
1.383099999991202
 30
0.0
 11
28.40199999996923
 21
1.383099999991202
 31
0.0
1001
ACAD
1000
ASC_BOUNDS
1002
{
1070
    19
1005
1FC8B
1002
}
  0
ARC
  5
1FC87
  8
0
 10
28.40199999996923
 20
2.283099999991236
 30
0.0
 40
0.9
 50
270.0
 51
0.0
1001
ACAD
1000
ASC_BOUNDS
1002
{
1070
    19
1005
1FC8B
1002
}
  0
ARC
  5
1FC88
  8
0
 10
28.40199999996923
 20
2.373099999991211
 30
0.0
 40
2.34
 50
270.0
 51
0.0
1001
ACAD
1000
ASC_BOUNDS
1002
{
1070
    19
1005
1FC8B
1002
}
  0
INSERT
  5
1FC89
  8
0
  2
*X53
 10
0.0
 20
0.0
 30
0.0
1001
ACAD
1000
HATCH
1002
{
1070
    19
1000
ANSI37
1040
0.15
1040
0.0
1000
ASC_BOUNDS
1070
     2
1070
     2
1070
    12
1005
1FC48
1005
1FC49
1005
1FC50
1005
1FC5F
1005
1FC62
1005
1FC60
1005
1FC51
1005
1FC56
1005
1FC54
1005
1FC58
1005
1FC57
1005
1FC59
1070
     2
1070
     3
1005
1FC64
1005
1FC66
1005
1FC65
1000
ASC_SEEDPOINT
1011
3.614004224891801
1021
2.996669441146025
1031
0.0
1021
2.996669441146025
1031
0.0
1000
R14_HATCH_DATA
1000
1FC89
1011
1.0
1021
0.0
1031
0.0
1021
0.0
1031
0.0
1011
0.0
1021
1.0
1031
0.0
1021
1.0
1031
0.0
1011
0.0
1021
0.0
1031
1.0
1021
0.0
1031
1.0
1040
0.0
1010
0.0
1020
0.0
1030
1.0
1000
ANSI37
1070
     0
1070
     1
1071
        2
1071
        7
1070
     0
1070
     1
1071
       17
1040
13.26299999998673
1040
-0.0001000000000317
1040
9.236999999990758
1040
8.999899999990987
1040
9.236999999990758
1040
8.999999999991019
1040
5.657999999994331
1040
0.9999999999989768
1040
3.181999999996833
1040
4.668599999995308
1040
6.432999999993513
1040
8.763099999991255
1040
4.617999999995391
1040
8.763099999991255
1040
1.420999999998571
1040
4.736799999995242
1040
4.617999999995391
1040
-0.0001000000000317
1040
4.617999999995391
1040
0.0
1040
6.766999999993232
1040
0.0
1040
6.766999999993232
1040
-0.0001000000000317
1040
7.826999999992154
1040
2.368399999997621
1040
10.64699999998936
1040
2.368399999997621
1040
11.70599999998831
1040
-0.0001000000000317
1040
11.70599999998831
1040
0.0
1040
13.26299999998673
1040
0.0
1071
       12
1005
1FC48
1005
1FC49
1005
1FC50
1005
1FC5F
1005
1FC62
1005
1FC60
1005
1FC51
1005
1FC56
1005
1FC54
1005
1FC58
1005
1FC57
1005
1FC59
1071
       22
1070
     0
1070
     1
1071
        3
1040
9.236999999990758
1040
5.5200999999945
1040
10.06399999998996
1040
3.670999999996297
1040
8.409999999991555
1040
3.670999999996297
1071
        3
1005
1FC64
1005
1FC66
1005
1FC65
1070
     0
1070
     1
1040
0.0
1040
0.15
1070
     0
1070
     2
1040
0.7853981633974483
1040
49.29960901727088
1040
-10.17736998311392
1040
-0.3367596045400932
1040
0.3367596045400932
1070
     0
1040
2.356194490192345
1040
49.29960901727088
1040
-10.17736998311392
1040
-0.3367596045400932
1040
-0.3367596045400932
1070
     0
1040
0.0110235143455945
1071
        2
1040
3.614004224891801
1040
2.996669441146025
1040
0.0
1040
3.614004224891801
1040
2.996669441146025
1040
0.0
1002
}
  0
INSERT
  5
1FC8A
  8
0
  2
*X54
 10
0.0
 20
0.0
 30
0.0
1001
ACAD
1000
HATCH
1002
{
1070
    19
1000
ANSI37
1040
0.15
1040
0.0
1000
ASC_BOUNDS
1070
     1
1070
     2
1070
    10
1005
1FC4A
1005
1FC4B
1005
1FC6C
1005
1FC6A
1005
1FC6B
1005
1FC5E
1005
1FC63
1005
1FC67
1005
1FC4D
1005
1FC4C
1000
ASC_SEEDPOINT
1011
14.73245321214324
1021
2.798246178283421
1031
0.0
1021
2.798246178283421
1031
0.0
1000
R14_HATCH_DATA
1000
1FC8A
1011
1.0
1021
0.0
1031
0.0
1021
0.0
1031
0.0
1011
0.0
1021
1.0
1031
0.0
1021
1.0
1031
0.0
1011
0.0
1021
0.0
1031
1.0
1021
0.0
1031
1.0
1040
0.0
1010
0.0
1020
0.0
1030
1.0
1000
ANSI37
1070
     0
1070
     1
1071
        1
1071
        7
1070
     0
1070
     1
1071
       10
1040
16.46099999998353
1040
5.432899999994561
1040
18.59199999998134
1040
-0.2368999999997641
1040
22.38199999997767
1040
8.763099999991255
1040
20.89099999997916
1040
8.763099999991255
1040
18.59799999998143
1040
3.315799999996671
1040
16.46099999998353
1040
8.999899999990987
1040
14.32399999998563
1040
3.315799999996671
1040
12.02999999998792
1040
8.763099999991255
1040
10.53899999998941
1040
8.763099999991255
1040
14.32899999998563
1040
-0.2368999999997641
1071
       10
1005
1FC4A
1005
1FC4B
1005
1FC6C
1005
1FC6A
1005
1FC6B
1005
1FC5E
1005
1FC63
1005
1FC67
1005
1FC4D
1005
1FC4C
1070
     0
1070
     1
1040
0.0
1040
0.15
1070
     0
1070
     2
1040
0.7853981633974483
1040
49.29960901727088
1040
-10.17736998311392
1040
-0.3367596045400932
1040
0.3367596045400932
1070
     0
1040
2.356194490192345
1040
49.29960901727088
1040
-10.17736998311392
1040
-0.3367596045400932
1040
-0.3367596045400932
1070
     0
1040
0.0110235143455945
1071
        1
1040
14.73245321214324
1040
2.798246178283421
1040
0.0
1002
}
  0
INSERT
  5
1FC8B
  8
0
  2
*X55
 10
0.0
 20
0.0
 30
0.0
1001
ACAD
1000
HATCH
1002
{
1070
    19
1000
ANSI37
1040
0.15
1040
0.0
1000
ASC_BOUNDS
1070
     2
1070
     2
1070
    13
1005
1FC4E
1005
1FC5B
1005
1FC5C
1005
1FC5A
1005
1FC5D
1005
1FC84
1005
1FC88
1005
1FC83
1005
1FC82
1005
1FC85
1005
1FC87
1005
1FC86
1005
1FC4F
1070
     2
1070
     3
1005
1FC68
1005
1FC6D
1005
1FC69
1000
ASC_SEEDPOINT
1011
21.97929957367762
1021
3.294304244259308
1031
0.0
1021
3.294304244259308
1031
0.0
1000
R14_HATCH_DATA
1000
1FC8B
1011
1.0
1021
0.0
1031
0.0
1021
0.0
1031
0.0
1011
0.0
1021
1.0
1031
0.0
1021
1.0
1031
0.0
1011
0.0
1021
0.0
1031
1.0
1021
0.0
1031
1.0
1040
0.0
1010
0.0
1020
0.0
1030
1.0
1000
ANSI37
1070
     0
1070
     1
1071
        2
1071
        7
1070
     1
1070
     1
1071
       15
1040
23.56599999997638
1040
8.999899999990987
1040
0.0
1040
19.53899999998043
1040
-0.0001000000000317
1040
0.0
1040
19.53899999998043
1040
0.0
1040
0.0
1040
21.09599999997886
1040
0.0
1040
0.0
1040
21.09599999997886
1040
-0.0001000000000317
1040
0.0
1040
22.15599999997789
1040
2.368399999997621
1040
0.0
1040
24.97599999997499
1040
2.368399999997621
1040
0.0
1040
26.02015566812236
1040
0.0330999999912365
1040
0.0
1040
28.40199999996923
1040
0.0330999999912365
1040
0.414213562373095
1040
30.74199999996923
1040
2.373099999991211
1040
0.0
1040
30.74199999996927
1040
8.763099999991255
1040
0.0
1040
29.30199999996933
1040
8.763099999991255
1040
0.0
1040
29.30199999996933
1040
2.283099999991236
1040
-0.414213562373095
1040
28.40199999996923
1040
1.383099999991237
1040
0.0
1040
26.97358892824991
1040
1.383099999991202
1040
0.0
1071
       13
1005
1FC4E
1005
1FC5B
1005
1FC5C
1005
1FC5A
1005
1FC5D
1005
1FC84
1005
1FC88
1005
1FC83
1005
1FC82
1005
1FC85
1005
1FC87
1005
1FC86
1005
1FC4F
1071
       22
1070
     0
1070
     1
1071
        3
1040
22.7389999999773
1040
3.670999999996297
1040
23.56599999997638
1040
5.5200999999945
1040
24.39299999997559
1040
3.670999999996297
1071
        3
1005
1FC68
1005
1FC6D
1005
1FC69
1070
     0
1070
     1
1040
0.0
1040
0.15
1070
     0
1070
     2
1040
0.7853981633974483
1040
49.29960901727088
1040
-10.17736998311392
1040
-0.3367596045400932
1040
0.3367596045400932
1070
     0
1040
2.356194490192345
1040
49.29960901727088
1040
-10.17736998311392
1040
-0.3367596045400932
1040
-0.3367596045400932
1070
     0
1040
0.0110235143455945
1071
        2
1040
21.97929957367762
1040
3.294304244259308
1040
0.0
1040
21.97929957367762
1040
3.294304244259308
1040
0.0
1002
}
  0
INSERT
  5
1FC8C
  8
0
  2
*X56
 10
0.0
 20
0.0
 30
0.0
1001
ACAD
1000
HATCH
1002
{
1070
    19
1000
ANSI37
1040
0.15
1040
0.0
1000
R14_HATCH_DATA
1000
1FC8C
1011
1.0
1021
0.0
1031
0.0
1021
0.0
1031
0.0
1011
0.0
1021
1.0
1031
0.0
1021
1.0
1031
0.0
1011
0.0
1021
0.0
1031
1.0
1021
0.0
1031
1.0
1040
0.0
1010
0.0
1020
0.0
1030
1.0
1000
ANSI37
1070
     0
1070
     1
1071
        1
1071
        7
1070
     1
1070
     1
1071
       12
1040
31.64199999996833
1040
2.481619422925121
1040
0.2679491924310942
1040
32.94699999997067
1040
0.2212931190493919
1040
0.2679491924301353
1040
36.36699999995983
1040
0.2212931190459813
1040
0.2679491924321411
1040
37.67199999996831
1040
2.481619422928361
1040
0.0
1040
37.67199999996831
1040
8.763099999991255
1040
0.0
1040
36.23199999996837
1040
8.763099999991255
1040
0.0
1040
36.23199999996837
1040
2.481619422925064
1040
-0.2679491924310291
1040
35.64699999996708
1040
1.468369700498386
1040
-0.267949192430519
1040
33.66699999997093
1040
1.468369700497703
1040
-0.267949192431809
1040
33.08199999996839
1040
2.481619422926997
1040
0.0
1040
33.08199999996839
1040
8.763099999991255
1040
0.0
1040
31.64199999996833
1040
8.763099999991255
1040
0.0
1071
        0
1070
     0
1070
     1
1040
0.0
1040
0.15
1070
     0
1070
     2
1040
0.7853981633974483
1040
49.29960901727088
1040
-10.17736998311392
1040
-0.3367596045400932
1040
0.3367596045400932
1070
     0
1040
2.356194490192345
1040
49.29960901727088
1040
-10.17736998311392
1040
-0.3367596045400932
1040
-0.3367596045400932
1070
     0
1040
0.0110235143455945
1071
        1
1040
32.30357378967278
1040
3.988785755459219
1040
0.0
1002
}
  0
INSERT
  5
1FC8D
  8
0
  2
*X57
 10
0.0
 20
0.0
 30
0.0
1001
ACAD
1000
HATCH
1002
{
1070
    19
1000
ANSI37
1040
0.15
1040
0.0
1000
ASC_BOUNDS
1070
     1
1070
     2
1070
     8
1005
1FC6E
1005
1FC71
1005
1FC75
1005
1FC74
1005
1FC73
1005
1FC70
1005
1FC72
1005
1FC6F
1000
ASC_SEEDPOINT
1011
39.74896370716704
1021
4.484843821435049
1031
0.0
1021
4.484843821435049
1031
0.0
1000
R14_HATCH_DATA
1000
1FC8D
1011
1.0
1021
0.0
1031
0.0
1021
0.0
1031
0.0
1011
0.0
1021
1.0
1031
0.0
1021
1.0
1031
0.0
1011
0.0
1021
0.0
1031
1.0
1021
0.0
1031
1.0
1040
0.0
1010
0.0
1020
0.0
1030
1.0
1000
ANSI37
1070
     0
1070
     1
1071
        1
1071
        7
1070
     0
1070
     1
1071
        9
1040
40.02599999995994
1040
5.341799999994635
1040
44.99999999995498
1040
-0.2368999999997641
1040
44.99999999995498
1040
8.763099999991255
1040
43.57899999995641
1040
8.763099999991255
1040
43.57899999995641
1040
3.421199999996588
1040
38.60499999996136
1040
8.999899999990987
1040
38.60499999996136
1040
8.999999999991019
1040
38.60499999996136
1040
0.0
1040
40.02599999995994
1040
0.0
1071
        8
1005
1FC6E
1005
1FC71
1005
1FC75
1005
1FC74
1005
1FC73
1005
1FC70
1005
1FC72
1005
1FC6F
1070
     0
1070
     1
1040
0.0
1040
0.15
1070
     0
1070
     2
1040
0.7853981633974483
1040
49.29960901727088
1040
-10.17736998311392
1040
-0.3367596045400932
1040
0.3367596045400932
1070
     0
1040
2.356194490192345
1040
49.29960901727088
1040
-10.17736998311392
1040
-0.3367596045400932
1040
-0.3367596045400932
1070
     0
1040
0.0110235143455945
1071
        1
1040
39.74896370716704
1040
4.484843821435049
1040
0.0
1002
}
  0
INSERT
  5
1FC8E
  8
0
  2
*X58
 10
0.0
 20
0.0
 30
0.0
1001
ACAD
1000
HATCH
1002
{
1070
    19
1000
ANSI37
1040
0.15
1040
0.0
1000
ASC_BOUNDS
1070
     1
1070
     2
1070
     4
1005
1FC52
1005
1FC61
1005
1FC53
1005
1FC55
1000
ASC_SEEDPOINT
1011
1.079051535452663
1021
4.148538732891836
1031
0.0
1021
4.148538732891836
1031
0.0
1000
R14_HATCH_DATA
1000
1FC8E
1011
1.0
1021
0.0
1031
0.0
1021
0.0
1031
0.0
1011
0.0
1021
1.0
1031
0.0
1021
1.0
1031
0.0
1011
0.0
1021
0.0
1031
1.0
1021
0.0
1031
1.0
1040
0.0
1010
0.0
1020
0.0
1030
1.0
1000
ANSI37
1070
     0
1070
     1
1071
        1
1071
        7
1070
     0
1070
     1
1071
        4
1040
1.420999999998571
1040
0.0
1040
1.420999999998571
1040
8.763099999991255
1040
0.0
1040
8.763099999991255
1040
0.0
1040
0.0
1071
        4
1005
1FC52
1005
1FC61
1005
1FC53
1005
1FC55
1070
     0
1070
     1
1040
0.0
1040
0.15
1070
     0
1070
     2
1040
0.7853981633974483
1040
49.29960901727088
1040
-10.17736998311392
1040
-0.3367596045400932
1040
0.3367596045400932
1070
     0
1040
2.356194490192345
1040
49.29960901727088
1040
-10.17736998311392
1040
-0.3367596045400932
1040
-0.3367596045400932
1070
     0
1040
0.0053004257112761
1071
        1
1040
1.079051535452663
1040
4.148538732891836
1040
0.0
1002
}
  0
ENDBLK
  5
20346
  8
0
  0
BLOCK
  8
0
  2
*X53
 70
     1
 10
0.0
 20
0.0
 30
0.0
  3
*X53
  1

  0
LINE
  5
21A04
  8
0
  6
CONTINUOUS
 10
3.418023043697893
 20
7.251849696850613
 30
0.0
 11
4.929273346838536
 21
8.763099999991255
 31
0.0
  0
LINE
  5
21A05
  8
0
  6
CONTINUOUS
 10
1.483656411257782
 20
4.643963855330318
 30
0.0
 11
5.60279255591872
 21
8.763099999991255
 31
0.0
  0
LINE
  5
21A06
  8
0
  6
CONTINUOUS
 10
1.755053947328235
 20
4.241842182320584
 30
0.0
 11
6.276311764998907
 21
8.763099999991255
 31
0.0
  0
LINE
  5
21A07
  8
0
  6
CONTINUOUS
 10
2.026451483398688
 20
3.839720509310849
 30
0.0
 11
4.441040904851878
 21
6.254309930764039
 31
0.0
  0
LINE
  5
21A08
  8
0
  6
CONTINUOUS
 10
2.297849019469139
 20
3.437598836301114
 30
0.0
 11
3.321765168359338
 21
4.461514985191313
 31
0.0
  0
LINE
  5
21A09
  8
0
  6
CONTINUOUS
 10
2.569246555539591
 20
3.03547716329138
 30
0.0
 11
3.593163397972743
 21
4.059394005724531
 31
0.0
  0
LINE
  5
21A0A
  8
0
  6
CONTINUOUS
 10
2.840644091610043
 20
2.633355490281646
 30
0.0
 11
3.864561627586149
 21
3.657273026257751
 31
0.0
  0
LINE
  5
21A0B
  8
0
  6
CONTINUOUS
 10
3.112041627680496
 20
2.231233817271911
 30
0.0
 11
4.135959857199554
 21
3.25515204679097
 31
0.0
  0
LINE
  5
21A0C
  8
0
  6
CONTINUOUS
 10
3.383439163750948
 20
1.829112144262177
 30
0.0
 11
4.40735808681296
 21
2.853031067324189
 31
0.0
  0
LINE
  5
21A0D
  8
0
  6
CONTINUOUS
 10
3.654836699821399
 20
1.426990471252442
 30
0.0
 11
4.678756316426365
 21
2.450910087857407
 31
0.0
  0
LINE
  5
21A0E
  8
0
  6
CONTINUOUS
 10
3.926234235891853
 20
1.024868798242709
 30
0.0
 11
4.95015454603977
 21
2.048789108390626
 31
0.0
  0
LINE
  5
21A0F
  8
0
  6
CONTINUOUS
 10
4.197631771962304
 20
0.6227471252329737
 30
0.0
 11
5.221552775653176
 21
1.646668128923846
 31
0.0
  0
LINE
  5
21A10
  8
0
  6
CONTINUOUS
 10
8.715877546767851
 20
7.835069736359266
 30
0.0
 11
9.435953450375058
 21
8.555145639966472
 31
0.0
  0
LINE
  5
21A11
  8
0
  6
CONTINUOUS
 10
8.170620868422267
 20
6.616293848933497
 30
0.0
 11
9.644120833743461
 21
8.08979381425469
 31
0.0
  0
LINE
  5
21A12
  8
0
  6
CONTINUOUS
 10
7.625364190076684
 20
5.397517961507727
 30
0.0
 11
9.852288217111864
 21
7.624441988542907
 31
0.0
  0
LINE
  5
21A13
  8
0
  6
CONTINUOUS
 10
7.080107511731101
 20
4.178742074081957
 30
0.0
 11
10.06045560048027
 21
7.159090162831124
 31
0.0
  0
LINE
  5
21A14
  8
0
  6
CONTINUOUS
 10
6.534850833385518
 20
2.959966186656187
 30
0.0
 11
10.26862298384867
 21
6.693738337119342
 31
0.0
  0
LINE
  5
21A15
  8
0
  6
CONTINUOUS
 10
4.469029308032756
 20
0.2206254522232385
 30
0.0
 11
5.492951005266582
 21
1.244547149457064
 31
0.0
  0
LINE
  5
21A16
  8
0
  6
CONTINUOUS
 10
5.989594155039935
 20
1.741190299230417
 30
0.0
 11
8.806950407233131
 21
4.558546551423613
 31
0.0
  0
LINE
  5
21A17
  8
0
  6
CONTINUOUS
 10
9.401251593263643
 20
5.152847737454126
 30
0.0
 11
10.47679036721708
 21
6.228386511407559
 31
0.0
  0
LINE
  5
21A18
  8
0
  6
CONTINUOUS
 10
4.921837203428691
 20
-0.0000858614610131
 30
0.0
 11
8.592923064886001
 21
3.670999999996297
 31
0.0
  0
LINE
  5
21A19
  8
0
  6
CONTINUOUS
 10
9.609390446785305
 20
4.6874673818956
 30
0.0
 11
10.68495775058548
 21
5.763034685695775
 31
0.0
  0
LINE
  5
21A1A
  8
0
  6
CONTINUOUS
 10
5.595387755019432
 20
-0.0000545189504582
 30
0.0
 11
7.716137258923768
 21
2.120694984953879
 31
0.0
  0
LINE
  5
21A1B
  8
0
  6
CONTINUOUS
 10
6.268938306610172
 20
-0.000023176439905
 30
0.0
 11
7.170485805526503
 21
0.9015243224764267
 31
0.0
  0
LINE
  5
21A1C
  8
0
  6
CONTINUOUS
 10
7.963842273967511
 20
2.368399999997621
 30
0.0
 11
9.266442273966188
 21
3.670999999996297
 31
0.0
  0
LINE
  5
21A1D
  8
0
  6
CONTINUOUS
 10
8.637361483047696
 20
2.368399999997621
 30
0.0
 11
9.939961483046375
 21
3.670999999996297
 31
0.0
  0
LINE
  5
21A1E
  8
0
  6
CONTINUOUS
 10
9.817529300306965
 20
4.222087026337075
 30
0.0
 11
10.89312513395388
 21
5.297682859983993
 31
0.0
  0
LINE
  5
21A1F
  8
0
  6
CONTINUOUS
 10
10.02566815382863
 20
3.756706670778549
 30
0.0
 11
11.10129251732229
 21
4.832331034272211
 31
0.0
  0
LINE
  5
21A20
  8
0
  6
CONTINUOUS
 10
9.310880692127883
 20
2.368399999997621
 30
0.0
 11
11.30945990069069
 21
4.366979208560428
 31
0.0
  0
LINE
  5
21A21
  8
0
  6
CONTINUOUS
 10
9.98439990120807
 20
2.36839999999762
 30
0.0
 11
11.5176272840591
 21
3.901627382848645
 31
0.0
  0
LINE
  5
21A22
  8
0
  6
CONTINUOUS
 10
10.65037369446246
 20
2.36085458417182
 30
0.0
 11
11.7257946674275
 21
3.436275557136862
 31
0.0
  0
LINE
  5
21A23
  8
0
  6
CONTINUOUS
 10
10.85847197087848
 20
1.895433651507656
 30
0.0
 11
11.9339620507959
 21
2.97092373142508
 31
0.0
  0
LINE
  5
21A24
  8
0
  6
CONTINUOUS
 10
11.0665702472945
 20
1.430012718843491
 30
0.0
 11
12.14212943416431
 21
2.505571905713296
 31
0.0
  0
LINE
  5
21A25
  8
0
  6
CONTINUOUS
 10
11.27466852371052
 20
0.9645917861793256
 30
0.0
 11
12.35029681753271
 21
2.040220080001513
 31
0.0
  0
LINE
  5
21A26
  8
0
  6
CONTINUOUS
 10
11.48276680012654
 20
0.4991708535151611
 30
0.0
 11
12.55846420090111
 21
1.57486825428973
 31
0.0
  0
LINE
  5
21A27
  8
0
  6
CONTINUOUS
 10
11.69086507654257
 20
0.0337499208509957
 30
0.0
 11
12.76663158426952
 21
1.109516428577947
 31
0.0
  0
LINE
  5
21A28
  8
0
  6
CONTINUOUS
 10
12.33057447873954
 20
-0.0000598860322123
 30
0.0
 11
12.97479896763792
 21
0.6441646028661663
 31
0.0
  0
LINE
  5
21A29
  8
0
  6
CONTINUOUS
 10
13.00413694809395
 20
-0.0000166257579952
 30
0.0
 11
13.18296635100632
 21
0.1788127771543824
 31
0.0
  0
LINE
  5
21A2A
  8
0
  6
CONTINUOUS
 10
4.772852165289667
 20
-0.000092794222212
 30
0.0
 11
4.296495091028902
 21
0.4762642800385528
 31
0.0
  0
LINE
  5
21A2B
  8
0
  6
CONTINUOUS
 10
5.446340034776103
 20
-0.0000614546284616
 30
0.0
 11
2.898195908335625
 21
2.548082671812017
 31
0.0
  0
LINE
  5
21A2C
  8
0
  6
CONTINUOUS
 10
6.119827904262539
 20
-0.0000301150347113
 30
0.0
 11
1.499896725642348
 21
4.61990106358548
 31
0.0
  0
LINE
  5
21A2D
  8
0
  6
CONTINUOUS
 10
6.775136745476159
 20
0.0181802528318542
 30
0.0
 11
5.699826040202669
 21
1.093490958105344
 31
0.0
  0
LINE
  5
21A2E
  8
0
  6
CONTINUOUS
 10
6.983376846288489
 20
0.4834593610997118
 30
0.0
 11
5.908008617934405
 21
1.558827589453796
 31
0.0
  0
LINE
  5
21A2F
  8
0
  6
CONTINUOUS
 10
5.377063484962296
 20
1.416253513345719
 30
0.0
 11
1.702276957014131
 21
5.091040041293883
 31
0.0
  0
LINE
  5
21A30
  8
0
  6
CONTINUOUS
 10
3.978745891735324
 20
3.488090315652877
 30
0.0
 11
2.000373521109399
 21
5.466462686278803
 31
0.0
  0
LINE
  5
21A31
  8
0
  6
CONTINUOUS
 10
7.191616947100819
 20
0.948738469367568
 30
0.0
 11
6.11619119566614
 21
2.024164220802247
 31
0.0
  0
LINE
  5
21A32
  8
0
  6
CONTINUOUS
 10
7.399857047913149
 20
1.414017577635424
 30
0.0
 11
6.324373773397875
 21
2.489500852150698
 31
0.0
  0
LINE
  5
21A33
  8
0
  6
CONTINUOUS
 10
7.608097148725479
 20
1.879296685903281
 30
0.0
 11
6.53255635112961
 21
2.95483748349915
 31
0.0
  0
LINE
  5
21A34
  8
0
  6
CONTINUOUS
 10
7.816337249537808
 20
2.344575794171138
 30
0.0
 11
6.740738928861345
 21
3.420174114847601
 31
0.0
  0
LINE
  5
21A35
  8
0
  6
CONTINUOUS
 10
3.310241080789734
 20
4.830114335678653
 30
0.0
 11
2.298470085204666
 21
5.84188533126372
 31
0.0
  0
LINE
  5
21A36
  8
0
  6
CONTINUOUS
 10
3.60832983563551
 20
5.205544789913063
 30
0.0
 11
2.596566649299935
 21
6.217307976248638
 31
0.0
  0
LINE
  5
21A37
  8
0
  6
CONTINUOUS
 10
3.906418590481286
 20
5.580975244147473
 30
0.0
 11
2.894663213395203
 21
6.592730621233557
 31
0.0
  0
LINE
  5
21A38
  8
0
  6
CONTINUOUS
 10
4.204507345327062
 20
5.956405698381884
 30
0.0
 11
3.192759777490472
 21
6.968153266218474
 31
0.0
  0
LINE
  5
21A39
  8
0
  6
CONTINUOUS
 10
8.466032252791512
 20
2.368399999997621
 30
0.0
 11
6.948921506593081
 21
3.885510746196053
 31
0.0
  0
LINE
  5
21A3A
  8
0
  6
CONTINUOUS
 10
9.139551461871699
 20
2.36839999999762
 30
0.0
 11
7.157104084324816
 21
4.350847377544504
 31
0.0
  0
LINE
  5
21A3B
  8
0
  6
CONTINUOUS
 10
4.502596100172839
 20
6.331836152616295
 30
0.0
 11
3.49085634158574
 21
7.343575911203393
 31
0.0
  0
LINE
  5
21A3C
  8
0
  6
CONTINUOUS
 10
4.800684855018615
 20
6.707266606850705
 30
0.0
 11
3.788952905681008
 21
7.718998556188312
 31
0.0
  0
LINE
  5
21A3D
  8
0
  6
CONTINUOUS
 10
12.18154012887317
 20
-0.0000694579236642
 30
0.0
 11
11.32140332908496
 21
0.8600673418645499
 31
0.0
  0
LINE
  5
21A3E
  8
0
  6
CONTINUOUS
 10
12.85501608323566
 20
-0.0000262032059659
 30
0.0
 11
10.77672456435345
 21
2.078265315676246
 31
0.0
  0
LINE
  5
21A3F
  8
0
  6
CONTINUOUS
 10
9.813070670951886
 20
2.36839999999762
 30
0.0
 11
8.51047067095321
 21
3.670999999996297
 31
0.0
  0
LINE
  5
21A40
  8
0
  6
CONTINUOUS
 10
10.48658988003207
 20
2.36839999999762
 30
0.0
 11
9.183989880033396
 21
3.670999999996297
 31
0.0
  0
LINE
  5
21A41
  8
0
  6
CONTINUOUS
 10
8.441048632286794
 20
3.740422038662712
 30
0.0
 11
7.365286662056551
 21
4.816184008892956
 31
0.0
  0
LINE
  5
21A42
  8
0
  6
CONTINUOUS
 10
8.649187485808454
 20
4.205802394221237
 30
0.0
 11
7.573469239788285
 21
5.281520640241407
 31
0.0
  0
LINE
  5
21A43
  8
0
  6
CONTINUOUS
 10
5.098773609864391
 20
7.082697061085115
 30
0.0
 11
4.087049469776277
 21
8.09442120117323
 31
0.0
  0
LINE
  5
21A44
  8
0
  6
CONTINUOUS
 10
5.396862364710167
 20
7.458127515319526
 30
0.0
 11
4.385146033871544
 21
8.469843846158149
 31
0.0
  0
LINE
  5
21A45
  8
0
  6
CONTINUOUS
 10
13.04801363231285
 20
0.4804954567970334
 30
0.0
 11
9.85750908911358
 21
3.670999999996297
 31
0.0
  0
LINE
  5
21A46
  8
0
  6
CONTINUOUS
 10
8.857326339330116
 20
4.671182749779763
 30
0.0
 11
7.781651817520021
 21
5.746857271589858
 31
0.0
  0
LINE
  5
21A47
  8
0
  6
CONTINUOUS
 10
5.694951119555943
 20
7.833557969553937
 30
0.0
 11
4.765409089118624
 21
8.763099999991255
 31
0.0
  0
LINE
  5
21A48
  8
0
  6
CONTINUOUS
 10
12.50286117236978
 20
1.699167125820288
 30
0.0
 11
9.68611877250287
 21
4.515909525687196
 31
0.0
  0
LINE
  5
21A49
  8
0
  6
CONTINUOUS
 10
9.065465192851777
 20
5.136563105338288
 30
0.0
 11
7.989834395251757
 21
6.21219390293831
 31
0.0
  0
LINE
  5
21A4A
  8
0
  6
CONTINUOUS
 10
5.993039874401719
 20
8.208988423788346
 30
0.0
 11
5.43892829819881
 21
8.763099999991255
 31
0.0
  0
LINE
  5
21A4B
  8
0
  6
CONTINUOUS
 10
11.95770871242671
 20
2.917838794843543
 30
0.0
 11
8.19801697298349
 21
6.677530534286761
 31
0.0
  0
LINE
  5
21A4C
  8
0
  6
CONTINUOUS
 10
6.291128629247495
 20
8.584418878022756
 30
0.0
 11
6.112447507278997
 21
8.763099999991255
 31
0.0
  0
LINE
  5
21A4D
  8
0
  6
CONTINUOUS
 10
11.41255625248364
 20
4.136510463866797
 30
0.0
 11
8.406199550715227
 21
7.142867165635211
 31
0.0
  0
LINE
  5
21A4E
  8
0
  6
CONTINUOUS
 10
10.86740379254057
 20
5.355182132890051
 30
0.0
 11
8.614382128446962
 21
7.608203796983664
 31
0.0
  0
LINE
  5
21A4F
  8
0
  6
CONTINUOUS
 10
10.3222513325975
 20
6.573853801913305
 30
0.0
 11
8.822564706178696
 21
8.073540428332114
 31
0.0
  0
LINE
  5
21A50
  8
0
  6
CONTINUOUS
 10
9.777098872654436
 20
7.792525470936562
 30
0.0
 11
9.030747283910433
 21
8.538877059680566
 31
0.0
  0
ENDBLK
  5
21B92
  8
0
  0
BLOCK
  8
0
  2
*X54
 70
     1
 10
0.0
 20
0.0
 30
0.0
  3
*X54
  1

  0
LINE
  5
21A52
  8
0
  6
CONTINUOUS
 10
10.67292308101235
 20
8.445076852443387
 30
0.0
 11
10.99094622856022
 21
8.763099999991255
 31
0.0
  0
LINE
  5
21A53
  8
0
  6
CONTINUOUS
 10
10.87250383178748
 20
7.971138394138331
 30
0.0
 11
11.6644654376404
 21
8.763099999991255
 31
0.0
  0
LINE
  5
21A54
  8
0
  6
CONTINUOUS
 10
11.07208458256261
 20
7.497199935833273
 30
0.0
 11
12.12126590876355
 21
8.546381262034211
 31
0.0
  0
LINE
  5
21A55
  8
0
  6
CONTINUOUS
 10
11.27166533333774
 20
7.023261477528216
 30
0.0
 11
12.32085164573666
 21
8.072447789927136
 31
0.0
  0
LINE
  5
21A56
  8
0
  6
CONTINUOUS
 10
11.47124608411287
 20
6.549323019223158
 30
0.0
 11
12.52043738270977
 21
7.59851431782006
 31
0.0
  0
LINE
  5
21A57
  8
0
  6
CONTINUOUS
 10
11.670826834888
 20
6.075384560918101
 30
0.0
 11
12.72002311968288
 21
7.124580845712984
 31
0.0
  0
LINE
  5
21A58
  8
0
  6
CONTINUOUS
 10
11.87040758566313
 20
5.601446102613043
 30
0.0
 11
12.91960885665599
 21
6.650647373605907
 31
0.0
  0
LINE
  5
21A59
  8
0
  6
CONTINUOUS
 10
12.06998833643825
 20
5.127507644307986
 30
0.0
 11
13.1191945936291
 21
6.176713901498832
 31
0.0
  0
LINE
  5
21A5A
  8
0
  6
CONTINUOUS
 10
12.26956908721338
 20
4.65356918600293
 30
0.0
 11
13.31878033060221
 21
5.702780429391757
 31
0.0
  0
LINE
  5
21A5B
  8
0
  6
CONTINUOUS
 10
12.46914983798851
 20
4.179630727697873
 30
0.0
 11
13.51836606757532
 21
5.228846957284683
 31
0.0
  0
LINE
  5
21A5C
  8
0
  6
CONTINUOUS
 10
12.66873058876364
 20
3.705692269392816
 30
0.0
 11
13.71795180454843
 21
4.754913485177607
 31
0.0
  0
LINE
  5
21A5D
  8
0
  6
CONTINUOUS
 10
12.86831133953877
 20
3.231753811087759
 30
0.0
 11
13.91753754152154
 21
4.280980013070531
 31
0.0
  0
LINE
  5
21A5E
  8
0
  6
CONTINUOUS
 10
13.0678920903139
 20
2.757815352782702
 30
0.0
 11
14.11712327849465
 21
3.807046540963456
 31
0.0
  0
LINE
  5
21A5F
  8
0
  6
CONTINUOUS
 10
13.26747284108903
 20
2.283876894477644
 30
0.0
 11
14.31670901546777
 21
3.333113068856379
 31
0.0
  0
LINE
  5
21A60
  8
0
  6
CONTINUOUS
 10
16.36767838827179
 20
8.751678487061342
 30
0.0
 11
16.50332410898388
 21
8.887324207773432
 31
0.0
  0
LINE
  5
21A61
  8
0
  6
CONTINUOUS
 10
15.96190732182191
 20
7.67238821153127
 30
0.0
 11
16.68735328004734
 21
8.397834169756699
 31
0.0
  0
LINE
  5
21A62
  8
0
  6
CONTINUOUS
 10
15.55613625537202
 20
6.593097936001196
 30
0.0
 11
16.87138245111079
 21
7.908344131739965
 31
0.0
  0
LINE
  5
21A63
  8
0
  6
CONTINUOUS
 10
15.15036518892213
 20
5.513807660471122
 30
0.0
 11
17.05541162217424
 21
7.418854093723231
 31
0.0
  0
LINE
  5
21A64
  8
0
  6
CONTINUOUS
 10
14.74459412247225
 20
4.434517384941048
 30
0.0
 11
17.2394407932377
 21
6.929364055706499
 31
0.0
  0
LINE
  5
21A65
  8
0
  6
CONTINUOUS
 10
14.33882305602236
 20
3.355227109410975
 30
0.0
 11
17.42346996430115
 21
6.439874017689766
 31
0.0
  0
LINE
  5
21A66
  8
0
  6
CONTINUOUS
 10
13.46705359186416
 20
1.809938436172586
 30
0.0
 11
16.0819338255367
 21
4.424818669845129
 31
0.0
  0
LINE
  5
21A67
  8
0
  6
CONTINUOUS
 10
16.63283254238972
 20
4.975717386698149
 30
0.0
 11
17.60749913536461
 21
5.950383979673033
 31
0.0
  0
LINE
  5
21A68
  8
0
  6
CONTINUOUS
 10
13.66663434263929
 20
1.335999977867529
 30
0.0
 11
15.67604797733754
 21
3.345413612565779
 31
0.0
  0
LINE
  5
21A69
  8
0
  6
CONTINUOUS
 10
13.86621509341442
 20
0.8620615195624723
 30
0.0
 11
15.27016212913838
 21
2.26600855528643
 31
0.0
  0
LINE
  5
21A6A
  8
0
  6
CONTINUOUS
 10
16.81682257348267
 20
4.486188208710908
 30
0.0
 11
17.79152830642806
 21
5.460893941656299
 31
0.0
  0
LINE
  5
21A6B
  8
0
  6
CONTINUOUS
 10
17.00081260457561
 20
3.996659030723667
 30
0.0
 11
17.97555747749151
 21
4.971403903639565
 31
0.0
  0
LINE
  5
21A6C
  8
0
  6
CONTINUOUS
 10
20.74362343514722
 20
8.412989070375462
 30
0.0
 11
21.09373436476302
 21
8.763099999991256
 31
0.0
  0
LINE
  5
21A6D
  8
0
  6
CONTINUOUS
 10
20.25401257174777
 20
7.249858997895826
 30
0.0
 11
21.7672535738432
 21
8.763099999991255
 31
0.0
  0
LINE
  5
21A6E
  8
0
  6
CONTINUOUS
 10
14.06579584418955
 20
0.3881230612574149
 30
0.0
 11
14.86427628093921
 21
1.186603498007082
 31
0.0
  0
LINE
  5
21A6F
  8
0
  6
CONTINUOUS
 10
14.26537659496467
 20
-0.0858153970476412
 30
0.0
 11
14.45839043274005
 21
0.1071984407277329
 31
0.0
  0
LINE
  5
21A70
  8
0
  6
CONTINUOUS
 10
17.18480263566856
 20
3.507129852736426
 30
0.0
 11
18.15958664855496
 21
4.481913865622833
 31
0.0
  0
LINE
  5
21A71
  8
0
  6
CONTINUOUS
 10
17.3687926667615
 20
3.017600674749186
 30
0.0
 11
18.34361581961842
 21
3.9924238276061
 31
0.0
  0
LINE
  5
21A72
  8
0
  6
CONTINUOUS
 10
19.76440170834832
 20
6.086728925416191
 30
0.0
 11
22.33924590259489
 21
8.661573119662755
 31
0.0
  0
LINE
  5
21A73
  8
0
  6
CONTINUOUS
 10
19.27479084494887
 20
4.923598852936555
 30
0.0
 11
21.84929622842713
 21
7.498104236414807
 31
0.0
  0
LINE
  5
21A74
  8
0
  6
CONTINUOUS
 10
17.55278269785445
 20
2.528071496761945
 30
0.0
 11
18.52764499068187
 21
3.502933789589366
 31
0.0
  0
LINE
  5
21A75
  8
0
  6
CONTINUOUS
 10
18.78517998154942
 20
3.760468780456919
 30
0.0
 11
21.35934655425936
 21
6.33463535316686
 31
0.0
  0
LINE
  5
21A76
  8
0
  6
CONTINUOUS
 10
17.73677272894739
 20
2.038542318774704
 30
0.0
 11
20.8693968800916
 21
5.171166469918914
 31
0.0
  0
LINE
  5
21A77
  8
0
  6
CONTINUOUS
 10
17.92076276004034
 20
1.549013140787464
 30
0.0
 11
20.37944720592384
 21
4.007697586670968
 31
0.0
  0
LINE
  5
21A78
  8
0
  6
CONTINUOUS
 10
18.10475279113329
 20
1.059483962800223
 30
0.0
 11
19.88949753175608
 21
2.84422870342302
 31
0.0
  0
LINE
  5
21A79
  8
0
  6
CONTINUOUS
 10
18.28874282222623
 20
0.5699547848129822
 30
0.0
 11
19.39954785758832
 21
1.680759820175074
 31
0.0
  0
LINE
  5
21A7A
  8
0
  6
CONTINUOUS
 10
18.47273285331918
 20
0.0804256068257416
 30
0.0
 11
18.90959818342056
 21
0.517290936927127
 31
0.0
  0
LINE
  5
21A7B
  8
0
  6
CONTINUOUS
 10
14.3590401358224
 20
-0.1570118376323384
 30
0.0
 11
14.24903296539946
 21
-0.0470046672093929
 31
0.0
  0
LINE
  5
21A7C
  8
0
  6
CONTINUOUS
 10
14.54309291258661
 20
0.332454594683643
 30
0.0
 11
13.75908329123172
 21
1.116464216038529
 31
0.0
  0
LINE
  5
21A7D
  8
0
  6
CONTINUOUS
 10
14.72714568935081
 20
0.8219210269996244
 30
0.0
 11
13.26913361706399
 21
2.27993309928645
 31
0.0
  0
LINE
  5
21A7E
  8
0
  6
CONTINUOUS
 10
14.91119846611502
 20
1.311387459315606
 30
0.0
 11
12.77918394289625
 21
3.443401982534371
 31
0.0
  0
LINE
  5
21A7F
  8
0
  6
CONTINUOUS
 10
15.09525124287922
 20
1.800853891631587
 30
0.0
 11
12.28923426872852
 21
4.606870865782293
 31
0.0
  0
LINE
  5
21A80
  8
0
  6
CONTINUOUS
 10
15.27930401964343
 20
2.290320323947569
 30
0.0
 11
11.79928459456078
 21
5.770339749030213
 31
0.0
  0
LINE
  5
21A81
  8
0
  6
CONTINUOUS
 10
15.46335679640763
 20
2.77978675626355
 30
0.0
 11
14.48885470994921
 21
3.754288842721972
 31
0.0
  0
LINE
  5
21A82
  8
0
  6
CONTINUOUS
 10
13.88507249233704
 20
4.358071060334137
 30
0.0
 11
11.30933492039305
 21
6.933808632278135
 31
0.0
  0
LINE
  5
21A83
  8
0
  6
CONTINUOUS
 10
18.75840522805855
 20
0.1582575336928151
 30
0.0
 11
18.25383727664818
 21
0.6628254851031863
 31
0.0
  0
LINE
  5
21A84
  8
0
  6
CONTINUOUS
 10
15.64740957317184
 20
3.269253188579531
 30
0.0
 11
14.67288388101266
 21
4.243778880738705
 31
0.0
  0
LINE
  5
21A85
  8
0
  6
CONTINUOUS
 10
13.39509276772158
 20
5.521569994029786
 30
0.0
 11
10.81938524622531
 21
8.097277515526056
 31
0.0
  0
LINE
  5
21A86
  8
0
  6
CONTINUOUS
 10
18.95798597883369
 20
0.6321959919978686
 30
0.0
 11
17.84825644852853
 21
1.741925522303024
 31
0.0
  0
LINE
  5
21A87
  8
0
  6
CONTINUOUS
 10
19.15756672960882
 20
1.106134450302922
 30
0.0
 11
17.44267562040888
 21
2.821025559502861
 31
0.0
  0
LINE
  5
21A88
  8
0
  6
CONTINUOUS
 10
15.83146234993604
 20
3.758719620895513
 30
0.0
 11
14.85691305207612
 21
4.733268918755439
 31
0.0
  0
LINE
  5
21A89
  8
0
  6
CONTINUOUS
 10
16.01551512670025
 20
4.248186053211494
 30
0.0
 11
15.04094222313957
 21
5.222758956772172
 31
0.0
  0
LINE
  5
21A8A
  8
0
  6
CONTINUOUS
 10
12.90511304310612
 20
6.685068927725435
 30
0.0
 11
10.8270819708403
 21
8.763099999991255
 31
0.0
  0
LINE
  5
21A8B
  8
0
  6
CONTINUOUS
 10
12.41513331849066
 20
7.848567861421083
 30
0.0
 11
11.50060117992049
 21
8.763099999991255
 31
0.0
  0
LINE
  5
21A8C
  8
0
  6
CONTINUOUS
 10
19.35714748038395
 20
1.580072908607975
 30
0.0
 11
17.03709479228923
 21
3.900125596702697
 31
0.0
  0
LINE
  5
21A8D
  8
0
  6
CONTINUOUS
 10
19.55672823115909
 20
2.054011366913028
 30
0.0
 11
16.63151396416958
 21
4.979225633902534
 31
0.0
  0
LINE
  5
21A8E
  8
0
  6
CONTINUOUS
 10
16.19956790346445
 20
4.737652485527476
 30
0.0
 11
15.22497139420302
 21
5.712248994788904
 31
0.0
  0
LINE
  5
21A8F
  8
0
  6
CONTINUOUS
 10
16.38362068022866
 20
5.227118917843457
 30
0.0
 11
15.40900056526648
 21
6.201739032805637
 31
0.0
  0
LINE
  5
21A90
  8
0
  6
CONTINUOUS
 10
19.75630898193422
 20
2.527949825218081
 30
0.0
 11
18.70774536448286
 21
3.576513442669441
 31
0.0
  0
LINE
  5
21A91
  8
0
  6
CONTINUOUS
 10
19.95588973270936
 20
3.001888283523134
 30
0.0
 11
18.90726987211446
 21
4.050508144118028
 31
0.0
  0
LINE
  5
21A92
  8
0
  6
CONTINUOUS
 10
20.15547048348449
 20
3.475826741828186
 30
0.0
 11
19.10679437974606
 21
4.524502845566614
 31
0.0
  0
LINE
  5
21A93
  8
0
  6
CONTINUOUS
 10
20.35505123425962
 20
3.94976520013324
 30
0.0
 11
19.30631888737766
 21
4.998497547015201
 31
0.0
  0
LINE
  5
21A94
  8
0
  6
CONTINUOUS
 10
20.55463198503475
 20
4.423703658438292
 30
0.0
 11
19.50584339500926
 21
5.472492248463787
 31
0.0
  0
LINE
  5
21A95
  8
0
  6
CONTINUOUS
 10
18.37481191085755
 20
3.909446896294752
 30
0.0
 11
15.59302973632993
 21
6.691229070822371
 31
0.0
  0
LINE
  5
21A96
  8
0
  6
CONTINUOUS
 10
17.96904084440766
 20
4.988737171824825
 30
0.0
 11
15.77705890739338
 21
7.180719108839104
 31
0.0
  0
LINE
  5
21A97
  8
0
  6
CONTINUOUS
 10
17.56326977795777
 20
6.068027447354899
 30
0.0
 11
15.96108807845684
 21
7.670209146855838
 31
0.0
  0
LINE
  5
21A98
  8
0
  6
CONTINUOUS
 10
17.15749871150789
 20
7.147317722884972
 30
0.0
 11
16.14511724952029
 21
8.15969918487257
 31
0.0
  0
LINE
  5
21A99
  8
0
  6
CONTINUOUS
 10
16.751727645058
 20
8.226607998415046
 30
0.0
 11
16.32914642058374
 21
8.649189222889303
 31
0.0
  0
LINE
  5
21A9A
  8
0
  6
CONTINUOUS
 10
20.75421273580989
 20
4.897642116743345
 30
0.0
 11
19.70536790264086
 21
5.946486949912374
 31
0.0
  0
LINE
  5
21A9B
  8
0
  6
CONTINUOUS
 10
20.95379348658502
 20
5.371580575048398
 30
0.0
 11
19.90489241027246
 21
6.42048165136096
 31
0.0
  0
LINE
  5
21A9C
  8
0
  6
CONTINUOUS
 10
21.15337423736015
 20
5.845519033353452
 30
0.0
 11
20.10441691790406
 21
6.894476352809547
 31
0.0
  0
LINE
  5
21A9D
  8
0
  6
CONTINUOUS
 10
21.35295498813529
 20
6.319457491658505
 30
0.0
 11
20.30394142553566
 21
7.368471054258134
 31
0.0
  0
LINE
  5
21A9E
  8
0
  6
CONTINUOUS
 10
21.55253573891042
 20
6.793395949963558
 30
0.0
 11
20.50346593316726
 21
7.842465755706721
 31
0.0
  0
LINE
  5
21A9F
  8
0
  6
CONTINUOUS
 10
21.75211648968556
 20
7.267334408268612
 30
0.0
 11
20.70299044079886
 21
8.316460457155308
 31
0.0
  0
LINE
  5
21AA0
  8
0
  6
CONTINUOUS
 10
21.95169724046069
 20
7.741272866573663
 30
0.0
 11
20.9298701070431
 21
8.763099999991256
 31
0.0
  0
LINE
  5
21AA1
  8
0
  6
CONTINUOUS
 10
22.15127799123582
 20
8.215211324878716
 30
0.0
 11
21.60338931612328
 21
8.763099999991256
 31
0.0
  0
LINE
  5
21AA2
  8
0
  6
CONTINUOUS
 10
22.35085874201096
 20
8.689149783183769
 30
0.0
 11
22.27690852520347
 21
8.763099999991255
 31
0.0
  0
ENDBLK
  5
21B94
  8
0
  0
BLOCK
  8
0
  2
*X55
 70
     1
 10
0.0
 20
0.0
 30
0.0
  3
*X55
  1

  0
LINE
  5
21AA4
  8
0
  6
CONTINUOUS
 10
23.19462913593892
 20
8.169917934846424
 30
0.0
 11
23.70775465517246
 21
8.683043454079957
 31
0.0
  0
LINE
  5
21AA5
  8
0
  6
CONTINUOUS
 10
22.64923161835078
 20
6.951001208178088
 30
0.0
 11
23.9159364069932
 21
8.217705996820516
 31
0.0
  0
LINE
  5
21AA6
  8
0
  6
CONTINUOUS
 10
22.10383410076263
 20
5.732084481509751
 30
0.0
 11
24.12411815881395
 21
7.752368539561078
 31
0.0
  0
LINE
  5
21AA7
  8
0
  6
CONTINUOUS
 10
21.55843658317447
 20
4.513167754841414
 30
0.0
 11
24.3322999106347
 21
7.287031082301639
 31
0.0
  0
LINE
  5
21AA8
  8
0
  6
CONTINUOUS
 10
21.01303906558632
 20
3.294251028173077
 30
0.0
 11
24.54048166245544
 21
6.821693625042199
 31
0.0
  0
LINE
  5
21AA9
  8
0
  6
CONTINUOUS
 10
20.46764154799817
 20
2.075334301504738
 30
0.0
 11
23.28571549467848
 21
4.89340824818505
 31
0.0
  0
LINE
  5
21AAA
  8
0
  6
CONTINUOUS
 10
19.92224403041002
 20
0.8564175748364002
 30
0.0
 11
22.74075865492779
 21
3.674932199354171
 31
0.0
  0
LINE
  5
21AAB
  8
0
  6
CONTINUOUS
 10
23.67305085490148
 20
5.280743608408048
 30
0.0
 11
24.74866341427619
 21
6.356356167782759
 31
0.0
  0
LINE
  5
21AAC
  8
0
  6
CONTINUOUS
 10
23.88118970842314
 20
4.815363252849522
 30
0.0
 11
24.95684516609694
 21
5.89101871052332
 31
0.0
  0
LINE
  5
21AAD
  8
0
  6
CONTINUOUS
 10
19.73925852647308
 20
-0.0000871381807288
 30
0.0
 11
23.4103456646501
 21
3.670999999996297
 31
0.0
  0
LINE
  5
21AAE
  8
0
  6
CONTINUOUS
 10
24.0893285619448
 20
4.349982897290997
 30
0.0
 11
25.16502691791769
 21
5.42568125326388
 31
0.0
  0
LINE
  5
21AAF
  8
0
  6
CONTINUOUS
 10
20.41282099582748
 20
-0.0000438779065108
 30
0.0
 11
21.64944178675636
 21
1.236576913022366
 31
0.0
  0
LINE
  5
21AB0
  8
0
  6
CONTINUOUS
 10
22.78126487373161
 20
2.36839999999762
 30
0.0
 11
24.08386487373029
 21
3.670999999996297
 31
0.0
  0
LINE
  5
21AB1
  8
0
  6
CONTINUOUS
 10
24.29746741546646
 20
3.884602541732471
 30
0.0
 11
25.37320866973843
 21
4.960343796004441
 31
0.0
  0
LINE
  5
21AB2
  8
0
  6
CONTINUOUS
 10
21.08638346518189
 20
-0.0000006176322938
 30
0.0
 11
21.10379033335899
 21
0.0174062505448083
 31
0.0
  0
LINE
  5
21AB3
  8
0
  6
CONTINUOUS
 10
23.4547840828118
 20
2.36839999999762
 30
0.0
 11
25.58139042155918
 21
4.495006338745002
 31
0.0
  0
LINE
  5
21AB4
  8
0
  6
CONTINUOUS
 10
29.30199999996933
 20
8.215615917155148
 30
0.0
 11
29.84948408280543
 21
8.763099999991255
 31
0.0
  0
LINE
  5
21AB5
  8
0
  6
CONTINUOUS
 10
24.12830329189199
 20
2.36839999999762
 30
0.0
 11
25.78957217337993
 21
4.029668881485562
 31
0.0
  0
LINE
  5
21AB6
  8
0
  6
CONTINUOUS
 10
29.30199999996933
 20
7.54209670807496
 30
0.0
 11
30.52300329188562
 21
8.763099999991255
 31
0.0
  0
LINE
  5
21AB7
  8
0
  6
CONTINUOUS
 10
24.80182250097217
 20
2.36839999999762
 30
0.0
 11
25.99775392520067
 21
3.564331424226122
 31
0.0
  0
LINE
  5
21AB8
  8
0
  6
CONTINUOUS
 10
29.30199999996933
 20
6.868577498994774
 30
0.0
 11
30.74199999996926
 21
8.308577498994712
 31
0.0
  0
LINE
  5
21AB9
  8
0
  6
CONTINUOUS
 10
25.13028238392013
 20
2.023340673865392
 30
0.0
 11
26.20593567702142
 21
3.098993966966683
 31
0.0
  0
LINE
  5
21ABA
  8
0
  6
CONTINUOUS
 10
25.33838066033617
 20
1.557919741201244
 30
0.0
 11
26.41411742884217
 21
2.633656509707244
 31
0.0
  0
LINE
  5
21ABB
  8
0
  6
CONTINUOUS
 10
25.54647893675221
 20
1.092498808537098
 30
0.0
 11
26.62229918066291
 21
2.168319052447804
 31
0.0
  0
LINE
  5
21ABC
  8
0
  6
CONTINUOUS
 10
25.75457721316825
 20
0.62707787587295
 30
0.0
 11
26.83048093248366
 21
1.702981595188365
 31
0.0
  0
LINE
  5
21ABD
  8
0
  6
CONTINUOUS
 10
29.30199999996933
 20
6.195058289914587
 30
0.0
 11
30.74199999996926
 21
7.635058289914522
 31
0.0
  0
LINE
  5
21ABE
  8
0
  6
CONTINUOUS
 10
29.30199999996933
 20
5.521539080834401
 30
0.0
 11
30.74199999996926
 21
6.961539080834331
 31
0.0
  0
LINE
  5
21ABF
  8
0
  6
CONTINUOUS
 10
29.30199999996933
 20
4.848019871754214
 30
0.0
 11
30.74199999996925
 21
6.288019871754143
 31
0.0
  0
LINE
  5
21AC0
  8
0
  6
CONTINUOUS
 10
29.30199999996933
 20
4.174500662674028
 30
0.0
 11
30.74199999996925
 21
5.614500662673953
 31
0.0
  0
LINE
  5
21AC1
  8
0
  6
CONTINUOUS
 10
25.96267548958429
 20
0.1616569432088024
 30
0.0
 11
27.18411854636669
 21
1.383099999991207
 31
0.0
  0
LINE
  5
21AC2
  8
0
  6
CONTINUOUS
 10
29.30199999996933
 20
3.500981453593841
 30
0.0
 11
30.74199999996925
 21
4.940981453593762
 31
0.0
  0
LINE
  5
21AC3
  8
0
  6
CONTINUOUS
 10
26.50763775544691
 20
0.0330999999912356
 30
0.0
 11
27.85763775544689
 21
1.383099999991223
 31
0.0
  0
LINE
  5
21AC4
  8
0
  6
CONTINUOUS
 10
29.30199999996933
 20
2.827462244513656
 30
0.0
 11
30.74199999996925
 21
4.267462244513574
 31
0.0
  0
LINE
  5
21AC5
  8
0
  6
CONTINUOUS
 10
27.18115696452709
 20
0.0330999999912356
 30
0.0
 11
28.55073879889363
 21
1.402681834357775
 31
0.0
  0
LINE
  5
21AC6
  8
0
  6
CONTINUOUS
 10
29.28241816560272
 20
2.134361201066866
 30
0.0
 11
30.74199999996924
 21
3.593943035433383
 31
0.0
  0
LINE
  5
21AC7
  8
0
  6
CONTINUOUS
 10
27.85467617360728
 20
0.0330999999912356
 30
0.0
 11
30.74199999996924
 21
2.920423826353195
 31
0.0
  0
LINE
  5
21AC8
  8
0
  6
CONTINUOUS
 10
28.53897559587887
 20
0.0438802131826428
 30
0.0
 11
30.73121978677781
 21
2.236124404081585
 31
0.0
  0
LINE
  5
21AC9
  8
0
  6
CONTINUOUS
 10
29.45140055588722
 20
0.2827859641107988
 30
0.0
 11
30.49231403584965
 21
1.323699444073236
 31
0.0
  0
LINE
  5
21ACA
  8
0
  6
CONTINUOUS
 10
19.59027867740337
 20
-0.0000967065718083
 30
0.0
 11
19.55485265190471
 21
0.035329318926844
 31
0.0
  0
LINE
  5
21ACB
  8
0
  6
CONTINUOUS
 10
20.26375463176586
 20
-0.0000534518541091
 30
0.0
 11
19.76305575737534
 21
0.5006454225364014
 31
0.0
  0
LINE
  5
21ACC
  8
0
  6
CONTINUOUS
 10
20.93723058612834
 20
-0.0000101971364099
 30
0.0
 11
19.97125886284597
 21
0.965961526145958
 31
0.0
  0
LINE
  5
21ACD
  8
0
  6
CONTINUOUS
 10
21.25514828313686
 20
0.355591314935257
 30
0.0
 11
20.1794619683166
 21
1.431277629755512
 31
0.0
  0
LINE
  5
21ACE
  8
0
  6
CONTINUOUS
 10
21.46338838394921
 20
0.8208704232030986
 30
0.0
 11
20.38766507378723
 21
1.896593733365069
 31
0.0
  0
LINE
  5
21ACF
  8
0
  6
CONTINUOUS
 10
21.67162848476155
 20
1.28614953147094
 30
0.0
 11
20.59586817925786
 21
2.361909836974626
 31
0.0
  0
LINE
  5
21AD0
  8
0
  6
CONTINUOUS
 10
21.8798685855739
 20
1.751428639738782
 30
0.0
 11
20.80407128472849
 21
2.827225940584183
 31
0.0
  0
LINE
  5
21AD1
  8
0
  6
CONTINUOUS
 10
22.08810868638624
 20
2.216707748006623
 30
0.0
 11
21.01227439019912
 21
3.292542044193739
 31
0.0
  0
LINE
  5
21AD2
  8
0
  6
CONTINUOUS
 10
22.60993564347543
 20
2.36839999999762
 30
0.0
 11
21.22047749566975
 21
3.757858147803296
 31
0.0
  0
LINE
  5
21AD3
  8
0
  6
CONTINUOUS
 10
23.28345485255561
 20
2.36839999999762
 30
0.0
 11
21.42868060114038
 21
4.223174251412853
 31
0.0
  0
LINE
  5
21AD4
  8
0
  6
CONTINUOUS
 10
26.29227406164219
 20
0.0330999999912356
 30
0.0
 11
25.80009199592872
 21
0.5252820657046957
 31
0.0
  0
LINE
  5
21AD5
  8
0
  6
CONTINUOUS
 10
23.9569740616358
 20
2.36839999999762
 30
0.0
 11
21.63688370661101
 21
4.688490355022409
 31
0.0
  0
LINE
  5
21AD6
  8
0
  6
CONTINUOUS
 10
26.96579327072237
 20
0.0330999999912356
 30
0.0
 11
25.2554132311971
 21
1.743480039516508
 31
0.0
  0
LINE
  5
21AD7
  8
0
  6
CONTINUOUS
 10
24.63049327071599
 20
2.36839999999762
 30
0.0
 11
23.32789327071731
 21
3.670999999996297
 31
0.0
  0
LINE
  5
21AD8
  8
0
  6
CONTINUOUS
 10
22.92098674744635
 20
4.077906523267254
 30
0.0
 11
21.84508681208164
 21
5.153806458631966
 31
0.0
  0
LINE
  5
21AD9
  8
0
  6
CONTINUOUS
 10
27.63931247980256
 20
0.0330999999912356
 30
0.0
 11
24.0014124797975
 21
3.670999999996297
 31
0.0
  0
LINE
  5
21ADA
  8
0
  6
CONTINUOUS
 10
23.129125600968
 20
4.5432868788258
 30
0.0
 11
22.05328991755227
 21
5.619122562241522
 31
0.0
  0
LINE
  5
21ADB
  8
0
  6
CONTINUOUS
 10
28.31283168888275
 20
0.0330999999912356
 30
0.0
 11
24.16488385994816
 21
4.181047828925828
 31
0.0
  0
LINE
  5
21ADC
  8
0
  6
CONTINUOUS
 10
23.33726445448964
 20
5.008667234384345
 30
0.0
 11
22.2614930230229
 21
6.084438665851079
 31
0.0
  0
LINE
  5
21ADD
  8
0
  6
CONTINUOUS
 10
28.92085740005492
 20
0.0985934978992438
 30
0.0
 11
27.63635089796295
 21
1.383099999991217
 31
0.0
  0
LINE
  5
21ADE
  8
0
  6
CONTINUOUS
 10
26.43704649509776
 20
2.582404402856405
 30
0.0
 11
23.61992702019732
 21
5.399523877756844
 31
0.0
  0
LINE
  5
21ADF
  8
0
  6
CONTINUOUS
 10
23.54540330801128
 20
5.47404758994289
 30
0.0
 11
22.46969612849353
 21
6.549754769460635
 31
0.0
  0
LINE
  5
21AE0
  8
0
  6
CONTINUOUS
 10
29.42225615078443
 20
0.2707139562499279
 30
0.0
 11
28.30987010704312
 21
1.383099999991234
 31
0.0
  0
LINE
  5
21AE1
  8
0
  6
CONTINUOUS
 10
25.89179548232307
 20
3.801174624711282
 30
0.0
 11
22.67789923396416
 21
7.015070873070191
 31
0.0
  0
LINE
  5
21AE2
  8
0
  6
CONTINUOUS
 10
29.83624534690007
 20
0.5302439692144705
 30
0.0
 11
28.85811781497101
 21
1.508371501143527
 31
0.0
  0
LINE
  5
21AE3
  8
0
  6
CONTINUOUS
 10
25.34654446954838
 20
5.01994484656616
 30
0.0
 11
22.88610233943479
 21
7.480386976679748
 31
0.0
  0
LINE
  5
21AE4
  8
0
  6
CONTINUOUS
 10
30.17865975401872
 20
0.8613487711760022
 30
0.0
 11
29.18888744090175
 21
1.851121084292977
 31
0.0
  0
LINE
  5
21AE5
  8
0
  6
CONTINUOUS
 10
24.80129345677369
 20
6.238715068421037
 30
0.0
 11
23.09430544490542
 21
7.945703080289305
 31
0.0
  0
LINE
  5
21AE6
  8
0
  6
CONTINUOUS
 10
30.45496647202376
 20
1.258561262251155
 30
0.0
 11
29.30199999996933
 21
2.411527734305588
 31
0.0
  0
LINE
  5
21AE7
  8
0
  6
CONTINUOUS
 10
24.256042443999
 20
7.457485290275915
 30
0.0
 11
23.30250855037605
 21
8.411019183898862
 31
0.0
  0
LINE
  5
21AE8
  8
0
  6
CONTINUOUS
 10
30.64868582078271
 20
1.738361122572387
 30
0.0
 11
29.30199999996933
 21
3.085046943385775
 31
0.0
  0
LINE
  5
21AE9
  8
0
  6
CONTINUOUS
 10
23.71079143122431
 20
8.676255512130794
 30
0.0
 11
23.51071165584668
 21
8.876335287508416
 31
0.0
  0
LINE
  5
21AEA
  8
0
  6
CONTINUOUS
 10
30.73802122914428
 20
2.322544923291007
 30
0.0
 11
29.30199999996933
 21
3.758566152465961
 31
0.0
  0
LINE
  5
21AEB
  8
0
  6
CONTINUOUS
 10
30.74199999996924
 20
2.992085361546236
 30
0.0
 11
29.30199999996933
 21
4.432085361546148
 31
0.0
  0
LINE
  5
21AEC
  8
0
  6
CONTINUOUS
 10
30.74199999996924
 20
3.665604570626419
 30
0.0
 11
29.30199999996933
 21
5.105604570626333
 31
0.0
  0
LINE
  5
21AED
  8
0
  6
CONTINUOUS
 10
30.74199999996925
 20
4.339123779706602
 30
0.0
 11
29.30199999996933
 21
5.77912377970652
 31
0.0
  0
LINE
  5
21AEE
  8
0
  6
CONTINUOUS
 10
30.74199999996925
 20
5.012642988786785
 30
0.0
 11
29.30199999996933
 21
6.452642988786707
 31
0.0
  0
LINE
  5
21AEF
  8
0
  6
CONTINUOUS
 10
30.74199999996925
 20
5.68616219786697
 30
0.0
 11
29.30199999996933
 21
7.126162197866894
 31
0.0
  0
LINE
  5
21AF0
  8
0
  6
CONTINUOUS
 10
30.74199999996925
 20
6.359681406947153
 30
0.0
 11
29.30199999996933
 21
7.799681406947081
 31
0.0
  0
LINE
  5
21AF1
  8
0
  6
CONTINUOUS
 10
30.74199999996926
 20
7.033200616027337
 30
0.0
 11
29.30199999996933
 21
8.473200616027269
 31
0.0
  0
LINE
  5
21AF2
  8
0
  6
CONTINUOUS
 10
30.74199999996926
 20
7.706719825107518
 30
0.0
 11
29.68561982508552
 21
8.763099999991255
 31
0.0
  0
LINE
  5
21AF3
  8
0
  6
CONTINUOUS
 10
30.74199999996926
 20
8.380239034187703
 30
0.0
 11
30.35913903416571
 21
8.763099999991255
 31
0.0
  0
ENDBLK
  5
21B96
  8
0
  0
BLOCK
  8
0
  2
*X56
 70
     1
 10
0.0
 20
0.0
 30
0.0
  3
*X56
  1

  0
LINE
  5
21AF5
  8
0
  6
CONTINUOUS
 10
31.64199999996833
 20
8.535058289913598
 30
0.0
 11
31.87004171004599
 21
8.763099999991255
 31
0.0
  0
LINE
  5
21AF6
  8
0
  6
CONTINUOUS
 10
31.64199999996833
 20
7.861539080833412
 30
0.0
 11
32.54356091912618
 21
8.763099999991255
 31
0.0
  0
LINE
  5
21AF7
  8
0
  6
CONTINUOUS
 10
31.64199999996833
 20
7.188019871753226
 30
0.0
 11
33.08199999996839
 21
8.628019871753281
 31
0.0
  0
LINE
  5
21AF8
  8
0
  6
CONTINUOUS
 10
31.64199999996833
 20
6.51450066267304
 30
0.0
 11
33.08199999996839
 21
7.954500662673095
 31
0.0
  0
LINE
  5
21AF9
  8
0
  6
CONTINUOUS
 10
31.64199999996833
 20
5.840981453592853
 30
0.0
 11
33.08199999996839
 21
7.280981453592908
 31
0.0
  0
LINE
  5
21AFA
  8
0
  6
CONTINUOUS
 10
31.64199999996833
 20
5.167462244512667
 30
0.0
 11
33.08199999996839
 21
6.607462244512721
 31
0.0
  0
LINE
  5
21AFB
  8
0
  6
CONTINUOUS
 10
31.64199999996833
 20
4.493943035432481
 30
0.0
 11
33.08199999996839
 21
5.933943035432535
 31
0.0
  0
LINE
  5
21AFC
  8
0
  6
CONTINUOUS
 10
31.64199999996833
 20
3.820423826352293
 30
0.0
 11
33.08199999996839
 21
5.260423826352348
 31
0.0
  0
LINE
  5
21AFD
  8
0
  6
CONTINUOUS
 10
31.64199999996833
 20
3.146904617272106
 30
0.0
 11
33.08199999996839
 21
4.586904617272161
 31
0.0
  0
LINE
  5
21AFE
  8
0
  6
CONTINUOUS
 10
36.23199999996837
 20
8.410423826352325
 30
0.0
 11
36.5846761736073
 21
8.763099999991255
 31
0.0
  0
LINE
  5
21AFF
  8
0
  6
CONTINUOUS
 10
36.23199999996837
 20
7.73690461727214
 30
0.0
 11
37.25819538268748
 21
8.763099999991255
 31
0.0
  0
LINE
  5
21B00
  8
0
  6
CONTINUOUS
 10
31.64257403601376
 20
2.473959444237348
 30
0.0
 11
33.08199999996839
 21
3.913385408191974
 31
0.0
  0
LINE
  5
21B01
  8
0
  6
CONTINUOUS
 10
36.23199999996837
 20
7.063385408191953
 30
0.0
 11
37.67199999996831
 21
8.503385408191894
 31
0.0
  0
LINE
  5
21B02
  8
0
  6
CONTINUOUS
 10
31.72013636841932
 20
1.87800256756272
 30
0.0
 11
33.08199999996839
 21
3.239866199111788
 31
0.0
  0
LINE
  5
21B03
  8
0
  6
CONTINUOUS
 10
36.23199999996837
 20
6.389866199111767
 30
0.0
 11
37.67199999996831
 21
7.829866199111708
 31
0.0
  0
LINE
  5
21B04
  8
0
  6
CONTINUOUS
 10
31.89042734314753
 20
1.374774333210744
 30
0.0
 11
33.08199999996839
 21
2.566346990031601
 31
0.0
  0
LINE
  5
21B05
  8
0
  6
CONTINUOUS
 10
36.23199999996837
 20
5.71634699003158
 30
0.0
 11
37.67199999996831
 21
7.156346990031521
 31
0.0
  0
LINE
  5
21B06
  8
0
  6
CONTINUOUS
 10
32.14210568064475
 20
0.952933461627778
 30
0.0
 11
33.18745552475986
 21
1.998283305742888
 31
0.0
  0
LINE
  5
21B07
  8
0
  6
CONTINUOUS
 10
36.23199999996837
 20
5.042827780951393
 30
0.0
 11
37.67199999996831
 21
6.482827780951334
 31
0.0
  0
LINE
  5
21B08
  8
0
  6
CONTINUOUS
 10
32.45820639400955
 20
0.5955149659123915
 30
0.0
 11
33.47242681921943
 21
1.60973539112227
 31
0.0
  0
LINE
  5
21B09
  8
0
  6
CONTINUOUS
 10
36.23199999996837
 20
4.369308571871207
 30
0.0
 11
37.67199999996831
 21
5.809308571871147
 31
0.0
  0
LINE
  5
21B0A
  8
0
  6
CONTINUOUS
 10
32.83432456621412
 20
0.2981139290367771
 30
0.0
 11
33.89722476612215
 21
1.361014128944803
 31
0.0
  0
LINE
  5
21B0B
  8
0
  6
CONTINUOUS
 10
36.23199999996837
 20
3.69578936279102
 30
0.0
 11
37.67199999996831
 21
5.135789362790962
 31
0.0
  0
LINE
  5
21B0C
  8
0
  6
CONTINUOUS
 10
33.2711633111245
 20
0.0614334648669672
 30
0.0
 11
34.43247338014423
 21
1.222743533886696
 31
0.0
  0
LINE
  5
21B0D
  8
0
  6
CONTINUOUS
 10
36.23199999996837
 20
3.022270153710834
 30
0.0
 11
37.67199999996831
 21
4.462270153710775
 31
0.0
  0
LINE
  5
21B0E
  8
0
  6
CONTINUOUS
 10
33.76515245874577
 20
-0.1180965965919523
 30
0.0
 11
35.1587445516215
 21
1.27549549628378
 31
0.0
  0
LINE
  5
21B0F
  8
0
  6
CONTINUOUS
 10
36.21639478609585
 20
2.333145730758136
 30
0.0
 11
37.67199999996831
 21
3.788750944630588
 31
0.0
  0
LINE
  5
21B10
  8
0
  6
CONTINUOUS
 10
34.34060583368432
 20
-0.2161624307335863
 30
0.0
 11
37.67199999996831
 21
3.115231735550401
 31
0.0
  0
LINE
  5
21B11
  8
0
  6
CONTINUOUS
 10
35.01698193613905
 20
-0.2133055373590427
 30
0.0
 11
37.66876712070525
 21
2.438479647207154
 31
0.0
  0
LINE
  5
21B12
  8
0
  6
CONTINUOUS
 10
35.90743367693304
 20
0.0036269943547609
 30
0.0
 11
37.51723902192366
 21
1.613432339345381
 31
0.0
  0
LINE
  5
21B13
  8
0
  6
CONTINUOUS
 10
32.55309425579761
 20
0.5074718966376706
 30
0.0
 11
32.27784730925847
 21
0.7827188431768102
 31
0.0
  0
LINE
  5
21B14
  8
0
  6
CONTINUOUS
 10
33.87496468909684
 20
-0.1408793275813673
 30
0.0
 11
31.67993083278052
 21
2.054154528734943
 31
0.0
  0
LINE
  5
21B15
  8
0
  6
CONTINUOUS
 10
34.64362813207632
 20
-0.2360235614806649
 30
0.0
 11
31.64199999996833
 21
2.765604570627322
 31
0.0
  0
LINE
  5
21B16
  8
0
  6
CONTINUOUS
 10
35.25801106796118
 20
-0.1768872882853429
 30
0.0
 11
31.64199999996833
 21
3.439123779707508
 31
0.0
  0
LINE
  5
21B17
  8
0
  6
CONTINUOUS
 10
35.79065650332146
 20
-0.0360135145654361
 30
0.0
 11
34.54143210838231
 21
1.213210880373721
 31
0.0
  0
LINE
  5
21B18
  8
0
  6
CONTINUOUS
 10
33.08199999996839
 20
2.67264298878764
 30
0.0
 11
31.64199999996833
 21
4.112642988787695
 31
0.0
  0
LINE
  5
21B19
  8
0
  6
CONTINUOUS
 10
36.25975597779143
 20
0.1684062200447833
 30
0.0
 11
35.15395110240023
 21
1.274211095435983
 31
0.0
  0
LINE
  5
21B1A
  8
0
  6
CONTINUOUS
 10
33.08199999996839
 20
3.346162197867826
 30
0.0
 11
31.64199999996833
 21
4.786162197867881
 31
0.0
  0
LINE
  5
21B1B
  8
0
  6
CONTINUOUS
 10
36.67226329638774
 20
0.4294181105286579
 30
0.0
 11
35.63766478748767
 21
1.464016619428737
 31
0.0
  0
LINE
  5
21B1C
  8
0
  6
CONTINUOUS
 10
33.08199999996839
 20
4.019681406948012
 30
0.0
 11
31.64199999996833
 21
5.459681406948068
 31
0.0
  0
LINE
  5
21B1D
  8
0
  6
CONTINUOUS
 10
37.01677749710036
 20
0.7584231188962329
 30
0.0
 11
35.99563422741351
 21
1.779566388583076
 31
0.0
  0
LINE
  5
21B1E
  8
0
  6
CONTINUOUS
 10
33.08199999996839
 20
4.693200616028199
 30
0.0
 11
31.64199999996833
 21
6.133200616028255
 31
0.0
  0
LINE
  5
21B1F
  8
0
  6
CONTINUOUS
 10
37.29859977568887
 20
1.1501200493879
 30
0.0
 11
36.20680593341555
 21
2.241913891661226
 31
0.0
  0
LINE
  5
21B20
  8
0
  6
CONTINUOUS
 10
33.08199999996839
 20
5.366719825108386
 30
0.0
 11
31.64199999996833
 21
6.80671982510844
 31
0.0
  0
LINE
  5
21B21
  8
0
  6
CONTINUOUS
 10
37.5148623517228
 20
1.607376682434161
 30
0.0
 11
36.23199999996837
 21
2.890239034188594
 31
0.0
  0
LINE
  5
21B22
  8
0
  6
CONTINUOUS
 10
33.08199999996839
 20
6.040239034188573
 30
0.0
 11
31.64199999996833
 21
7.480239034188627
 31
0.0
  0
LINE
  5
21B23
  8
0
  6
CONTINUOUS
 10
37.64705163358367
 20
2.148706609653477
 30
0.0
 11
36.23199999996837
 21
3.56375824326878
 31
0.0
  0
LINE
  5
21B24
  8
0
  6
CONTINUOUS
 10
33.08199999996839
 20
6.713758243268758
 30
0.0
 11
31.64199999996833
 21
8.153758243268815
 31
0.0
  0
LINE
  5
21B25
  8
0
  6
CONTINUOUS
 10
37.67199999996831
 20
2.797277452349026
 30
0.0
 11
36.23199999996837
 21
4.237277452348967
 31
0.0
  0
LINE
  5
21B26
  8
0
  6
CONTINUOUS
 10
37.67199999996831
 20
3.470796661429213
 30
0.0
 11
36.23199999996837
 21
4.910796661429154
 31
0.0
  0
LINE
  5
21B27
  8
0
  6
CONTINUOUS
 10
37.67199999996831
 20
4.144315870509399
 30
0.0
 11
36.23199999996837
 21
5.58431587050934
 31
0.0
  0
LINE
  5
21B28
  8
0
  6
CONTINUOUS
 10
33.08199999996839
 20
7.387277452348945
 30
0.0
 11
31.70617745232608
 21
8.763099999991255
 31
0.0
  0
LINE
  5
21B29
  8
0
  6
CONTINUOUS
 10
33.08199999996839
 20
8.060796661429132
 30
0.0
 11
32.37969666140626
 21
8.763099999991255
 31
0.0
  0
LINE
  5
21B2A
  8
0
  6
CONTINUOUS
 10
33.08199999996839
 20
8.734315870509318
 30
0.0
 11
33.05321587048645
 21
8.763099999991255
 31
0.0
  0
LINE
  5
21B2B
  8
0
  6
CONTINUOUS
 10
37.67199999996831
 20
4.817835079589585
 30
0.0
 11
36.23199999996837
 21
6.257835079589526
 31
0.0
  0
LINE
  5
21B2C
  8
0
  6
CONTINUOUS
 10
37.67199999996831
 20
5.491354288669771
 30
0.0
 11
36.23199999996837
 21
6.931354288669713
 31
0.0
  0
LINE
  5
21B2D
  8
0
  6
CONTINUOUS
 10
37.67199999996831
 20
6.164873497749958
 30
0.0
 11
36.23199999996837
 21
7.6048734977499
 31
0.0
  0
LINE
  5
21B2E
  8
0
  6
CONTINUOUS
 10
37.67199999996831
 20
6.838392706830144
 30
0.0
 11
36.23199999996837
 21
8.278392706830086
 31
0.0
  0
LINE
  5
21B2F
  8
0
  6
CONTINUOUS
 10
37.67199999996831
 20
7.511911915910332
 30
0.0
 11
36.42081191588738
 21
8.763099999991255
 31
0.0
  0
LINE
  5
21B30
  8
0
  6
CONTINUOUS
 10
37.67199999996831
 20
8.185431124990519
 30
0.0
 11
37.09433112496757
 21
8.763099999991255
 31
0.0
  0
ENDBLK
  5
21B98
  8
0
  0
BLOCK
  8
0
  2
*X57
 70
     1
 10
0.0
 20
0.0
 30
0.0
  3
*X57
  1

  0
LINE
  5
21B32
  8
0
  6
CONTINUOUS
 10
38.60499999996136
 20
8.762866199104765
 30
0.0
 11
38.71672554182345
 21
8.874591740966855
 31
0.0
  0
LINE
  5
21B33
  8
0
  6
CONTINUOUS
 10
38.60499999996136
 20
8.089346990024577
 30
0.0
 11
39.03418785440363
 21
8.518534844466847
 31
0.0
  0
LINE
  5
21B34
  8
0
  6
CONTINUOUS
 10
38.60499999996136
 20
7.41582778094439
 30
0.0
 11
39.35165016698382
 21
8.16247794796684
 31
0.0
  0
LINE
  5
21B35
  8
0
  6
CONTINUOUS
 10
38.60499999996136
 20
6.742308571864204
 30
0.0
 11
39.66911247956399
 21
7.806421051466834
 31
0.0
  0
LINE
  5
21B36
  8
0
  6
CONTINUOUS
 10
38.60499999996136
 20
6.068789362784018
 30
0.0
 11
39.98657479214418
 21
7.450364154966827
 31
0.0
  0
LINE
  5
21B37
  8
0
  6
CONTINUOUS
 10
38.60499999996136
 20
5.395270153703832
 30
0.0
 11
40.30403710472435
 21
7.09430725846682
 31
0.0
  0
LINE
  5
21B38
  8
0
  6
CONTINUOUS
 10
38.60499999996136
 20
4.721750944623645
 30
0.0
 11
40.62149941730453
 21
6.738250361966813
 31
0.0
  0
LINE
  5
21B39
  8
0
  6
CONTINUOUS
 10
38.60499999996136
 20
4.048231735543458
 30
0.0
 11
40.93896172988471
 21
6.382193465466806
 31
0.0
  0
LINE
  5
21B3A
  8
0
  6
CONTINUOUS
 10
38.60499999996136
 20
3.374712526463272
 30
0.0
 11
40.02599999995994
 21
4.795712526461843
 31
0.0
  0
LINE
  5
21B3B
  8
0
  6
CONTINUOUS
 10
38.60499999996136
 20
2.701193317383085
 30
0.0
 11
40.02599999995994
 21
4.122193317381657
 31
0.0
  0
LINE
  5
21B3C
  8
0
  6
CONTINUOUS
 10
40.28339754687704
 20
5.053110073378947
 30
0.0
 11
41.25642404246489
 21
6.026136568966799
 31
0.0
  0
LINE
  5
21B3D
  8
0
  6
CONTINUOUS
 10
40.60085985945722
 20
4.697053176878939
 30
0.0
 11
41.57388635504507
 21
5.670079672466793
 31
0.0
  0
LINE
  5
21B3E
  8
0
  6
CONTINUOUS
 10
43.57899999995641
 20
8.348712526458318
 30
0.0
 11
43.99338747348935
 21
8.763099999991255
 31
0.0
  0
LINE
  5
21B3F
  8
0
  6
CONTINUOUS
 10
43.57899999995641
 20
7.675193317378131
 30
0.0
 11
44.66690668256953
 21
8.763099999991255
 31
0.0
  0
LINE
  5
21B40
  8
0
  6
CONTINUOUS
 10
38.60499999996136
 20
2.027674108302898
 30
0.0
 11
40.02599999995994
 21
3.44867410830147
 31
0.0
  0
LINE
  5
21B41
  8
0
  6
CONTINUOUS
 10
38.60499999996136
 20
1.354154899222712
 30
0.0
 11
40.02599999995994
 21
2.775154899221284
 31
0.0
  0
LINE
  5
21B42
  8
0
  6
CONTINUOUS
 10
38.60499999996136
 20
0.6806356901425255
 30
0.0
 11
40.02599999995994
 21
2.101635690141098
 31
0.0
  0
LINE
  5
21B43
  8
0
  6
CONTINUOUS
 10
38.60499999996136
 20
0.0071164810623383
 30
0.0
 11
40.02599999995994
 21
1.428116481060911
 31
0.0
  0
LINE
  5
21B44
  8
0
  6
CONTINUOUS
 10
40.9183221720374
 20
4.340996280378933
 30
0.0
 11
41.89134866762525
 21
5.314022775966786
 31
0.0
  0
LINE
  5
21B45
  8
0
  6
CONTINUOUS
 10
41.23578448461758
 20
3.984939383878926
 30
0.0
 11
42.20881098020543
 21
4.957965879466778
 31
0.0
  0
LINE
  5
21B46
  8
0
  6
CONTINUOUS
 10
41.55324679719776
 20
3.628882487378919
 30
0.0
 11
42.52627329278561
 21
4.601908982966772
 31
0.0
  0
LINE
  5
21B47
  8
0
  6
CONTINUOUS
 10
41.87070910977793
 20
3.272825590878912
 30
0.0
 11
42.84373560536579
 21
4.245852086466765
 31
0.0
  0
LINE
  5
21B48
  8
0
  6
CONTINUOUS
 10
43.57899999995641
 20
7.001674108297943
 30
0.0
 11
44.99999999995498
 21
8.422674108296516
 31
0.0
  0
LINE
  5
21B49
  8
0
  6
CONTINUOUS
 10
43.57899999995641
 20
6.328154899217758
 30
0.0
 11
44.99999999995498
 21
7.749154899216329
 31
0.0
  0
LINE
  5
21B4A
  8
0
  6
CONTINUOUS
 10
43.57899999995641
 20
5.654635690137571
 30
0.0
 11
44.99999999995498
 21
7.075635690136142
 31
0.0
  0
LINE
  5
21B4B
  8
0
  6
CONTINUOUS
 10
43.57899999995641
 20
4.981116481057384
 30
0.0
 11
44.99999999995498
 21
6.402116481055955
 31
0.0
  0
LINE
  5
21B4C
  8
0
  6
CONTINUOUS
 10
39.27140272797921
 20
-0.0000000000000009
 30
0.0
 11
40.02599999995994
 21
0.7545972719807246
 31
0.0
  0
LINE
  5
21B4D
  8
0
  6
CONTINUOUS
 10
39.9449219370594
 20
-0.0000000000000009
 30
0.0
 11
40.02599999995994
 21
0.0810780629005379
 31
0.0
  0
LINE
  5
21B4E
  8
0
  6
CONTINUOUS
 10
42.18817142235812
 20
2.916768694378905
 30
0.0
 11
43.16119791794597
 21
3.889795189966758
 31
0.0
  0
LINE
  5
21B4F
  8
0
  6
CONTINUOUS
 10
42.50563373493829
 20
2.560711797878898
 30
0.0
 11
43.47866023052615
 21
3.533738293466751
 31
0.0
  0
LINE
  5
21B50
  8
0
  6
CONTINUOUS
 10
43.57899999995641
 20
4.307597271977198
 30
0.0
 11
44.99999999995498
 21
5.728597271975769
 31
0.0
  0
LINE
  5
21B51
  8
0
  6
CONTINUOUS
 10
43.57899999995641
 20
3.634078062897011
 30
0.0
 11
44.99999999995498
 21
5.055078062895582
 31
0.0
  0
LINE
  5
21B52
  8
0
  6
CONTINUOUS
 10
42.82309604751848
 20
2.204654901378891
 30
0.0
 11
44.99999999995498
 21
4.381558853815395
 31
0.0
  0
LINE
  5
21B53
  8
0
  6
CONTINUOUS
 10
43.14055836009865
 20
1.848598004878885
 30
0.0
 11
44.99999999995498
 21
3.70803964473521
 31
0.0
  0
LINE
  5
21B54
  8
0
  6
CONTINUOUS
 10
43.45802067267883
 20
1.492541108378878
 30
0.0
 11
44.99999999995498
 21
3.034520435655023
 31
0.0
  0
LINE
  5
21B55
  8
0
  6
CONTINUOUS
 10
43.77548298525902
 20
1.136484211878871
 30
0.0
 11
44.99999999995498
 21
2.361001226574837
 31
0.0
  0
LINE
  5
21B56
  8
0
  6
CONTINUOUS
 10
44.09294529783919
 20
0.7804273153788639
 30
0.0
 11
44.99999999995498
 21
1.687482017494649
 31
0.0
  0
LINE
  5
21B57
  8
0
  6
CONTINUOUS
 10
44.41040761041938
 20
0.4243704188788566
 30
0.0
 11
44.99999999995498
 21
1.013962808414463
 31
0.0
  0
LINE
  5
21B58
  8
0
  6
CONTINUOUS
 10
44.72786992299955
 20
0.0683135223788494
 30
0.0
 11
44.99999999995498
 21
0.340443599334276
 31
0.0
  0
LINE
  5
21B59
  8
0
  6
CONTINUOUS
 10
39.12223903415696
 20
-0.0000000000000009
 30
0.0
 11
38.60499999996136
 21
0.5172390341955961
 31
0.0
  0
LINE
  5
21B5A
  8
0
  6
CONTINUOUS
 10
39.79575824323715
 20
-0.0000000000000009
 30
0.0
 11
38.60499999996136
 21
1.190758243275783
 31
0.0
  0
LINE
  5
21B5B
  8
0
  6
CONTINUOUS
 10
40.02599999995994
 20
0.443277452357397
 30
0.0
 11
38.60499999996136
 21
1.864277452355969
 31
0.0
  0
LINE
  5
21B5C
  8
0
  6
CONTINUOUS
 10
40.02599999995994
 20
1.116796661437583
 30
0.0
 11
38.60499999996136
 21
2.537796661436155
 31
0.0
  0
LINE
  5
21B5D
  8
0
  6
CONTINUOUS
 10
40.02599999995994
 20
1.79031587051777
 30
0.0
 11
38.60499999996136
 21
3.211315870516341
 31
0.0
  0
LINE
  5
21B5E
  8
0
  6
CONTINUOUS
 10
40.02599999995994
 20
2.463835079597956
 30
0.0
 11
38.60499999996136
 21
3.884835079596527
 31
0.0
  0
LINE
  5
21B5F
  8
0
  6
CONTINUOUS
 10
40.02599999995994
 20
3.137354288678143
 30
0.0
 11
38.60499999996136
 21
4.558354288676714
 31
0.0
  0
LINE
  5
21B60
  8
0
  6
CONTINUOUS
 10
40.02599999995994
 20
3.810873497758329
 30
0.0
 11
38.60499999996136
 21
5.2318734977569
 31
0.0
  0
LINE
  5
21B61
  8
0
  6
CONTINUOUS
 10
40.02599999995994
 20
4.484392706838515
 30
0.0
 11
38.60499999996136
 21
5.905392706837086
 31
0.0
  0
LINE
  5
21B62
  8
0
  6
CONTINUOUS
 10
44.99999999995498
 20
0.183911915923658
 30
0.0
 11
41.53858364506288
 21
3.64532827081576
 31
0.0
  0
LINE
  5
21B63
  8
0
  6
CONTINUOUS
 10
40.02599999995994
 20
5.157911915918703
 30
0.0
 11
38.60499999996136
 21
6.578911915917274
 31
0.0
  0
LINE
  5
21B64
  8
0
  6
CONTINUOUS
 10
44.99999999995498
 20
0.8574311250038447
 30
0.0
 11
38.60499999996136
 21
7.25243112499746
 31
0.0
  0
LINE
  5
21B65
  8
0
  6
CONTINUOUS
 10
44.99999999995498
 20
1.530950334084031
 30
0.0
 11
38.60499999996136
 21
7.925950334077647
 31
0.0
  0
LINE
  5
21B66
  8
0
  6
CONTINUOUS
 10
44.99999999995498
 20
2.204469543164218
 30
0.0
 11
43.57899999995641
 21
3.625469543162789
 31
0.0
  0
LINE
  5
21B67
  8
0
  6
CONTINUOUS
 10
41.89876730984767
 20
5.305702233271528
 30
0.0
 11
38.60499999996136
 21
8.599469543157834
 31
0.0
  0
LINE
  5
21B68
  8
0
  6
CONTINUOUS
 10
44.99999999995498
 20
2.877988752244405
 30
0.0
 11
43.57899999995641
 21
4.298988752242975
 31
0.0
  0
LINE
  5
21B69
  8
0
  6
CONTINUOUS
 10
44.99999999995498
 20
3.551507961324591
 30
0.0
 11
43.57899999995641
 21
4.972507961323163
 31
0.0
  0
LINE
  5
21B6A
  8
0
  6
CONTINUOUS
 10
44.99999999995498
 20
4.225027170404777
 30
0.0
 11
43.57899999995641
 21
5.646027170403348
 31
0.0
  0
LINE
  5
21B6B
  8
0
  6
CONTINUOUS
 10
44.99999999995498
 20
4.898546379484964
 30
0.0
 11
43.57899999995641
 21
6.319546379483535
 31
0.0
  0
LINE
  5
21B6C
  8
0
  6
CONTINUOUS
 10
44.99999999995498
 20
5.572065588565151
 30
0.0
 11
43.57899999995641
 21
6.993065588563722
 31
0.0
  0
LINE
  5
21B6D
  8
0
  6
CONTINUOUS
 10
44.99999999995498
 20
6.245584797645336
 30
0.0
 11
43.57899999995641
 21
7.666584797643908
 31
0.0
  0
LINE
  5
21B6E
  8
0
  6
CONTINUOUS
 10
44.99999999995498
 20
6.919104006725522
 30
0.0
 11
43.57899999995641
 21
8.340104006724093
 31
0.0
  0
LINE
  5
21B6F
  8
0
  6
CONTINUOUS
 10
44.99999999995498
 20
7.592623215805709
 30
0.0
 11
43.82952321576943
 21
8.763099999991255
 31
0.0
  0
LINE
  5
21B70
  8
0
  6
CONTINUOUS
 10
44.99999999995498
 20
8.266142424885896
 30
0.0
 11
44.50304242484962
 21
8.763099999991255
 31
0.0
  0
ENDBLK
  5
21B9A
  8
0
  0
BLOCK
  8
0
  2
*X58
 70
     1
 10
0.0
 20
0.0
 30
0.0
  3
*X58
  1

  0
LINE
  5
21B72
  8
0
  6
CONTINUOUS
 10
0.0
 20
8.548461116714023
 30
0.0
 11
0.2146388832772324
 21
8.763099999991255
 31
0.0
  0
LINE
  5
21B73
  8
0
  6
CONTINUOUS
 10
-0.0000000000000002
 20
7.874941907633837
 30
0.0
 11
0.8881580923574184
 21
8.763099999991255
 31
0.0
  0
LINE
  5
21B74
  8
0
  6
CONTINUOUS
 10
0.0
 20
7.20142269855365
 30
0.0
 11
1.420999999998572
 21
8.622422698552223
 31
0.0
  0
LINE
  5
21B75
  8
0
  6
CONTINUOUS
 10
-0.0000000000000001
 20
6.527903489473465
 30
0.0
 11
1.420999999998571
 21
7.948903489472036
 31
0.0
  0
LINE
  5
21B76
  8
0
  6
CONTINUOUS
 10
-0.0000000000000002
 20
5.854384280393278
 30
0.0
 11
1.420999999998571
 21
7.275384280391849
 31
0.0
  0
LINE
  5
21B77
  8
0
  6
CONTINUOUS
 10
-0.0000000000000002
 20
5.180865071313091
 30
0.0
 11
1.420999999998571
 21
6.601865071311663
 31
0.0
  0
LINE
  5
21B78
  8
0
  6
CONTINUOUS
 10
0.0
 20
4.507345862232905
 30
0.0
 11
1.420999999998571
 21
5.928345862231477
 31
0.0
  0
LINE
  5
21B79
  8
0
  6
CONTINUOUS
 10
-0.0000000000000003
 20
3.833826653152718
 30
0.0
 11
1.420999999998571
 21
5.25482665315129
 31
0.0
  0
LINE
  5
21B7A
  8
0
  6
CONTINUOUS
 10
-0.0000000000000002
 20
3.160307444072532
 30
0.0
 11
1.420999999998571
 21
4.581307444071103
 31
0.0
  0
LINE
  5
21B7B
  8
0
  6
CONTINUOUS
 10
-0.0000000000000001
 20
2.486788234992345
 30
0.0
 11
1.420999999998571
 21
3.907788234990917
 31
0.0
  0
LINE
  5
21B7C
  8
0
  6
CONTINUOUS
 10
-0.0000000000000006
 20
1.813269025912159
 30
0.0
 11
1.420999999998571
 21
3.234269025910731
 31
0.0
  0
LINE
  5
21B7D
  8
0
  6
CONTINUOUS
 10
0.0
 20
1.139749816831973
 30
0.0
 11
1.420999999998571
 21
2.560749816830544
 31
0.0
  0
LINE
  5
21B7E
  8
0
  6
CONTINUOUS
 10
0.0000000000000002
 20
0.466230607751787
 30
0.0
 11
1.420999999998571
 21
1.887230607750358
 31
0.0
  0
LINE
  5
21B7F
  8
0
  6
CONTINUOUS
 10
0.2072886013284003
 20
-0.0000000000000009
 30
0.0
 11
1.420999999998571
 21
1.213711398670171
 31
0.0
  0
LINE
  5
21B80
  8
0
  6
CONTINUOUS
 10
0.8808078104085864
 20
-0.0000000000000009
 30
0.0
 11
1.420999999998571
 21
0.5401921895899839
 31
0.0
  0
LINE
  5
21B81
  8
0
  6
CONTINUOUS
 10
0.0581249075061505
 20
-0.0000000000000009
 30
0.0
 11
-0.0000000000000002
 21
0.0581249075061496
 31
0.0
  0
LINE
  5
21B82
  8
0
  6
CONTINUOUS
 10
0.7316441165863372
 20
-0.0000000000000009
 30
0.0
 11
-0.0000000000000002
 21
0.7316441165863363
 31
0.0
  0
LINE
  5
21B83
  8
0
  6
CONTINUOUS
 10
1.405163325666523
 20
-0.0000000000000009
 30
0.0
 11
-0.0000000000000002
 21
1.405163325666523
 31
0.0
  0
LINE
  5
21B84
  8
0
  6
CONTINUOUS
 10
1.420999999998572
 20
0.6576825347481381
 30
0.0
 11
-0.0000000000000001
 21
2.07868253474671
 31
0.0
  0
LINE
  5
21B85
  8
0
  6
CONTINUOUS
 10
1.420999999998571
 20
1.331201743828324
 30
0.0
 11
-0.0000000000000001
 21
2.752201743826896
 31
0.0
  0
LINE
  5
21B86
  8
0
  6
CONTINUOUS
 10
1.420999999998571
 20
2.004720952908511
 30
0.0
 11
-0.0000000000000002
 21
3.425720952907082
 31
0.0
  0
LINE
  5
21B87
  8
0
  6
CONTINUOUS
 10
1.420999999998571
 20
2.678240161988697
 30
0.0
 11
-0.0000000000000001
 21
4.099240161987269
 31
0.0
  0
LINE
  5
21B88
  8
0
  6
CONTINUOUS
 10
1.420999999998572
 20
3.351759371068884
 30
0.0
 11
0.0
 21
4.772759371067455
 31
0.0
  0
LINE
  5
21B89
  8
0
  6
CONTINUOUS
 10
1.420999999998571
 20
4.02527858014907
 30
0.0
 11
-0.0000000000000003
 21
5.446278580147642
 31
0.0
  0
LINE
  5
21B8A
  8
0
  6
CONTINUOUS
 10
1.420999999998571
 20
4.698797789229257
 30
0.0
 11
0.0
 21
6.119797789227828
 31
0.0
  0
LINE
  5
21B8B
  8
0
  6
CONTINUOUS
 10
1.420999999998571
 20
5.372316998309444
 30
0.0
 11
-0.0000000000000001
 21
6.793316998308015
 31
0.0
  0
LINE
  5
21B8C
  8
0
  6
CONTINUOUS
 10
1.420999999998572
 20
6.045836207389629
 30
0.0
 11
-0.0000000000000004
 21
7.466836207388202
 31
0.0
  0
LINE
  5
21B8D
  8
0
  6
CONTINUOUS
 10
1.420999999998571
 20
6.719355416469816
 30
0.0
 11
0.0
 21
8.140355416468388
 31
0.0
  0
LINE
  5
21B8E
  8
0
  6
CONTINUOUS
 10
1.420999999998571
 20
7.392874625550003
 30
0.0
 11
0.0507746255573185
 21
8.763099999991255
 31
0.0
  0
LINE
  5
21B8F
  8
0
  6
CONTINUOUS
 10
1.420999999998571
 20
8.06639383463019
 30
0.0
 11
0.7242938346375052
 21
8.763099999991255
 31
0.0
  0
LINE
  5
21B90
  8
0
  6
CONTINUOUS
 10
1.420999999998571
 20
8.739913043710375
 30
0.0
 11
1.397813043717691
 21
8.763099999991255
 31
0.0
  0
ENDBLK
  5
21B9C
  8
0
  0
ENDSEC
  0
SECTION
  2
ENTITIES
  0
LINE
  5
1D8CA
  8
01
 10
803.016241615365
 20
-650.6713303512659
 30
0.0
 11
803.016241615365
 21
-672.8213303512673
 31
0.0
  0
LINE
  5
1D90A
  8
01
 10
803.016241615365
 20
-653.0213303541116
 30
0.0
 11
803.016241615365
 21
-670.671330354111
 31
0.0
  0
LINE
  5
1DBA4
  8
01
 10
815.516241615365
 20
-618.5931567659845
 30
0.0
 11
815.516241615365
 21
-693.0495039365483
 31
0.0
  0
LINE
  5
1DBA5
  8
01
 10
824.516241615365
 20
-618.5931567659845
 30
0.0
 11
824.516241615365
 21
-693.0495039365483
 31
0.0
  0
LINE
  5
1DBA6
  8
01
 10
803.016241615365
 20
-618.5931567659845
 30
0.0
 11
803.016241615365
 21
-693.0495039365483
 31
0.0
  0
LINE
  5
1EC3D
  8
01
 10
803.016241615365
 20
-655.8213303512664
 30
0.0
 11
25.92152509557491
 21
-655.8213303512663
 31
0.0
  0
LINE
  5
1EC5A
  8
01
 10
660.2325431083959
 20
-505.8213303512664
 30
0.0
 11
25.92152509557491
 21
-505.8213303512663
 31
0.0
  0
LINE
  5
1EC69
  8
01
 10
643.0162416153646
 20
-584.7046425467888
 30
0.0
 11
643.0162416153653
 21
-655.8213303512664
 31
0.0
  0
TEXT
  5
1F822
  8
1TEXT
 10
735.8638170616407
 20
-589.7645047615546
 30
0.0
 40
4.0
  1
Finish
 72
     1
 11
744.5054837283074
 21
-589.7645047615546
 31
0.0
  0
LINE
  5
1F823
  8
1DIM
 10
727.1054837283073
 20
-584.2645047615546
 30
0.0
 11
797.1054837283073
 21
-584.2645047615546
 31
0.0
  0
LINE
  5
1F824
  8
1DIM
 10
727.1054837283073
 20
-598.2645047615546
 30
0.0
 11
797.1054837283073
 21
-598.2645047615546
 31
0.0
  0
LINE
  5
1F825
  8
1DIM
 10
727.1054837283073
 20
-591.2645047615546
 30
0.0
 11
797.1054837283073
 21
-591.2645047615546
 31
0.0
  0
LINE
  5
1F826
  8
1DIM
 10
762.1054837283073
 20
-584.2645047615546
 30
0.0
 11
762.1054837283057
 21
-633.2645047615546
 31
0.0
  0
TEXT
  5
1F827
  8
1TEXT
 10
772.172150394974
 20
-589.7645047615546
 30
0.0
 40
4.0
  1
Code
 72
     1
 11
779.5054837283074
 21
-589.7645047615546
 31
0.0
  0
LINE
  5
1F828
  8
1DIM
 10
727.1054837283073
 20
-633.2645047615546
 30
0.0
 11
727.1054837283073
 21
-584.2645047615546
 31
0.0
  0
LINE
  5
1F829
  8
1DIM
 10
797.1054837283065
 20
-633.2645047615546
 30
0.0
 11
797.1054837283073
 21
-584.2645047615546
 31
0.0
  0
TEXT
  5
1F82A
  8
1TEXT
 10
727.1054837283073
 20
-579.2645047615546
 30
0.0
 40
8.0
  1
SE-224-X
  0
TEXT
  5
1F82B
  8
1TEXT
 10
734.5184466912704
 20
-596.5997934210789
 30
0.0
 40
4.0
  1
Mirror
 72
     1
 11
744.5054837283074
 21
-596.5997934210789
 31
0.0
  0
TEXT
  5
1F82C
  8
1TEXT
 10
764.7721503949742
 20
-596.9788617452039
 30
0.0
 40
4.0
  1
SE-224-XP
 41
0.85
 72
     1
 11
779.5054837283076
 21
-596.9788617452039
 31
0.0
  0
LINE
  5
1F82D
  8
1DIM
 10
727.1054837283073
 20
-605.2645047615546
 30
0.0
 11
797.1054837283073
 21
-605.2645047615546
 31
0.0
  0
TEXT
  5
1F82E
  8
1TEXT
 10
731.1712244690481
 20
-603.5997934210789
 30
0.0
 40
4.0
  1
Brushed
 72
     1
 11
744.5054837283074
 21
-603.5997934210789
 31
0.0
  0
TEXT
  5
1F82F
  8
1TEXT
 10
764.7721503949742
 20
-603.9788617452039
 30
0.0
 40
4.0
  1
SE-224-XT
 41
0.85
 72
     1
 11
779.5054837283076
 21
-603.9788617452039
 31
0.0
  0
TEXT
  5
1F830
  8
1TEXT
 10
972.5417139444678
 20
-589.7645047615546
 30
0.0
 40
4.0
  1
\U+8868\U+9762\U+51E6\U+7406\U+FF1A\U+30EC\U+30FC\U+30EB
 41
0.9
 72
     1
 11
989.5817139444678
 21
-589.7645047615546
 31
0.0
  0
TEXT
  5
1F831
  8
1TEXT
 10
985.2483806111344
 20
-596.599793421079
 30
0.0
 40
4.0
  1
\U+93E1\U+9762
 72
     1
 11
989.5817139444678
 21
-596.599793421079
 31
0.0
  0
LINE
  5
1F832
  8
1DIM
 10
937.1817139444681
 20
-584.2645047615546
 30
0.0
 11
1042.181713944468
 21
-584.2645047615546
 31
0.0
  0
LINE
  5
1F833
  8
1DIM
 10
937.1817139444681
 20
-598.2645047615546
 30
0.0
 11
1042.181713944468
 21
-598.2645047615546
 31
0.0
  0
LINE
  5
1F834
  8
1DIM
 10
937.1817139444681
 20
-591.2645047615546
 30
0.0
 11
1042.181713944468
 21
-591.2645047615546
 31
0.0
  0
LINE
  5
1F835
  8
1DIM
 10
937.1817139444681
 20
-605.2645047615546
 30
0.0
 11
1042.181713944468
 21
-605.2645047615546
 31
0.0
  0
LINE
  5
1F836
  8
1DIM
 10
1007.181713944468
 20
-584.2645047615546
 30
0.0
 11
1007.181713944468
 21
-605.2645047615546
 31
0.0
  0
TEXT
  5
1F837
  8
1TEXT
 10
1017.715047277801
 20
-589.7645047615546
 30
0.0
 40
4.0
  1
\U+30B3\U+30FC\U+30C9
 72
     1
 11
1024.581713944468
 21
-589.7645047615546
 31
0.0
  0
LINE
  5
1F838
  8
1DIM
 10
972.1817139444681
 20
-605.2645047615546
 30
0.0
 11
972.1817139444681
 21
-584.2645047615546
 31
0.0
  0
LINE
  5
1F839
  8
1DIM
 10
1042.181713944468
 20
-605.2645047615546
 30
0.0
 11
1042.181713944468
 21
-584.2645047615546
 31
0.0
  0
TEXT
  5
1F83A
  8
1TEXT
 10
978.0483806111345
 20
-603.599793421079
 30
0.0
 40
4.0
  1
\U+30D8\U+30A2\U+30E9\U+30A4\U+30F3
 72
     1
 11
989.5817139444678
 21
-603.599793421079
 31
0.0
  0
TEXT
  5
1F83B
  8
1TEXT
 10
938.1150472778011
 20
-589.7645047615546
 30
0.0
 40
4.0
  1
\U+8868\U+9762\U+51E6\U+7406\U+FF1A\U+672C\U+4F53
 72
     1
 11
954.5817139444678
 21
-589.7645047615546
 31
0.0
  0
TEXT
  5
1F83C
  8
1TEXT
 10
945.1150472778011
 20
-596.599793421079
 30
0.0
 40
4.0
  1
\U+30AF\U+30ED\U+30FC\U+30E0
 72
     1
 11
954.5817139444678
 21
-596.599793421079
 31
0.0
  0
TEXT
  5
1F83D
  8
1TEXT
 10
938.0483806111345
 20
-603.599793421079
 30
0.0
 40
4.0
  1
\U+30B5\U+30C6\U+30F3\U+30CB\U+30C3\U+30B1\U+30EB
 72
     1
 11
954.5817139444678
 21
-603.599793421079
 31
0.0
  0
LINE
  5
1F83E
  8
1DIM
 10
937.1817139444681
 20
-605.2645047615546
 30
0.0
 11
937.1817139444681
 21
-584.2645047615546
 31
0.0
  0
LINE
  5
1F83F
  8
01
 10
937.1817139444681
 20
-584.2645047615546
 30
0.0
 11
937.1817139444681
 21
-576.5346031928077
 31
0.0
  0
LINE
  5
1F842
  8
01
 10
727.1054837283073
 20
-584.2645047615546
 30
0.0
 11
727.1054837283073
 21
-576.5346031928077
 31
0.0
  0
TEXT
  5
1F845
  8
1TEXT
 10
1009.848380611135
 20
-596.9788617452039
 30
0.0
 40
4.0
  1
SC-XX4-XC
 41
0.85
 72
     1
 11
1024.581713944469
 21
-596.9788617452039
 31
0.0
  0
TEXT
  5
1F846
  8
1TEXT
 10
1009.848380611135
 20
-603.9788617452039
 30
0.0
 40
4.0
  1
SC-XX4-XN
 41
0.85
 72
     1
 11
1024.581713944469
 21
-603.9788617452039
 31
0.0
  0
LINE
  5
209D2
  8
01
 10
421.0159549081042
 20
-665.3213303981519
 30
0.0
 11
421.0159549081042
 21
-687.8213303981522
 31
0.0
  0
LINE
  5
209D3
  8
01
 10
575.0159549081042
 20
-665.3213303981522
 30
0.0
 11
575.0159549081042
 21
-665.8213303981522
 31
0.0
  0
LINE
  5
209D4
  8
01
 10
575.0159549081042
 20
-668.321330398152
 30
0.0
 11
575.0159549081042
 21
-687.8213303981522
 31
0.0
  0
LINE
  5
209D7
  8
01
 10
573.0159549081042
 20
-689.8213303981522
 30
0.0
 11
423.0159549081039
 21
-689.8213303981522
 31
0.0
  0
ARC
  5
209D8
  8
01
 10
423.0159549081042
 20
-687.8213303981523
 30
0.0
 40
1.999999999999915
 50
179.9999999999967
 51
269.9999999999935
  0
ARC
  5
209D9
  8
01
 10
573.0159549081042
 20
-687.8213303981522
 30
0.0
 40
2.000000000000028
 50
270.0
 51
0.0
  0
ARC
  5
209DC
  8
01
 10
421.5159549081037
 20
-665.3213303981519
 30
0.0
 40
0.4999999999996021
 50
89.99999999997394
 51
179.9999999999609
  0
ARC
  5
209DD
  8
01
 10
574.5159549081039
 20
-665.3213303981524
 30
0.0
 40
0.5000000000002381
 50
0.0000000000260551
 51
89.99999999997394
  0
LINE
  5
209E0
  8
01
 10
575.0159549081042
 20
-668.321330398152
 30
0.0
 11
575.0159549081042
 21
-668.1243987022797
 31
0.0
  0
LINE
  5
209E1
  8
01
 10
575.0159549081039
 20
-667.9377484554168
 30
0.0
 11
575.0159549081042
 21
-667.4123119241227
 31
0.0
  0
ARC
  5
209EB
  8
01
 10
574.5159549081001
 20
-667.3213303981513
 30
0.0
 40
0.5000000000040542
 50
338.401839016372
 51
355.2622567987614
  0
LINE
  5
209EC
  8
01
 10
575.0159549081042
 20
-666.3835323575676
 30
0.0
 11
575.0159549081042
 21
-666.3967077972244
 31
0.0
  0
LINE
  5
209ED
  8
01
 10
575.0159549081039
 20
-666.6535593659522
 30
0.0
 11
575.0159549081039
 21
-666.672183918052
 31
0.0
  0
LINE
  5
209EE
  8
01
 10
575.0159549081042
 20
-666.7597881970978
 30
0.0
 11
575.0159549081042
 21
-666.8213303981235
 31
0.0
  0
LINE
  5
209EF
  8
01
 10
575.0159549081042
 20
-666.8678873019114
 30
0.0
 11
575.0159549081042
 21
-666.8795823306959
 31
0.0
  0
LINE
  5
209F0
  8
01
 10
575.0159549081042
 20
-666.9667257250424
 30
0.0
 11
575.0159549081042
 21
-666.9786259342038
 31
0.0
  0
LINE
  5
209F1
  8
01
 10
575.0159549081042
 20
-667.0553804303606
 30
0.0
 11
575.0159549081042
 21
-667.0670738038716
 31
0.0
  0
LINE
  5
209F3
  8
01
 10
575.0159549081042
 20
-668.1243987027285
 30
0.0
 11
575.0159549081042
 21
-667.9377484538735
 31
0.0
  0
LINE
  5
209FC
  8
01
 10
575.0159549081042
 20
-665.8213303981522
 30
0.0
 11
575.0159549081042
 21
-666.3835323572779
 31
0.0
  0
LINE
  5
209FD
  8
01
 10
575.0159549081039
 20
-666.3967077993213
 30
0.0
 11
575.0159549081039
 21
-666.6535593705564
 31
0.0
  0
LINE
  5
209FE
  8
01
 10
575.0159549081039
 20
-666.6721839180515
 30
0.0
 11
575.0159549081039
 21
-666.7597881971116
 31
0.0
  0
LINE
  5
209FF
  8
01
 10
575.0159549081042
 20
-666.8213303981056
 30
0.0
 11
575.0159549081042
 21
-666.8678873019574
 31
0.0
  0
LINE
  5
20A00
  8
01
 10
575.0159549081042
 20
-666.8795823306957
 30
0.0
 11
575.0159549081042
 21
-666.9667257251933
 31
0.0
  0
LINE
  5
20A01
  8
01
 10
575.0159549081042
 20
-666.9786259342031
 30
0.0
 11
575.0159549081042
 21
-667.0553804308669
 31
0.0
  0
LINE
  5
20A02
  8
01
 10
575.0159549081042
 20
-667.0670738038682
 30
0.0
 11
575.0159549081042
 21
-667.3213303982714
 31
0.0
  0
LINE
  5
20A04
  8
1DIM
 10
642.0162416153651
 20
-655.8213303512736
 30
0.0
 11
642.0162416153646
 21
-661.8129830849798
 31
0.0
  0
ARC
  5
20A05
  8
01
 10
353.907213363892
 20
-604.9294339379155
 30
0.0
 40
0.8985356819663486
 50
172.5604109473567
 51
276.9694397096579
  0
ARC
  5
20A06
  8
01
 10
642.1252698668375
 20
-604.9294339379153
 30
0.0
 40
0.8985356819666033
 50
263.0305602903583
 51
7.4395890526266
  0
LINE
  5
20A07
  8
01
 10
353.907213363892
 20
-605.827969619882
 30
0.0
 11
642.0162416153648
 21
-605.821330351266
 31
0.0
  0
ARC
  5
20A08
  8
01
 10
354.0162416153739
 20
-596.8213303512649
 30
0.0
 40
0.9999999999999716
 50
89.99999999996744
 51
179.9999999810775
  0
LINE
  5
20A09
  8
01
 10
353.0162416153649
 20
-597.3213303512653
 30
0.0
 11
353.0162416153649
 21
-598.7559627812166
 31
0.0
  0
ARC
  5
20A0B
  8
01
 10
642.016241447632
 20
-596.8213305190081
 30
0.0
 40
1.000000167742186
 50
0.0000160434536215
 51
89.9999903890945
  0
LINE
  5
20A0C
  8
01
 10
643.0162416153648
 20
-597.3213303512662
 30
0.0
 11
643.0162416153651
 21
-598.7559627822882
 31
0.0
  0
LINE
  5
20A0E
  8
01
 10
642.5076817117001
 20
-505.8213303512663
 30
0.0
 11
642.0162416153653
 21
-505.8213303512663
 31
0.0
  0
LINE
  5
20A18
  8
01
 10
353.5162416153651
 20
-505.8213303512663
 30
0.0
 11
353.5161260956211
 21
-505.8213303512663
 31
0.0
  0
LINE
  5
20A19
  8
01
 10
353.5161260956211
 20
-505.8213303512663
 30
0.0
 11
353.5161019982752
 21
-505.8213303512663
 31
0.0
  0
LINE
  5
20A1A
  8
01
 10
353.5161019982752
 20
-505.8213303512663
 30
0.0
 11
353.5161002381398
 21
-505.8213303512663
 31
0.0
  0
LINE
  5
20A1B
  8
01
 10
353.5161002381398
 20
-505.8213303512663
 30
0.0
 11
353.5163150026027
 21
-505.8213303512663
 31
0.0
  0
LINE
  5
20A1C
  8
01
 10
353.5163150026027
 20
-505.8213303512663
 30
0.0
 11
353.5177928976928
 21
-505.8213303512663
 31
0.0
  0
LINE
  5
20A1D
  8
01
 10
353.5177928976928
 20
-505.8213303512663
 30
0.0
 11
353.5248017402332
 21
-505.8213303512663
 31
0.0
  0
LINE
  5
20A1E
  8
01
 10
353.5248017402332
 20
-505.8213303512663
 30
0.0
 11
353.5539083363605
 21
-505.8213303512663
 31
0.0
  0
LINE
  5
20A1F
  8
01
 10
353.5539083363605
 20
-505.8213303512663
 30
0.0
 11
353.6634907856639
 21
-505.8213303512663
 31
0.0
  0
LINE
  5
20A20
  8
01
 10
353.6634907856639
 20
-505.8213303512663
 30
0.0
 11
354.0162416153651
 21
-505.8213303512663
 31
0.0
  0
LINE
  5
20A2B
  8
01
 10
643.0162416153648
 20
-602.2499017569343
 30
0.0
 11
643.0162416153648
 21
-604.8130908457566
 31
0.0
  0
LINE
  5
20A30
  8
01
 10
353.0162416153649
 20
-602.249901756933
 30
0.0
 11
353.0162416153649
 21
-598.8213303509347
 31
0.0
  0
LINE
  5
20A31
  8
01
 10
353.0162416153649
 20
-597.3213303512653
 30
0.0
 11
353.0162416153652
 21
-506.3213303506045
 31
0.0
  0
LINE
  5
20A32
  8
01
 10
353.0162416153648
 20
-604.813090844746
 30
0.0
 11
353.0162416153649
 21
-602.249901756933
 31
0.0
  0
LINE
  5
20A34
  8
01
 10
643.0162416153648
 20
-602.2499017569343
 30
0.0
 11
643.0162416153648
 21
-598.821330238997
 31
0.0
  0
LINE
  5
20A35
  8
01
 10
643.0162416153648
 20
-597.3213303512662
 30
0.0
 11
643.0162416153653
 21
-506.3213303506045
 31
0.0
  0
ARC
  5
20A36
  8
01
 10
642.5162416159299
 20
-506.3213303507015
 30
0.0
 40
0.4999999994352315
 50
0.000057886780843
 51
90.00000006469483
  0
ARC
  5
20A37
  8
01
 10
353.5162416148005
 20
-506.3213303507016
 30
0.0
 40
0.4999999994353175
 50
89.99999993530518
 51
179.9999999888745
  0
LINE
  5
20A3D
  8
01
 10
354.0162416153744
 20
-595.8213303512649
 30
0.0
 11
642.0162416153739
 21
-595.8213303512659
 31
0.0
  0
LINE
  5
20A3E
  8
01
 10
642.0162416153653
 20
-505.8213303512663
 30
0.0
 11
354.0162416153651
 21
-505.8213303512663
 31
0.0
  0
LINE
  5
20A40
  8
01
 10
575.3464505666544
 20
-661.8213303954299
 30
0.0
 11
575.4406219080952
 21
-661.8213303954763
 31
0.0
  0
ARC
  5
20A44
  8
01
 10
421.5159549081038
 20
-664.3213303981524
 30
0.0
 40
0.4999999999998863
 50
179.9999999999739
 51
270.000000000013
  0
LINE
  5
20A45
  8
01
 10
643.0162416153646
 20
-656.8213303512737
 30
0.0
 11
643.0162416153646
 21
-660.8213302922483
 31
0.0
  0
ARC
  5
20A46
  8
01
 10
354.0162416153644
 20
-656.8213303512555
 30
0.0
 40
0.9999999999999112
 50
89.99999999998046
 51
180.0
  0
ARC
  5
20A47
  8
01
 10
354.0162416857561
 20
-660.821330304308
 30
0.0
 40
1.000000070391479
 50
179.9999993080025
 51
269.9999959668591
  0
LINE
  5
20A48
  8
01
 10
353.0162416153647
 20
-660.8213302922304
 30
0.0
 11
353.0162416153645
 21
-656.8213303512555
 31
0.0
  0
ARC
  5
20A49
  8
01
 10
642.0162416153639
 20
-656.8213303512742
 30
0.0
 40
1.000000000000681
 50
0.0000000000325689
 51
89.99999999998697
  0
ARC
  5
20A4A
  8
01
 10
642.0162415449729
 20
-660.8213303043258
 30
0.0
 40
1.000000070391492
 50
270.0000040331474
 51
359.9999909314827
  0
ARC
  5
20A4B
  8
01
 10
420.5159549077811
 20
-662.3213303958698
 30
0.0
 40
0.5000000003228059
 50
0.0000000026055104
 51
78.76535011327316
  0
ARC
  5
20A4C
  8
01
 10
575.5159549084266
 20
-662.3213303958797
 30
0.0
 40
0.5000000003226432
 50
101.2346498867166
 51
179.9999999973815
  0
LINE
  5
20A4D
  8
01
 10
575.0159549081039
 20
-662.3213303959025
 30
0.0
 11
575.0159549081039
 21
-664.3213303981522
 31
0.0
  0
LINE
  5
20A4F
  8
01
 10
421.0159549081039
 20
-664.3213303981522
 30
0.0
 11
421.0159549081039
 21
-662.3213303958925
 31
0.0
  0
ARC
  5
20A53
  8
01
 10
574.5159549081042
 20
-664.3213303981523
 30
0.0
 40
0.4999999999997726
 50
269.999999999974
 51
0.0000000000130276
  0
LINE
  5
20A55
  8
01
 10
354.0162416156719
 20
-661.8216247681787
 30
0.0
 11
642.0162416153646
 21
-661.8216247682005
 31
0.0
  0
LINE
  5
20A56
  8
01
 10
354.0162416153648
 20
-655.8213303512555
 30
0.0
 11
642.0162416153651
 21
-655.8213303512774
 31
0.0
  0
LINE
  5
20A5B
  8
01
 10
421.5159549081039
 20
-664.8213303981522
 30
0.0
 11
574.5159549081039
 21
-664.8213303981522
 31
0.0
  0
ARC
  5
20A5D
  8
01
 10
802.516241615365
 20
-664.3213301855252
 30
0.0
 40
0.5000001685875475
 50
270.0000193187066
 51
359.9999806813064
  0
ARC
  5
20A5E
  8
01
 10
783.5162418682463
 20
-664.321330269819
 30
0.0
 40
0.5000000842937382
 50
180.0000096593419
 51
269.9999903406451
  0
ARC
  5
20A5F
  8
01
 10
782.516241699659
 20
-662.3213304355618
 30
0.0
 40
0.5000000842936814
 50
0.000009659381004
 51
89.99999032512923
  0
LINE
  5
20A64
  8
01
 10
783.0162417839525
 20
-662.3213303512678
 30
0.0
 11
783.0162417839525
 21
-664.3213303541127
 31
0.0
  0
LINE
  5
20A68
  8
01
 10
789.7662417659525
 20
-664.8213303541127
 30
0.0
 11
783.5162417839525
 21
-664.8213303541127
 31
0.0
  0
LINE
  5
20A69
  8
01
 10
828.6162453702519
 20
-673.3213764089415
 30
0.0
 11
800.0162417839525
 21
-673.321379216794
 31
0.0
  0
LINE
  5
20A6A
  8
01
 10
799.016249927843
 20
-671.3213303541093
 30
0.0
 11
797.9162464376476
 21
-671.3213303541093
 31
0.0
  0
LINE
  5
20A6B
  8
01
 10
796.4162464376517
 20
-672.8213268639167
 30
0.0
 11
796.416237130472
 21
-676.8213268639167
 31
0.0
  0
LINE
  5
20A6C
  8
01
 10
799.0162336402785
 20
-678.3213303541093
 30
0.0
 11
797.916237130468
 21
-678.3213303541093
 31
0.0
  0
LINE
  5
20A6D
  8
01
 10
828.7162382936529
 20
-676.3213768900073
 30
0.0
 11
800.0162417839525
 21
-676.3213768900071
 31
0.0
  0
LINE
  5
20A6E
  8
01
 10
831.9162443302205
 20
-673.727006540114
 30
0.0
 11
832.7162397642714
 21
-675.6893416289895
 31
0.0
  0
LINE
  5
20A6F
  8
1CENTER
 10
831.9771563752067
 20
-674.8213303541093
 30
0.0
 11
795.3459653747519
 21
-674.8213303541093
 31
0.0
  0
LINE
  5
20A70
  8
01
 10
804.5162464374306
 20
-672.8213768900071
 30
0.0
 11
805.3162371302489
 21
-676.8213768900071
 31
0.0
  0
LINE
  5
20A71
  8
01
 10
832.7162397642714
 20
-675.6893416289895
 30
0.0
 11
833.0280096205236
 21
-675.101065053947
 31
0.0
  0
LINE
  5
20A72
  8
01
 10
818.9162464374349
 20
-672.8213768900071
 30
0.0
 11
819.7162371302575
 21
-676.8213768900071
 31
0.0
  0
LINE
  5
20A73
  8
01
 10
819.7162371302575
 20
-676.8213768900071
 30
0.0
 11
819.8162382936546
 21
-676.3213768900071
 31
0.0
  0
LINE
  5
20A74
  8
01
 10
825.4162452740377
 20
-673.3213768900071
 30
0.0
 11
825.5162464374348
 21
-672.8213768900071
 31
0.0
  0
LINE
  5
20A75
  8
01
 10
818.1162371302576
 20
-676.8213768900071
 30
0.0
 11
818.2162382936547
 21
-676.3213768900071
 31
0.0
  0
LINE
  5
20A76
  8
01
 10
818.8162452740378
 20
-673.3213768900071
 30
0.0
 11
818.9162464374349
 21
-672.8213768900071
 31
0.0
  0
LINE
  5
20A77
  8
01
 10
817.2162452740379
 20
-673.3213768900071
 30
0.0
 11
817.316246437435
 21
-672.8213768900071
 31
0.0
  0
LINE
  5
20A78
  8
01
 10
817.316246437435
 20
-672.8213768900071
 30
0.0
 11
818.1162371302576
 21
-676.8213768900071
 31
0.0
  0
LINE
  5
20A79
  8
01
 10
827.9162371302575
 20
-676.8213768900071
 30
0.0
 11
828.0162382936546
 21
-676.3213768900071
 31
0.0
  0
LINE
  5
20A7A
  8
01
 10
829.5162376570602
 20
-676.5949698378031
 30
0.0
 11
829.64550835469
 21
-676.0583761025318
 31
0.0
  0
LINE
  5
20A7B
  8
01
 10
826.3162371302574
 20
-676.8213768900071
 30
0.0
 11
826.4162382936545
 21
-676.3213768900071
 31
0.0
  0
LINE
  5
20A7C
  8
01
 10
830.2034758714747
 20
-673.7422914872159
 30
0.0
 11
830.3162453838247
 21
-673.2741930320658
 31
0.0
  0
LINE
  5
20A7D
  8
01
 10
827.0162452740378
 20
-673.3213768900071
 30
0.0
 11
827.1162464374349
 21
-672.8213768900071
 31
0.0
  0
LINE
  5
20A7E
  8
01
 10
828.6162452740377
 20
-673.3213768900071
 30
0.0
 11
828.7162464374348
 21
-672.8213768900071
 31
0.0
  0
LINE
  5
20A7F
  8
01
 10
831.7648085337801
 20
-674.1841783807452
 30
0.0
 11
831.9162443302205
 21
-673.727006540114
 31
0.0
  0
LINE
  5
20A80
  8
01
 10
830.3162453838247
 20
-673.2741930320658
 30
0.0
 11
831.1162387106658
 21
-676.1421557333963
 31
0.0
  0
LINE
  5
20A81
  8
01
 10
827.1162464374349
 20
-672.8213768900071
 30
0.0
 11
827.9162371302575
 21
-676.8213768900071
 31
0.0
  0
LINE
  5
20A82
  8
01
 10
828.7162464374348
 20
-672.8213768900071
 30
0.0
 11
829.5162376570602
 21
-676.5949698378031
 31
0.0
  0
LINE
  5
20A83
  8
01
 10
807.7162464374306
 20
-672.8213768900071
 30
0.0
 11
808.5162371302489
 21
-676.8213768900071
 31
0.0
  0
LINE
  5
20A84
  8
01
 10
825.5162464374348
 20
-672.8213768900071
 30
0.0
 11
826.3162371302574
 21
-676.8213768900071
 31
0.0
  0
LINE
  5
20A85
  8
01
 10
808.5162371302489
 20
-676.8213768900071
 30
0.0
 11
808.6162382936465
 21
-676.3213768900071
 31
0.0
  0
LINE
  5
20A86
  8
01
 10
809.2162452740373
 20
-673.3213768900071
 30
0.0
 11
809.3162464374349
 21
-672.8213768900071
 31
0.0
  0
LINE
  5
20A87
  8
01
 10
806.9162371302488
 20
-676.8213768900071
 30
0.0
 11
807.0162382936463
 21
-676.3213768900071
 31
0.0
  0
LINE
  5
20A88
  8
01
 10
805.3162371302489
 20
-676.8213768900071
 30
0.0
 11
805.4162382936464
 21
-676.3213768900071
 31
0.0
  0
LINE
  5
20A89
  8
01
 10
807.6162452740328
 20
-673.3213768900071
 30
0.0
 11
807.7162464374306
 21
-672.8213768900071
 31
0.0
  0
LINE
  5
20A8A
  8
01
 10
806.0162452740327
 20
-673.3213768900071
 30
0.0
 11
806.1162464374305
 21
-672.8213768900071
 31
0.0
  0
LINE
  5
20A8B
  8
01
 10
806.1162464374305
 20
-672.8213768900071
 30
0.0
 11
806.9162371302488
 21
-676.8213768900071
 31
0.0
  0
LINE
  5
20A8C
  8
01
 10
814.9162371302575
 20
-676.8213768900071
 30
0.0
 11
815.0162382936546
 21
-676.3213768900071
 31
0.0
  0
LINE
  5
20A8D
  8
01
 10
810.116237130253
 20
-676.8213768900071
 30
0.0
 11
810.2162382936508
 21
-676.3213768900071
 31
0.0
  0
LINE
  5
20A8E
  8
01
 10
811.7162371302529
 20
-676.8213768900071
 30
0.0
 11
811.8162382936507
 21
-676.3213768900071
 31
0.0
  0
LINE
  5
20A8F
  8
01
 10
815.6162452740377
 20
-673.3213768900071
 30
0.0
 11
815.7162464374348
 21
-672.8213768900071
 31
0.0
  0
LINE
  5
20A90
  8
01
 10
814.0162452740371
 20
-673.3213768900071
 30
0.0
 11
814.1162464374349
 21
-672.8213768900071
 31
0.0
  0
LINE
  5
20A91
  8
01
 10
810.8162452740371
 20
-673.3213768900071
 30
0.0
 11
810.9162464374347
 21
-672.8213768900071
 31
0.0
  0
LINE
  5
20A92
  8
01
 10
812.4162452740372
 20
-673.3213768900071
 30
0.0
 11
812.5162464374348
 21
-672.8213768900071
 31
0.0
  0
LINE
  5
20A93
  8
01
 10
812.5162464374348
 20
-672.8213768900071
 30
0.0
 11
813.3162371302531
 21
-676.8213768900071
 31
0.0
  0
LINE
  5
20A94
  8
01
 10
814.1162464374349
 20
-672.8213768900071
 30
0.0
 11
814.9162371302575
 21
-676.8213768900071
 31
0.0
  0
LINE
  5
20A95
  8
01
 10
810.9162464374347
 20
-672.8213768900071
 30
0.0
 11
811.7162371302529
 21
-676.8213768900071
 31
0.0
  0
LINE
  5
20A96
  8
01
 10
809.3162464374349
 20
-672.8213768900071
 30
0.0
 11
810.116237130253
 21
-676.8213768900071
 31
0.0
  0
LINE
  5
20A97
  8
01
 10
799.0162382937602
 20
-676.3213768900071
 30
0.0
 11
799.0162452741448
 21
-673.3213768900073
 31
0.0
  0
LINE
  5
20A98
  8
01
 10
800.0162417839525
 20
-674.3213710735363
 30
0.0
 11
800.5162371302446
 21
-676.8213768900071
 31
0.0
  0
LINE
  5
20A99
  8
01
 10
800.5162371302446
 20
-676.8213768900071
 30
0.0
 11
800.6162382936424
 21
-676.3213768900071
 31
0.0
  0
LINE
  5
20A9A
  8
01
 10
801.2162452740287
 20
-673.3213768900071
 30
0.0
 11
801.3162464374262
 21
-672.8213768900071
 31
0.0
  0
LINE
  5
20A9B
  8
01
 10
815.7162464374348
 20
-672.8213768900071
 30
0.0
 11
816.5162371302574
 21
-676.8213768900071
 31
0.0
  0
LINE
  5
20A9C
  8
01
 10
802.9162464374261
 20
-672.8213768900071
 30
0.0
 11
803.7162371302444
 21
-676.8213768900071
 31
0.0
  0
LINE
  5
20A9D
  8
01
 10
802.1162371302445
 20
-676.8213768900071
 30
0.0
 11
802.2162382936423
 21
-676.3213768900071
 31
0.0
  0
LINE
  5
20A9E
  8
01
 10
803.7162371302444
 20
-676.8213768900071
 30
0.0
 11
803.8162382936422
 21
-676.3213768900071
 31
0.0
  0
LINE
  5
20A9F
  8
01
 10
816.5162371302574
 20
-676.8213768900071
 30
0.0
 11
816.6162382936545
 21
-676.3213768900071
 31
0.0
  0
LINE
  5
20AA0
  8
01
 10
804.4162452740328
 20
-673.3213768900071
 30
0.0
 11
804.5162464374306
 21
-672.8213768900071
 31
0.0
  0
LINE
  5
20AA1
  8
01
 10
799.0162417839525
 20
-678.6213768900072
 30
0.0
 11
799.0162417839525
 21
-671.0213768900071
 31
0.0
  0
LINE
  5
20AA2
  8
01
 10
831.1162387106658
 20
-676.1421557333963
 30
0.0
 11
831.2990028532938
 21
-675.5904062695931
 31
0.0
  0
LINE
  5
20AA3
  8
01
 10
800.0162417839525
 20
-678.6213768900072
 30
0.0
 11
800.0162417839525
 21
-671.0213768900071
 31
0.0
  0
LINE
  5
20AA4
  8
01
 10
799.0162417839525
 20
-671.0213768900071
 30
0.0
 11
800.0162417839525
 21
-671.0213768900071
 31
0.0
  0
LINE
  5
20AA5
  8
01
 10
813.3162371302531
 20
-676.8213768900071
 30
0.0
 11
813.4162382936508
 21
-676.3213768900071
 31
0.0
  0
LINE
  5
20AA6
  8
01
 10
802.8162452740286
 20
-673.3213768900071
 30
0.0
 11
802.9162464374261
 21
-672.8213768900071
 31
0.0
  0
LINE
  5
20AA7
  8
01
 10
801.3162464374262
 20
-672.8213768900071
 30
0.0
 11
802.1162371302445
 21
-676.8213768900071
 31
0.0
  0
LINE
  5
20AA8
  8
01
 10
834.0162417838983
 20
-674.8213768900071
 30
0.0
 11
828.7162452740365
 21
-673.3213768900071
 31
0.0
  0
LINE
  5
20AA9
  8
01
 10
799.016249927843
 20
-671.3213303541093
 30
0.0
 11
799.0162452741448
 21
-673.3213768900073
 31
0.0
  0
ARC
  5
20AAA
  8
01
 10
797.9162464376476
 20
-672.8213303541093
 30
0.0
 40
1.5
 50
90.0
 51
179.9998666844619
  0
ARC
  5
20AAB
  8
01
 10
797.916237130468
 20
-676.8213303541093
 30
0.0
 40
1.5
 50
179.9998666844619
 51
270.0
  0
LINE
  5
20AAC
  8
01
 10
799.0162382937602
 20
-676.3213768900071
 30
0.0
 11
799.0162336402785
 21
-678.3213303541093
 31
0.0
  0
LINE
  5
20AAD
  8
01
 10
834.0162417838983
 20
-674.8213768900071
 30
0.0
 11
828.7162382936529
 21
-676.3213768900073
 31
0.0
  0
LINE
  5
20AAE
  8
01
 10
799.0162417839525
 20
-678.6213768900072
 30
0.0
 11
800.0162417839525
 21
-678.6213768900072
 31
0.0
  0
LINE
  5
20ACE
  8
1CENTER
 10
551.5108170428405
 20
-668.3213303981522
 30
0.0
 11
551.5108170428405
 21
-681.3213303981522
 31
0.0
  0
LINE
  5
20ACF
  8
1CENTER
 10
545.0108170428405
 20
-674.8213303981522
 30
0.0
 11
558.0108170428405
 21
-674.8213303981522
 31
0.0
  0
LINE
  5
20AD1
  8
1CENTER
 10
444.5441060361766
 20
-668.3213303981522
 30
0.0
 11
444.5441060361766
 21
-681.3213303981522
 31
0.0
  0
LINE
  5
20AD2
  8
1CENTER
 10
438.0441060361766
 20
-674.8213303981522
 30
0.0
 11
451.0441060361766
 21
-674.8213303981522
 31
0.0
  0
LINE
  5
20AD3
  8
1CENTER
 10
498.0162416153651
 20
-497.2818733560541
 30
0.0
 11
498.0162416153649
 21
-614.3971616316646
 31
0.0
  0
LINE
  5
20AD4
  8
1CENTER
 10
498.0162416153646
 20
-648.7611435246436
 30
0.0
 11
498.0162416153645
 21
-696.9978269403484
 31
0.0
  0
LINE
  5
20AF1
  8
01
 10
782.516241784088
 20
-661.821330351268
 30
0.0
 11
790.5162417659525
 21
-661.821330351268
 31
0.0
  0
LINE
  5
20AF2
  8
01
 10
793.5162417659525
 20
-661.8213303512664
 30
0.0
 11
803.0162417839523
 21
-661.8213303512664
 31
0.0
  0
ARC
  5
20AF6
  8
01
 10
783.5162417839525
 20
-665.3213305227002
 30
0.0
 40
0.5000001685875475
 50
90.00001931870663
 51
179.9999806812934
  0
LINE
  5
20AF7
  8
01
 10
800.016241615365
 20
-679.3213303541113
 30
0.0
 11
800.016241615365
 21
-674.8213303541113
 31
0.0
  0
LINE
  5
20AF8
  8
01
 10
800.016241615365
 20
-674.8213303541113
 30
0.0
 11
800.016241615365
 21
-670.3213303541128
 31
0.0
  0
LINE
  5
20AF9
  8
01
 10
802.5162417839525
 20
-664.8213303541127
 30
0.0
 11
783.516241615365
 21
-664.8213303541128
 31
0.0
  0
LINE
  5
20AFF
  8
01
 10
784.016241615365
 20
-667.8213303541128
 30
0.0
 11
799.516241615365
 21
-667.8213303541128
 31
0.0
  0
ARC
  5
20B00
  8
01
 10
784.016241615365
 20
-666.8213303541128
 30
0.0
 40
1.0
 50
180.0
 51
270.0
  0
LINE
  5
20B01
  8
01
 10
783.016241615365
 20
-665.3213303541127
 30
0.0
 11
783.016241615365
 21
-666.8213303541128
 31
0.0
  0
ARC
  5
20B06
  8
01
 10
800.016241615365
 20
-667.8213303541128
 30
0.0
 40
3.0
 50
0.0
 51
90.0
  0
LINE
  5
20B07
  8
01
 10
803.016241615365
 20
-667.8213303541128
 30
0.0
 11
803.016241615365
 21
-672.5713304158263
 31
0.0
  0
LINE
  5
20B0A
  8
01
 10
800.016241615365
 20
-679.3213303541128
 30
0.0
 11
800.016241615365
 21
-689.3213303541128
 31
0.0
  0
LINE
  5
20B0B
  8
01
 10
803.016241615365
 20
-689.3213303541128
 30
0.0
 11
803.016241615365
 21
-677.0713302923918
 31
0.0
  0
LINE
  5
20B0F
  8
01
 10
803.0162417839525
 20
-664.3213303541127
 30
0.0
 11
803.0162417839523
 21
-661.8213303512664
 31
0.0
  0
LINE
  5
20B1A
  8
01
 10
803.016241615365
 20
-672.5713304158263
 30
0.0
 11
803.0162416890022
 21
-673.3213789713523
 31
0.0
  0
LINE
  5
20B1B
  8
01
 10
803.016241615365
 20
-677.062228898488
 30
0.0
 11
803.016241615365
 21
-676.3213768900071
 31
0.0
  0
LINE
  5
20B24
  8
01
 10
714.0162417839523
 20
-658.8213303512663
 30
0.0
 11
707.0162415469248
 21
-658.8213303512663
 31
0.0
  0
LINE
  5
20B30
  8
01
 10
500.0653054474687
 20
-509.8214130771053
 30
0.0
 11
500.9610657590085
 21
-511.8238578868065
 31
0.0
  0
LINE
  5
20B31
  8
01
 10
501.9887649341206
 20
-509.8214353264921
 30
0.0
 11
501.5106256123373
 21
-509.8214353264921
 31
0.0
  0
LINE
  5
20B32
  8
01
 10
500.4117283995471
 20
-509.8214353264921
 30
0.0
 11
500.0653054474687
 21
-509.8214353264921
 31
0.0
  0
LINE
  5
20B33
  8
01
 10
498.6689339335035
 20
-509.8214353264921
 30
0.0
 11
498.3225109814254
 21
-509.8214353264921
 31
0.0
  0
ARC
  5
20B73
  8
01
 10
799.5162414467776
 20
-668.3213305227002
 30
0.0
 40
0.5000001685874267
 50
0.000019318706641
 51
89.99998068131941
  0
LINE
  5
20B74
  8
01
 10
800.016241615365
 20
-668.3213303541127
 30
0.0
 11
800.016241615365
 21
-670.3213303541128
 31
0.0
  0
LINE
  5
20BBD
  8
01
 10
820.5162464374348
 20
-672.8213768900071
 30
0.0
 11
821.3162371302574
 21
-676.8213768900071
 31
0.0
  0
LINE
  5
20BBE
  8
01
 10
821.3162371302574
 20
-676.8213768900071
 30
0.0
 11
821.4162382936545
 21
-676.3213768900071
 31
0.0
  0
LINE
  5
20BBF
  8
01
 10
820.4162452740377
 20
-673.3213768900071
 30
0.0
 11
820.5162464374348
 21
-672.8213768900071
 31
0.0
  0
LINE
  5
20BC0
  8
01
 10
822.1162464374347
 20
-672.8213768900071
 30
0.0
 11
822.9162371302573
 21
-676.8213768900071
 31
0.0
  0
LINE
  5
20BC1
  8
01
 10
822.9162371302573
 20
-676.8213768900071
 30
0.0
 11
823.0162382936544
 21
-676.3213768900071
 31
0.0
  0
LINE
  5
20BC2
  8
01
 10
822.0162452740376
 20
-673.3213768900071
 30
0.0
 11
822.1162464374347
 21
-672.8213768900071
 31
0.0
  0
LINE
  5
20BC3
  8
01
 10
823.7162464374346
 20
-672.8213768900071
 30
0.0
 11
824.5162371302572
 21
-676.8213768900071
 31
0.0
  0
LINE
  5
20BC4
  8
01
 10
824.5162371302572
 20
-676.8213768900071
 30
0.0
 11
824.6162382936543
 21
-676.3213768900071
 31
0.0
  0
LINE
  5
20BC5
  8
01
 10
823.6162452740375
 20
-673.3213768900071
 30
0.0
 11
823.7162464374346
 21
-672.8213768900071
 31
0.0
  0
LINE
  5
20C59
  8
01
 10
552.0108168928405
 20
-508.8213303512664
 30
0.0
 11
551.0108171928405
 21
-507.8213303512664
 31
0.0
  0
LINE
  5
20C5A
  8
01
 10
555.3108170428404
 20
-508.8213303512664
 30
0.0
 11
555.3108170428404
 21
-507.8213303512664
 31
0.0
  0
LINE
  5
20C5B
  8
01
 10
555.3108170428404
 20
-507.8213303512664
 30
0.0
 11
547.7108170428405
 21
-507.8213303512664
 31
0.0
  0
LINE
  5
20C5C
  8
01
 10
555.3108170428404
 20
-508.8213303512664
 30
0.0
 11
547.7108170428405
 21
-508.8213303512664
 31
0.0
  0
LINE
  5
20C5D
  8
01
 10
547.7108170428405
 20
-508.8213303512664
 30
0.0
 11
547.7108170428405
 21
-507.8213303512664
 31
0.0
  0
LINE
  5
20C60
  8
01
 10
445.0325992547723
 20
-509.0213268612981
 30
0.0
 11
444.0325995547723
 21
-508.0213268612981
 31
0.0
  0
LINE
  5
20C61
  8
01
 10
448.3325994047723
 20
-509.0213268612981
 30
0.0
 11
448.3325994047723
 21
-508.0213268612981
 31
0.0
  0
LINE
  5
20C62
  8
01
 10
448.3325994047723
 20
-508.0213268612981
 30
0.0
 11
440.7325994047724
 21
-508.0213268612981
 31
0.0
  0
LINE
  5
20C63
  8
01
 10
448.3325994047723
 20
-509.0213268612981
 30
0.0
 11
440.7325994047724
 21
-509.0213268612981
 31
0.0
  0
LINE
  5
20C64
  8
01
 10
440.7325994047724
 20
-509.0213268612981
 30
0.0
 11
440.7325994047724
 21
-508.0213268612981
 31
0.0
  0
LINE
  5
20C6A
  8
1DIM
 10
727.1054837283073
 20
-612.2645047615546
 30
0.0
 11
797.1054837283073
 21
-612.2645047615546
 31
0.0
  0
TEXT
  5
20C6B
  8
1TEXT
 10
730.3017800246037
 20
-610.5997934210789
 30
0.0
 40
4.0
  1
Lumi Gold
 72
     1
 11
744.5054837283074
 21
-610.5997934210789
 31
0.0
  0
TEXT
  5
20C6C
  8
1TEXT
 10
766.6721503949742
 20
-610.9788617452039
 30
0.0
 40
4.0
  1
SE-224-P01
 41
0.7
 72
     1
 11
779.5054837283076
 21
-610.9788617452039
 31
0.0
  0
LINE
  5
20C6D
  8
1DIM
 10
727.1054837283073
 20
-619.2645047615546
 30
0.0
 11
797.1054837283073
 21
-619.2645047615546
 31
0.0
  0
TEXT
  5
20C6E
  8
1TEXT
 10
730.4627059505295
 20
-617.5997934210789
 30
0.0
 40
4.0
  1
Lumi Rose Gold
 41
0.6
 72
     1
 11
744.5054837283074
 21
-617.5997934210789
 31
0.0
  0
TEXT
  5
20C6F
  8
1TEXT
 10
766.2054837283076
 20
-617.9788617452039
 30
0.0
 40
4.0
  1
SE-224-P02
 41
0.7
 72
     1
 11
779.5054837283076
 21
-617.9788617452039
 31
0.0
  0
LINE
  5
20C70
  8
1DIM
 10
727.1054837283073
 20
-626.2645047615546
 30
0.0
 11
797.1054837283073
 21
-626.2645047615546
 31
0.0
  0
TEXT
  5
20C71
  8
1TEXT
 10
727.8036318764555
 20
-624.5997934210789
 30
0.0
 40
4.0
  1
Lumi Champagne Gold
 41
0.5
 72
     1
 11
744.5054837283074
 21
-624.5997934210789
 31
0.0
  0
TEXT
  5
20C72
  8
1TEXT
 10
766.2054837283076
 20
-624.9788617452039
 30
0.0
 40
4.0
  1
SE-224-P05
 41
0.7
 72
     1
 11
779.5054837283076
 21
-624.9788617452039
 31
0.0
  0
LINE
  5
20C73
  8
1DIM
 10
727.1054837283073
 20
-633.2645047615546
 30
0.0
 11
797.1054837283073
 21
-633.2645047615546
 31
0.0
  0
TEXT
  5
20C74
  8
1TEXT
 10
733.1726133579369
 20
-631.5997934210789
 30
0.0
 40
4.0
  1
Lumi Black
 41
0.7
 72
     1
 11
744.5054837283074
 21
-631.5997934210789
 31
0.0
  0
TEXT
  5
20C75
  8
1TEXT
 10
766.2054837283076
 20
-631.9788617452039
 30
0.0
 40
4.0
  1
SE-224-P07
 41
0.7
 72
     1
 11
779.5054837283076
 21
-631.9788617452039
 31
0.0
  0
LINE
  5
20DB6
  8
01
 10
2223.995773145827
 20
-630.9333593489403
 30
0.0
 11
2223.995773145827
 21
-653.0833593489417
 31
0.0
  0
LINE
  5
20DB7
  8
01
 10
2223.995773145827
 20
-633.283359351786
 30
0.0
 11
2223.995773145827
 21
-650.9333593517854
 31
0.0
  0
LINE
  5
20DB8
  8
01
 10
2236.495773145827
 20
-610.3804065056279
 30
0.0
 11
2236.495773145827
 21
-684.8367536761916
 31
0.0
  0
LINE
  5
20DB9
  8
01
 10
2245.495773145827
 20
-610.3804065056279
 30
0.0
 11
2245.495773145827
 21
-684.8367536761916
 31
0.0
  0
LINE
  5
20DBA
  8
01
 10
2223.995773145827
 20
-610.3804065056279
 30
0.0
 11
2223.995773145827
 21
-684.8367536761916
 31
0.0
  0
TEXT
  5
20DEF
  8
1TEXT
 10
2096.574207521694
 20
-520.0181327568561
 30
0.0
 40
4.0
  1
Finish
 72
     1
 11
2105.215874188361
 21
-520.0181327568561
 31
0.0
  0
LINE
  5
20DF0
  8
1DIM
 10
2087.815874188361
 20
-514.5181327568561
 30
0.0
 11
2157.815874188361
 21
-514.5181327568561
 31
0.0
  0
LINE
  5
20DF1
  8
1DIM
 10
2087.815874188361
 20
-528.5181327568561
 30
0.0
 11
2157.815874188361
 21
-528.5181327568561
 31
0.0
  0
LINE
  5
20DF2
  8
1DIM
 10
2087.815874188361
 20
-521.5181327568561
 30
0.0
 11
2157.815874188361
 21
-521.5181327568561
 31
0.0
  0
LINE
  5
20DF3
  8
1DIM
 10
2122.815874188361
 20
-514.5181327568561
 30
0.0
 11
2122.81587418836
 21
-563.5181327568561
 31
0.0
  0
TEXT
  5
20DF4
  8
1TEXT
 10
2132.882540855028
 20
-520.0181327568561
 30
0.0
 40
4.0
  1
Code
 72
     1
 11
2140.215874188361
 21
-520.0181327568561
 31
0.0
  0
LINE
  5
20DF5
  8
1DIM
 10
2087.815874188361
 20
-563.5181327568561
 30
0.0
 11
2087.815874188361
 21
-514.5181327568561
 31
0.0
  0
LINE
  5
20DF6
  8
1DIM
 10
2157.81587418836
 20
-563.5181327568561
 30
0.0
 11
2157.815874188361
 21
-514.5181327568561
 31
0.0
  0
TEXT
  5
20DF7
  8
1TEXT
 10
2087.815874188361
 20
-509.5181327568561
 30
0.0
 40
8.0
  1
SE-224-X
  0
TEXT
  5
20DF8
  8
1TEXT
 10
2095.228837151324
 20
-526.8534214163803
 30
0.0
 40
4.0
  1
Mirror
 72
     1
 11
2105.215874188361
 21
-526.8534214163803
 31
0.0
  0
TEXT
  5
20DF9
  8
1TEXT
 10
2125.482540855028
 20
-527.2324897405053
 30
0.0
 40
4.0
  1
SE-224-XP
 41
0.85
 72
     1
 11
2140.215874188361
 21
-527.2324897405053
 31
0.0
  0
LINE
  5
20DFA
  8
1DIM
 10
2087.815874188361
 20
-535.5181327568561
 30
0.0
 11
2157.815874188361
 21
-535.5181327568561
 31
0.0
  0
TEXT
  5
20DFB
  8
1TEXT
 10
2091.881614929102
 20
-533.8534214163803
 30
0.0
 40
4.0
  1
Brushed
 72
     1
 11
2105.215874188361
 21
-533.8534214163803
 31
0.0
  0
TEXT
  5
20DFC
  8
1TEXT
 10
2125.482540855028
 20
-534.2324897405053
 30
0.0
 40
4.0
  1
SE-224-XT
 41
0.85
 72
     1
 11
2140.215874188361
 21
-534.2324897405053
 31
0.0
  0
LINE
  5
20E53
  8
01
 10
1841.995486438566
 20
-645.5833593958263
 30
0.0
 11
1841.995486438566
 21
-668.0833593958266
 31
0.0
  0
LINE
  5
20E54
  8
01
 10
1995.995486438566
 20
-645.5833593958266
 30
0.0
 11
1995.995486438566
 21
-646.0833593958266
 31
0.0
  0
LINE
  5
20E55
  8
01
 10
1995.995486438566
 20
-648.5833593958264
 30
0.0
 11
1995.995486438566
 21
-668.0833593958266
 31
0.0
  0
LINE
  5
20E56
  8
01
 10
1993.995486438566
 20
-670.0833593958266
 30
0.0
 11
1843.995486438566
 21
-670.0833593958266
 31
0.0
  0
ARC
  5
20E57
  8
01
 10
1843.995486438566
 20
-668.0833593958267
 30
0.0
 40
1.999999999999915
 50
179.9999999999967
 51
269.999999999987
  0
ARC
  5
20E58
  8
01
 10
1993.995486438566
 20
-668.0833593958266
 30
0.0
 40
2.000000000000028
 50
270.0
 51
0.0
  0
ARC
  5
20E59
  8
01
 10
1842.495486438566
 20
-645.5833593958263
 30
0.0
 40
0.4999999999996021
 50
89.99999999997394
 51
179.9999999999609
  0
ARC
  5
20E5A
  8
01
 10
1995.495486438566
 20
-645.5833593958268
 30
0.0
 40
0.5000000000002381
 50
0.0000000000260551
 51
89.99999999997394
  0
LINE
  5
20E5B
  8
01
 10
1995.995486438566
 20
-648.5833593958264
 30
0.0
 11
1995.995486438566
 21
-648.3864276999541
 31
0.0
  0
LINE
  5
20E5C
  8
01
 10
1995.995486438566
 20
-648.1997774530912
 30
0.0
 11
1995.995486438566
 21
-647.6743409217971
 31
0.0
  0
ARC
  5
20E5D
  8
01
 10
1995.495486438562
 20
-647.5833593958257
 30
0.0
 40
0.5000000000040542
 50
338.4018390163732
 51
355.2622567987608
  0
LINE
  5
20E5E
  8
01
 10
1995.995486438566
 20
-646.645561355242
 30
0.0
 11
1995.995486438566
 21
-646.6587367948988
 31
0.0
  0
LINE
  5
20E5F
  8
01
 10
1995.995486438566
 20
-646.9155883636266
 30
0.0
 11
1995.995486438566
 21
-646.9342129157264
 31
0.0
  0
LINE
  5
20E60
  8
01
 10
1995.995486438566
 20
-647.0218171947722
 30
0.0
 11
1995.995486438566
 21
-647.0833593957979
 31
0.0
  0
LINE
  5
20E61
  8
01
 10
1995.995486438566
 20
-647.1299162995858
 30
0.0
 11
1995.995486438566
 21
-647.1416113283703
 31
0.0
  0
LINE
  5
20E62
  8
01
 10
1995.995486438566
 20
-647.2287547227168
 30
0.0
 11
1995.995486438566
 21
-647.2406549318782
 31
0.0
  0
LINE
  5
20E63
  8
01
 10
1995.995486438566
 20
-647.317409428035
 30
0.0
 11
1995.995486438566
 21
-647.329102801546
 31
0.0
  0
LINE
  5
20E64
  8
01
 10
1995.995486438566
 20
-648.3864277004029
 30
0.0
 11
1995.995486438566
 21
-648.1997774515479
 31
0.0
  0
LINE
  5
20E65
  8
01
 10
1995.995486438566
 20
-646.0833593958266
 30
0.0
 11
1995.995486438566
 21
-646.6455613549523
 31
0.0
  0
LINE
  5
20E66
  8
01
 10
1995.995486438566
 20
-646.6587367969958
 30
0.0
 11
1995.995486438566
 21
-646.9155883682308
 31
0.0
  0
LINE
  5
20E67
  8
01
 10
1995.995486438566
 20
-646.9342129157259
 30
0.0
 11
1995.995486438566
 21
-647.021817194786
 31
0.0
  0
LINE
  5
20E68
  8
01
 10
1995.995486438566
 20
-647.08335939578
 30
0.0
 11
1995.995486438566
 21
-647.1299162996318
 31
0.0
  0
LINE
  5
20E69
  8
01
 10
1995.995486438566
 20
-647.1416113283701
 30
0.0
 11
1995.995486438566
 21
-647.2287547228677
 31
0.0
  0
LINE
  5
20E6A
  8
01
 10
1995.995486438566
 20
-647.2406549318775
 30
0.0
 11
1995.995486438566
 21
-647.3174094285413
 31
0.0
  0
LINE
  5
20E6B
  8
01
 10
1995.995486438566
 20
-647.3291028015426
 30
0.0
 11
1995.995486438566
 21
-647.5833593959458
 31
0.0
  0
ARC
  5
20E6D
  8
01
 10
1774.886744894354
 20
-600.376731351482
 30
0.0
 40
0.8985356819663486
 50
172.5604109473566
 51
276.9694397096588
  0
ARC
  5
20E6E
  8
01
 10
2063.1048013973
 20
-600.3767313514818
 30
0.0
 40
0.8985356819666033
 50
263.0305602903544
 51
7.439589052627007
  0
LINE
  5
20E6F
  8
01
 10
1774.886744894354
 20
-601.2752670334485
 30
0.0
 11
2062.995773145827
 21
-601.2686277648326
 31
0.0
  0
ARC
  5
20E70
  8
01
 10
1774.995773145836
 20
-592.2686277648314
 30
0.0
 40
0.9999999999999716
 50
89.99999999996092
 51
179.9999999810775
  0
LINE
  5
20E71
  8
01
 10
1773.995773145827
 20
-592.7686277648318
 30
0.0
 11
1773.995773145827
 21
-594.2032601947831
 31
0.0
  0
ARC
  5
20E72
  8
01
 10
2062.995772978094
 20
-592.2686279325746
 30
0.0
 40
1.000000167742186
 50
0.0000160434536155
 51
89.99999038909289
  0
LINE
  5
20E73
  8
01
 10
2063.995773145827
 20
-592.7686277648327
 30
0.0
 11
2063.995773145827
 21
-594.2032601958547
 31
0.0
  0
LINE
  5
20E74
  8
01
 10
2063.487213242162
 20
-501.2686277648328
 30
0.0
 11
2062.995773145828
 21
-501.2686277648328
 31
0.0
  0
LINE
  5
20E75
  8
01
 10
1774.495773145827
 20
-501.2686277648328
 30
0.0
 11
1774.495657626083
 21
-501.2686277648328
 31
0.0
  0
LINE
  5
20E76
  8
01
 10
1774.495657626083
 20
-501.2686277648328
 30
0.0
 11
1774.495633528737
 21
-501.2686277648328
 31
0.0
  0
LINE
  5
20E77
  8
01
 10
1774.495633528737
 20
-501.2686277648328
 30
0.0
 11
1774.495631768602
 21
-501.2686277648328
 31
0.0
  0
LINE
  5
20E78
  8
01
 10
1774.495631768602
 20
-501.2686277648328
 30
0.0
 11
1774.495846533065
 21
-501.2686277648328
 31
0.0
  0
LINE
  5
20E79
  8
01
 10
1774.495846533065
 20
-501.2686277648328
 30
0.0
 11
1774.497324428155
 21
-501.2686277648328
 31
0.0
  0
LINE
  5
20E7A
  8
01
 10
1774.497324428155
 20
-501.2686277648328
 30
0.0
 11
1774.504333270695
 21
-501.2686277648328
 31
0.0
  0
LINE
  5
20E7B
  8
01
 10
1774.504333270695
 20
-501.2686277648328
 30
0.0
 11
1774.533439866823
 21
-501.2686277648328
 31
0.0
  0
LINE
  5
20E7C
  8
01
 10
1774.533439866823
 20
-501.2686277648328
 30
0.0
 11
1774.643022316126
 21
-501.2686277648328
 31
0.0
  0
LINE
  5
20E7D
  8
01
 10
1774.643022316126
 20
-501.2686277648328
 30
0.0
 11
1774.995773145827
 21
-501.2686277648328
 31
0.0
  0
LINE
  5
20E7E
  8
01
 10
2063.995773145827
 20
-597.6971991705008
 30
0.0
 11
2063.995773145827
 21
-600.2603882593231
 31
0.0
  0
LINE
  5
20E7F
  8
01
 10
1773.995773145827
 20
-597.6971991704995
 30
0.0
 11
1773.995773145827
 21
-594.2686277645012
 31
0.0
  0
LINE
  5
20E80
  8
01
 10
1773.995773145827
 20
-592.7686277648318
 30
0.0
 11
1773.995773145828
 21
-501.768627764171
 31
0.0
  0
LINE
  5
20E81
  8
01
 10
1773.995773145827
 20
-600.2603882583124
 30
0.0
 11
1773.995773145827
 21
-597.6971991704995
 31
0.0
  0
LINE
  5
20E82
  8
01
 10
2063.995773145827
 20
-597.6971991705008
 30
0.0
 11
2063.995773145827
 21
-594.2686276525635
 31
0.0
  0
LINE
  5
20E83
  8
01
 10
2063.995773145827
 20
-592.7686277648327
 30
0.0
 11
2063.995773145828
 21
-501.768627764171
 31
0.0
  0
ARC
  5
20E84
  8
01
 10
2063.495773146392
 20
-501.768627764268
 30
0.0
 40
0.4999999994352315
 50
0.0000578867808285
 51
90.00000006469483
  0
ARC
  5
20E85
  8
01
 10
1774.495773145263
 20
-501.7686277642681
 30
0.0
 40
0.4999999994353175
 50
89.99999993530518
 51
179.9999999888745
  0
LINE
  5
20E86
  8
01
 10
1774.995773145837
 20
-591.2686277648314
 30
0.0
 11
2062.995773145836
 21
-591.2686277648324
 31
0.0
  0
LINE
  5
20E87
  8
01
 10
2062.995773145828
 20
-501.2686277648328
 30
0.0
 11
1774.995773145827
 21
-501.2686277648328
 31
0.0
  0
LINE
  5
20E88
  8
01
 10
1996.325982097117
 20
-642.0833593931043
 30
0.0
 11
1996.420153438557
 21
-642.0833593931507
 31
0.0
  0
ARC
  5
20E89
  8
01
 10
1842.495486438566
 20
-644.5833593958268
 30
0.0
 40
0.4999999999998863
 50
179.9999999999739
 51
270.000000000013
  0
LINE
  5
20E8A
  8
01
 10
2063.995773145827
 20
-637.0833593489481
 30
0.0
 11
2063.995773145827
 21
-641.0833592899227
 31
0.0
  0
ARC
  5
20E8B
  8
01
 10
1774.995773145827
 20
-637.0833593489299
 30
0.0
 40
0.9999999999999112
 50
89.99999999997394
 51
180.0
  0
ARC
  5
20E8C
  8
01
 10
1774.995773216218
 20
-641.0833593019825
 30
0.0
 40
1.000000070391479
 50
179.9999993080025
 51
269.9999959668654
  0
LINE
  5
20E8D
  8
01
 10
1773.995773145827
 20
-641.0833592899048
 30
0.0
 11
1773.995773145827
 21
-637.0833593489299
 31
0.0
  0
ARC
  5
20E8E
  8
01
 10
2062.995773145826
 20
-637.0833593489486
 30
0.0
 40
1.000000000000681
 50
0.0000000000325689
 51
89.99999999998697
  0
ARC
  5
20E8F
  8
01
 10
2062.995773075435
 20
-641.0833593020002
 30
0.0
 40
1.000000070391492
 50
270.0000040331477
 51
359.9999909314826
  0
ARC
  5
20E90
  8
01
 10
1841.495486438243
 20
-642.5833593935442
 30
0.0
 40
0.5000000003228059
 50
0.0000000026055104
 51
78.76535011327168
  0
ARC
  5
20E91
  8
01
 10
1996.495486438889
 20
-642.5833593935541
 30
0.0
 40
0.5000000003226432
 50
101.2346498867152
 51
179.9999999973815
  0
LINE
  5
20E92
  8
01
 10
1995.995486438566
 20
-642.5833593935769
 30
0.0
 11
1995.995486438566
 21
-644.5833593958266
 31
0.0
  0
LINE
  5
20E93
  8
01
 10
1841.995486438566
 20
-644.5833593958266
 30
0.0
 11
1841.995486438566
 21
-642.5833593935669
 31
0.0
  0
ARC
  5
20E94
  8
01
 10
1995.495486438566
 20
-644.5833593958267
 30
0.0
 40
0.4999999999997726
 50
269.999999999974
 51
0.0000000000130276
  0
LINE
  5
20E96
  8
01
 10
1774.995773146134
 20
-642.0836537658531
 30
0.0
 11
2062.995773145827
 21
-642.0836537658749
 31
0.0
  0
LINE
  5
20E97
  8
01
 10
1774.995773145827
 20
-636.0833593489299
 30
0.0
 11
2062.995773145827
 21
-636.0833593489518
 31
0.0
  0
LINE
  5
20E98
  8
01
 10
1842.495486438566
 20
-645.0833593958266
 30
0.0
 11
1995.495486438566
 21
-645.0833593958266
 31
0.0
  0
ARC
  5
20E99
  8
01
 10
2223.495773145827
 20
-644.5833591831996
 30
0.0
 40
0.5000001685875475
 50
270.0000193187001
 51
359.9999806813064
  0
ARC
  5
20E9A
  8
01
 10
2204.495773398708
 20
-644.5833592674934
 30
0.0
 40
0.5000000842937382
 50
180.0000096593419
 51
269.9999903406434
  0
ARC
  5
20E9B
  8
01
 10
2203.495773230121
 20
-642.5833594332362
 30
0.0
 40
0.5000000842936814
 50
0.000009659381004
 51
89.99999032512761
  0
LINE
  5
20E9C
  8
01
 10
2203.995773314415
 20
-642.5833593489422
 30
0.0
 11
2203.995773314415
 21
-644.5833593517871
 31
0.0
  0
LINE
  5
20E9D
  8
01
 10
2210.745773296415
 20
-645.0833593517871
 30
0.0
 11
2204.495773314415
 21
-645.0833593517871
 31
0.0
  0
LINE
  5
20E9E
  8
01
 10
2249.595776900714
 20
-653.583405406616
 30
0.0
 11
2220.995773314415
 21
-653.5834082144684
 31
0.0
  0
LINE
  5
20E9F
  8
01
 10
2219.995781458305
 20
-651.5833593517837
 30
0.0
 11
2218.89577796811
 21
-651.5833593517837
 31
0.0
  0
LINE
  5
20EA0
  8
01
 10
2217.395777968114
 20
-653.0833558615911
 30
0.0
 11
2217.395768660934
 21
-657.0833558615911
 31
0.0
  0
LINE
  5
20EA1
  8
01
 10
2219.995765170741
 20
-658.5833593517837
 30
0.0
 11
2218.89576866093
 21
-658.5833593517837
 31
0.0
  0
LINE
  5
20EA2
  8
01
 10
2249.695769824115
 20
-656.5834058876817
 30
0.0
 11
2220.995773314415
 21
-656.5834058876815
 31
0.0
  0
LINE
  5
20EA3
  8
01
 10
2252.895775860683
 20
-653.9890355377884
 30
0.0
 11
2253.695771294734
 21
-655.9513706266639
 31
0.0
  0
LINE
  5
20EA4
  8
1CENTER
 10
2252.956687905669
 20
-655.0833593517837
 30
0.0
 11
2216.325496905214
 21
-655.0833593517837
 31
0.0
  0
LINE
  5
20EA5
  8
01
 10
2225.495777967893
 20
-653.0834058876815
 30
0.0
 11
2226.295768660711
 21
-657.0834058876815
 31
0.0
  0
LINE
  5
20EA6
  8
01
 10
2253.695771294734
 20
-655.9513706266639
 30
0.0
 11
2254.007541150986
 21
-655.3630940516214
 31
0.0
  0
LINE
  5
20EA7
  8
01
 10
2239.895777967897
 20
-653.0834058876815
 30
0.0
 11
2240.69576866072
 21
-657.0834058876815
 31
0.0
  0
LINE
  5
20EA8
  8
01
 10
2240.69576866072
 20
-657.0834058876815
 30
0.0
 11
2240.795769824117
 21
-656.5834058876815
 31
0.0
  0
LINE
  5
20EA9
  8
01
 10
2246.3957768045
 20
-653.5834058876815
 30
0.0
 11
2246.495777967897
 21
-653.0834058876815
 31
0.0
  0
LINE
  5
20EAA
  8
01
 10
2239.09576866072
 20
-657.0834058876815
 30
0.0
 11
2239.195769824117
 21
-656.5834058876815
 31
0.0
  0
LINE
  5
20EAB
  8
01
 10
2239.7957768045
 20
-653.5834058876815
 30
0.0
 11
2239.895777967897
 21
-653.0834058876815
 31
0.0
  0
LINE
  5
20EAC
  8
01
 10
2238.1957768045
 20
-653.5834058876815
 30
0.0
 11
2238.295777967897
 21
-653.0834058876815
 31
0.0
  0
LINE
  5
20EAD
  8
01
 10
2238.295777967897
 20
-653.0834058876815
 30
0.0
 11
2239.09576866072
 21
-657.0834058876815
 31
0.0
  0
LINE
  5
20EAE
  8
01
 10
2248.89576866072
 20
-657.0834058876815
 30
0.0
 11
2248.995769824117
 21
-656.5834058876815
 31
0.0
  0
LINE
  5
20EAF
  8
01
 10
2250.495769187522
 20
-656.8569988354775
 30
0.0
 11
2250.625039885153
 21
-656.3204051002062
 31
0.0
  0
LINE
  5
20EB0
  8
01
 10
2247.29576866072
 20
-657.0834058876815
 30
0.0
 11
2247.395769824117
 21
-656.5834058876815
 31
0.0
  0
LINE
  5
20EB1
  8
01
 10
2251.183007401937
 20
-654.0043204848903
 30
0.0
 11
2251.295776914287
 21
-653.5362220297402
 31
0.0
  0
LINE
  5
20EB2
  8
01
 10
2247.9957768045
 20
-653.5834058876815
 30
0.0
 11
2248.095777967897
 21
-653.0834058876815
 31
0.0
  0
LINE
  5
20EB3
  8
01
 10
2249.5957768045
 20
-653.5834058876815
 30
0.0
 11
2249.695777967897
 21
-653.0834058876815
 31
0.0
  0
LINE
  5
20EB4
  8
01
 10
2252.744340064242
 20
-654.4462073784196
 30
0.0
 11
2252.895775860683
 21
-653.9890355377884
 31
0.0
  0
LINE
  5
20EB5
  8
01
 10
2251.295776914287
 20
-653.5362220297402
 30
0.0
 11
2252.095770241128
 21
-656.4041847310707
 31
0.0
  0
LINE
  5
20EB6
  8
01
 10
2248.095777967897
 20
-653.0834058876815
 30
0.0
 11
2248.89576866072
 21
-657.0834058876815
 31
0.0
  0
LINE
  5
20EB7
  8
01
 10
2249.695777967897
 20
-653.0834058876815
 30
0.0
 11
2250.495769187522
 21
-656.8569988354775
 31
0.0
  0
LINE
  5
20EB8
  8
01
 10
2228.695777967893
 20
-653.0834058876815
 30
0.0
 11
2229.495768660711
 21
-657.0834058876815
 31
0.0
  0
LINE
  5
20EB9
  8
01
 10
2246.495777967897
 20
-653.0834058876815
 30
0.0
 11
2247.29576866072
 21
-657.0834058876815
 31
0.0
  0
LINE
  5
20EBA
  8
01
 10
2229.495768660711
 20
-657.0834058876815
 30
0.0
 11
2229.595769824109
 21
-656.5834058876815
 31
0.0
  0
LINE
  5
20EBB
  8
01
 10
2230.195776804499
 20
-653.5834058876815
 30
0.0
 11
2230.295777967897
 21
-653.0834058876815
 31
0.0
  0
LINE
  5
20EBC
  8
01
 10
2227.895768660711
 20
-657.0834058876815
 30
0.0
 11
2227.995769824109
 21
-656.5834058876815
 31
0.0
  0
LINE
  5
20EBD
  8
01
 10
2226.295768660711
 20
-657.0834058876815
 30
0.0
 11
2226.395769824109
 21
-656.5834058876815
 31
0.0
  0
LINE
  5
20EBE
  8
01
 10
2228.595776804495
 20
-653.5834058876815
 30
0.0
 11
2228.695777967893
 21
-653.0834058876815
 31
0.0
  0
LINE
  5
20EBF
  8
01
 10
2226.995776804495
 20
-653.5834058876815
 30
0.0
 11
2227.095777967893
 21
-653.0834058876815
 31
0.0
  0
LINE
  5
20EC0
  8
01
 10
2227.095777967893
 20
-653.0834058876815
 30
0.0
 11
2227.895768660711
 21
-657.0834058876815
 31
0.0
  0
LINE
  5
20EC1
  8
01
 10
2235.89576866072
 20
-657.0834058876815
 30
0.0
 11
2235.995769824117
 21
-656.5834058876815
 31
0.0
  0
LINE
  5
20EC2
  8
01
 10
2231.095768660715
 20
-657.0834058876815
 30
0.0
 11
2231.195769824113
 21
-656.5834058876815
 31
0.0
  0
LINE
  5
20EC3
  8
01
 10
2232.695768660715
 20
-657.0834058876815
 30
0.0
 11
2232.795769824113
 21
-656.5834058876815
 31
0.0
  0
LINE
  5
20EC4
  8
01
 10
2236.5957768045
 20
-653.5834058876815
 30
0.0
 11
2236.695777967897
 21
-653.0834058876815
 31
0.0
  0
LINE
  5
20EC5
  8
01
 10
2234.9957768045
 20
-653.5834058876815
 30
0.0
 11
2235.095777967897
 21
-653.0834058876815
 31
0.0
  0
LINE
  5
20EC6
  8
01
 10
2231.795776804499
 20
-653.5834058876815
 30
0.0
 11
2231.895777967897
 21
-653.0834058876815
 31
0.0
  0
LINE
  5
20EC7
  8
01
 10
2233.395776804499
 20
-653.5834058876815
 30
0.0
 11
2233.495777967897
 21
-653.0834058876815
 31
0.0
  0
LINE
  5
20EC8
  8
01
 10
2233.495777967897
 20
-653.0834058876815
 30
0.0
 11
2234.295768660715
 21
-657.0834058876815
 31
0.0
  0
LINE
  5
20EC9
  8
01
 10
2235.095777967897
 20
-653.0834058876815
 30
0.0
 11
2235.89576866072
 21
-657.0834058876815
 31
0.0
  0
LINE
  5
20ECA
  8
01
 10
2231.895777967897
 20
-653.0834058876815
 30
0.0
 11
2232.695768660715
 21
-657.0834058876815
 31
0.0
  0
LINE
  5
20ECB
  8
01
 10
2230.295777967897
 20
-653.0834058876815
 30
0.0
 11
2231.095768660715
 21
-657.0834058876815
 31
0.0
  0
LINE
  5
20ECC
  8
01
 10
2219.995769824222
 20
-656.5834058876815
 30
0.0
 11
2219.995776804607
 21
-653.5834058876817
 31
0.0
  0
LINE
  5
20ECD
  8
01
 10
2220.995773314415
 20
-654.5834000712107
 30
0.0
 11
2221.495768660707
 21
-657.0834058876815
 31
0.0
  0
LINE
  5
20ECE
  8
01
 10
2221.495768660707
 20
-657.0834058876815
 30
0.0
 11
2221.595769824105
 21
-656.5834058876815
 31
0.0
  0
LINE
  5
20ECF
  8
01
 10
2222.195776804491
 20
-653.5834058876815
 30
0.0
 11
2222.295777967889
 21
-653.0834058876815
 31
0.0
  0
LINE
  5
20ED0
  8
01
 10
2236.695777967897
 20
-653.0834058876815
 30
0.0
 11
2237.495768660719
 21
-657.0834058876815
 31
0.0
  0
LINE
  5
20ED1
  8
01
 10
2223.895777967889
 20
-653.0834058876815
 30
0.0
 11
2224.695768660707
 21
-657.0834058876815
 31
0.0
  0
LINE
  5
20ED2
  8
01
 10
2223.095768660707
 20
-657.0834058876815
 30
0.0
 11
2223.195769824104
 21
-656.5834058876815
 31
0.0
  0
LINE
  5
20ED3
  8
01
 10
2224.695768660707
 20
-657.0834058876815
 30
0.0
 11
2224.795769824104
 21
-656.5834058876815
 31
0.0
  0
LINE
  5
20ED4
  8
01
 10
2237.495768660719
 20
-657.0834058876815
 30
0.0
 11
2237.595769824117
 21
-656.5834058876815
 31
0.0
  0
LINE
  5
20ED5
  8
01
 10
2225.395776804495
 20
-653.5834058876815
 30
0.0
 11
2225.495777967893
 21
-653.0834058876815
 31
0.0
  0
LINE
  5
20ED6
  8
01
 10
2219.995773314415
 20
-658.8834058876816
 30
0.0
 11
2219.995773314415
 21
-651.2834058876815
 31
0.0
  0
LINE
  5
20ED7
  8
01
 10
2252.095770241128
 20
-656.4041847310707
 30
0.0
 11
2252.278534383756
 21
-655.8524352672675
 31
0.0
  0
LINE
  5
20ED8
  8
01
 10
2220.995773314415
 20
-658.8834058876816
 30
0.0
 11
2220.995773314415
 21
-651.2834058876815
 31
0.0
  0
LINE
  5
20ED9
  8
01
 10
2219.995773314415
 20
-651.2834058876815
 30
0.0
 11
2220.995773314415
 21
-651.2834058876815
 31
0.0
  0
LINE
  5
20EDA
  8
01
 10
2234.295768660715
 20
-657.0834058876815
 30
0.0
 11
2234.395769824113
 21
-656.5834058876815
 31
0.0
  0
LINE
  5
20EDB
  8
01
 10
2223.795776804491
 20
-653.5834058876815
 30
0.0
 11
2223.895777967889
 21
-653.0834058876815
 31
0.0
  0
LINE
  5
20EDC
  8
01
 10
2222.295777967889
 20
-653.0834058876815
 30
0.0
 11
2223.095768660707
 21
-657.0834058876815
 31
0.0
  0
LINE
  5
20EDD
  8
01
 10
2254.995773314361
 20
-655.0834058876815
 30
0.0
 11
2249.695776804499
 21
-653.5834058876815
 31
0.0
  0
LINE
  5
20EDE
  8
01
 10
2219.995781458305
 20
-651.5833593517837
 30
0.0
 11
2219.995776804607
 21
-653.5834058876817
 31
0.0
  0
ARC
  5
20EDF
  8
01
 10
2218.89577796811
 20
-653.0833593517837
 30
0.0
 40
1.5
 50
90.0
 51
179.9998666844619
  0
ARC
  5
20EE0
  8
01
 10
2218.89576866093
 20
-657.0833593517837
 30
0.0
 40
1.5
 50
179.9998666844619
 51
270.0
  0
LINE
  5
20EE1
  8
01
 10
2219.995769824222
 20
-656.5834058876815
 30
0.0
 11
2219.995765170741
 21
-658.5833593517837
 31
0.0
  0
LINE
  5
20EE2
  8
01
 10
2254.995773314361
 20
-655.0834058876815
 30
0.0
 11
2249.695769824115
 21
-656.5834058876817
 31
0.0
  0
LINE
  5
20EE3
  8
01
 10
2219.995773314415
 20
-658.8834058876816
 30
0.0
 11
2220.995773314415
 21
-658.8834058876816
 31
0.0
  0
LINE
  5
20EE5
  8
1CENTER
 10
1972.490348573303
 20
-648.5833593958266
 30
0.0
 11
1972.490348573303
 21
-661.5833593958266
 31
0.0
  0
LINE
  5
20EE6
  8
1CENTER
 10
1965.990348573303
 20
-655.0833593958266
 30
0.0
 11
1978.990348573303
 21
-655.0833593958266
 31
0.0
  0
LINE
  5
20EE8
  8
1CENTER
 10
1865.523637566639
 20
-648.5833593958266
 30
0.0
 11
1865.523637566639
 21
-661.5833593958266
 31
0.0
  0
LINE
  5
20EE9
  8
1CENTER
 10
1859.023637566639
 20
-655.0833593958266
 30
0.0
 11
1872.023637566639
 21
-655.0833593958266
 31
0.0
  0
LINE
  5
20EEC
  8
01
 10
2203.49577331455
 20
-642.0833593489424
 30
0.0
 11
2211.495773296415
 21
-642.0833593489424
 31
0.0
  0
LINE
  5
20EED
  8
01
 10
2214.495773296415
 20
-642.0833593489408
 30
0.0
 11
2223.995773314415
 21
-642.0833593489408
 31
0.0
  0
ARC
  5
20EEE
  8
01
 10
2204.495773314415
 20
-645.5833595203746
 30
0.0
 40
0.5000001685875475
 50
90.00001931870013
 51
179.9999806812934
  0
LINE
  5
20EEF
  8
01
 10
2220.995773145827
 20
-659.5833593517857
 30
0.0
 11
2220.995773145827
 21
-655.0833593517857
 31
0.0
  0
LINE
  5
20EF0
  8
01
 10
2220.995773145827
 20
-655.0833593517857
 30
0.0
 11
2220.995773145827
 21
-650.5833593517872
 31
0.0
  0
LINE
  5
20EF1
  8
01
 10
2223.495773314415
 20
-645.0833593517871
 30
0.0
 11
2204.495773145827
 21
-645.0833593517872
 31
0.0
  0
LINE
  5
20EF2
  8
01
 10
2204.995773145827
 20
-648.0833593517872
 30
0.0
 11
2220.495773145827
 21
-648.0833593517872
 31
0.0
  0
ARC
  5
20EF3
  8
01
 10
2204.995773145827
 20
-647.0833593517872
 30
0.0
 40
1.0
 50
180.0
 51
270.0
  0
LINE
  5
20EF4
  8
01
 10
2203.995773145827
 20
-645.5833593517871
 30
0.0
 11
2203.995773145827
 21
-647.0833593517872
 31
0.0
  0
ARC
  5
20EF5
  8
01
 10
2220.995773145827
 20
-648.0833593517872
 30
0.0
 40
3.0
 50
0.0
 51
90.0
  0
LINE
  5
20EF6
  8
01
 10
2223.995773145827
 20
-648.0833593517872
 30
0.0
 11
2223.995773145827
 21
-652.8333594135007
 31
0.0
  0
ARC
  5
20EF7
  8
01
 10
2220.49577297724
 20
-648.5833595203746
 30
0.0
 40
0.5000001685874267
 50
0.000019318706641
 51
89.9999806813129
  0
LINE
  5
20EF8
  8
01
 10
2220.995773145827
 20
-648.5833593517871
 30
0.0
 11
2220.995773145827
 21
-650.5833593517872
 31
0.0
  0
LINE
  5
20EF9
  8
01
 10
2220.995773145827
 20
-659.5833593517872
 30
0.0
 11
2220.995773145827
 21
-669.5833593517872
 31
0.0
  0
LINE
  5
20EFA
  8
01
 10
2223.995773145827
 20
-669.5833593517872
 30
0.0
 11
2223.995773145827
 21
-657.3333592900663
 31
0.0
  0
LINE
  5
20EFB
  8
01
 10
2223.995773314415
 20
-644.5833593517871
 30
0.0
 11
2223.995773314415
 21
-642.0833593489408
 31
0.0
  0
LINE
  5
20EFE
  8
01
 10
2223.995773145827
 20
-652.8333594135007
 30
0.0
 11
2223.995773219464
 21
-653.5834079690267
 31
0.0
  0
LINE
  5
20EFF
  8
01
 10
2223.995773145827
 20
-657.3242578961624
 30
0.0
 11
2223.995773145827
 21
-656.5834058876815
 31
0.0
  0
LINE
  5
20F02
  8
01
 10
1921.044836977931
 20
-505.2687104906718
 30
0.0
 11
1921.940597289471
 21
-507.271155300373
 31
0.0
  0
LINE
  5
20F03
  8
01
 10
1922.968296464583
 20
-505.2687327400586
 30
0.0
 11
1922.490157142799
 21
-505.2687327400586
 31
0.0
  0
LINE
  5
20F04
  8
01
 10
1921.391259930009
 20
-505.2687327400586
 30
0.0
 11
1921.044836977931
 21
-505.2687327400586
 31
0.0
  0
LINE
  5
20F05
  8
01
 10
1919.648465463966
 20
-505.2687327400586
 30
0.0
 11
1919.302042511888
 21
-505.2687327400586
 31
0.0
  0
LINE
  5
20F0F
  8
01
 10
2241.495777967897
 20
-653.0834058876815
 30
0.0
 11
2242.29576866072
 21
-657.0834058876815
 31
0.0
  0
LINE
  5
20F10
  8
01
 10
2242.29576866072
 20
-657.0834058876815
 30
0.0
 11
2242.395769824117
 21
-656.5834058876815
 31
0.0
  0
LINE
  5
20F11
  8
01
 10
2241.3957768045
 20
-653.5834058876815
 30
0.0
 11
2241.495777967897
 21
-653.0834058876815
 31
0.0
  0
LINE
  5
20F12
  8
01
 10
2243.095777967897
 20
-653.0834058876815
 30
0.0
 11
2243.89576866072
 21
-657.0834058876815
 31
0.0
  0
LINE
  5
20F13
  8
01
 10
2243.89576866072
 20
-657.0834058876815
 30
0.0
 11
2243.995769824117
 21
-656.5834058876815
 31
0.0
  0
LINE
  5
20F14
  8
01
 10
2242.9957768045
 20
-653.5834058876815
 30
0.0
 11
2243.095777967897
 21
-653.0834058876815
 31
0.0
  0
LINE
  5
20F15
  8
01
 10
2244.695777967897
 20
-653.0834058876815
 30
0.0
 11
2245.495768660719
 21
-657.0834058876815
 31
0.0
  0
LINE
  5
20F16
  8
01
 10
2245.495768660719
 20
-657.0834058876815
 30
0.0
 11
2245.595769824116
 21
-656.5834058876815
 31
0.0
  0
LINE
  5
20F17
  8
01
 10
2244.5957768045
 20
-653.5834058876815
 30
0.0
 11
2244.695777967897
 21
-653.0834058876815
 31
0.0
  0
LINE
  5
20F18
  8
01
 10
1972.990348423303
 20
-504.2686277648329
 30
0.0
 11
1971.990348723303
 21
-503.2686277648329
 31
0.0
  0
LINE
  5
20F19
  8
01
 10
1976.290348573303
 20
-504.2686277648329
 30
0.0
 11
1976.290348573303
 21
-503.2686277648329
 31
0.0
  0
LINE
  5
20F1A
  8
01
 10
1976.290348573303
 20
-503.2686277648329
 30
0.0
 11
1968.690348573303
 21
-503.2686277648329
 31
0.0
  0
LINE
  5
20F1B
  8
01
 10
1976.290348573303
 20
-504.2686277648329
 30
0.0
 11
1968.690348573303
 21
-504.2686277648329
 31
0.0
  0
LINE
  5
20F1C
  8
01
 10
1968.690348573303
 20
-504.2686277648329
 30
0.0
 11
1968.690348573303
 21
-503.2686277648329
 31
0.0
  0
LINE
  5
20F1E
  8
01
 10
1866.012130785235
 20
-509.0213268612981
 30
0.0
 11
1865.012131085235
 21
-508.0213268612981
 31
0.0
  0
LINE
  5
20F1F
  8
01
 10
1869.312130935235
 20
-509.0213268612981
 30
0.0
 11
1869.312130935235
 21
-508.0213268612981
 31
0.0
  0
LINE
  5
20F20
  8
01
 10
1869.312130935235
 20
-508.0213268612981
 30
0.0
 11
1861.712130935235
 21
-508.0213268612981
 31
0.0
  0
LINE
  5
20F21
  8
01
 10
1869.312130935235
 20
-509.0213268612981
 30
0.0
 11
1861.712130935235
 21
-509.0213268612981
 31
0.0
  0
LINE
  5
20F22
  8
01
 10
1861.712130935235
 20
-509.0213268612981
 30
0.0
 11
1861.712130935235
 21
-508.0213268612981
 31
0.0
  0
LINE
  5
20F24
  8
1DIM
 10
2087.815874188361
 20
-542.5181327568561
 30
0.0
 11
2157.815874188361
 21
-542.5181327568561
 31
0.0
  0
TEXT
  5
20F25
  8
1TEXT
 10
2091.012170484657
 20
-540.8534214163803
 30
0.0
 40
4.0
  1
Lumi Gold
 72
     1
 11
2105.215874188361
 21
-540.8534214163803
 31
0.0
  0
TEXT
  5
20F26
  8
1TEXT
 10
2127.382540855028
 20
-541.2324897405053
 30
0.0
 40
4.0
  1
SE-224-P01
 41
0.7
 72
     1
 11
2140.215874188361
 21
-541.2324897405053
 31
0.0
  0
LINE
  5
20F27
  8
1DIM
 10
2087.815874188361
 20
-549.5181327568561
 30
0.0
 11
2157.815874188361
 21
-549.5181327568561
 31
0.0
  0
TEXT
  5
20F28
  8
1TEXT
 10
2091.173096410584
 20
-547.8534214163803
 30
0.0
 40
4.0
  1
Lumi Rose Gold
 41
0.6
 72
     1
 11
2105.215874188361
 21
-547.8534214163803
 31
0.0
  0
TEXT
  5
20F29
  8
1TEXT
 10
2126.915874188361
 20
-548.2324897405053
 30
0.0
 40
4.0
  1
SE-224-P02
 41
0.7
 72
     1
 11
2140.215874188361
 21
-548.2324897405053
 31
0.0
  0
LINE
  5
20F2A
  8
1DIM
 10
2087.815874188361
 20
-556.5181327568561
 30
0.0
 11
2157.815874188361
 21
-556.5181327568561
 31
0.0
  0
TEXT
  5
20F2B
  8
1TEXT
 10
2088.51402233651
 20
-554.8534214163803
 30
0.0
 40
4.0
  1
Lumi Champagne Gold
 41
0.5
 72
     1
 11
2105.215874188361
 21
-554.8534214163803
 31
0.0
  0
TEXT
  5
20F2C
  8
1TEXT
 10
2126.915874188361
 20
-555.2324897405053
 30
0.0
 40
4.0
  1
SE-224-P05
 41
0.7
 72
     1
 11
2140.215874188361
 21
-555.2324897405053
 31
0.0
  0
LINE
  5
20F2D
  8
1DIM
 10
2087.815874188361
 20
-563.5181327568561
 30
0.0
 11
2157.815874188361
 21
-563.5181327568561
 31
0.0
  0
TEXT
  5
20F2E
  8
1TEXT
 10
2093.883003817991
 20
-561.8534214163803
 30
0.0
 40
4.0
  1
Lumi Black
 41
0.7
 72
     1
 11
2105.215874188361
 21
-561.8534214163803
 31
0.0
  0
TEXT
  5
20F2F
  8
1TEXT
 10
2126.915874188361
 20
-562.2324897405053
 30
0.0
 40
4.0
  1
SE-224-P07
 41
0.7
 72
     1
 11
2140.215874188361
 21
-562.2324897405053
 31
0.0
  0
LINE
  5
21224
  8
01
 10
2223.995773314415
 20
-639.5919192526076
 30
0.0
 11
2223.995773314415
 21
-640.0833593489408
 31
0.0
  0
LINE
  5
21225
  8
01
 10
2223.995773314415
 20
-640.0833593489408
 30
0.0
 11
2223.995773314415
 21
-641.0833593489408
 31
0.0
  0
LINE
  5
21226
  8
01
 10
2223.995773314415
 20
-641.0833593489408
 30
0.0
 11
2223.995773314415
 21
-642.0833593489408
 31
0.0
  0
LINE
  5
21227
  8
01
 10
2223.995773314415
 20
-642.0833593489408
 30
0.0
 11
2128.495773314415
 21
-642.0833593489408
 31
0.0
  0
LINE
  5
21228
  8
01
 10
2128.495773314415
 20
-642.0833593489408
 30
0.0
 11
2128.21840264507
 21
-642.079010594058
 31
0.0
  0
LINE
  5
21229
  8
01
 10
2128.21840264507
 20
-642.079010594058
 30
0.0
 11
2127.949837393799
 21
-642.0661474348783
 31
0.0
  0
LINE
  5
2122A
  8
01
 10
2127.949837393799
 20
-642.0661474348783
 30
0.0
 11
2127.690077560603
 21
-642.0450445296049
 31
0.0
  0
LINE
  5
2122B
  8
01
 10
2127.690077560603
 20
-642.0450445296049
 30
0.0
 11
2127.439123145482
 21
-642.0159765364408
 31
0.0
  0
LINE
  5
2122C
  8
01
 10
2127.439123145482
 20
-642.0159765364408
 30
0.0
 11
2127.316947969699
 21
-641.9985414625883
 31
0.0
  0
LINE
  5
2122D
  8
01
 10
2127.316947969699
 20
-641.9985414625883
 30
0.0
 11
2127.196974148434
 21
-641.9792181135892
 31
0.0
  0
LINE
  5
2122E
  8
01
 10
2127.196974148434
 20
-641.9792181135892
 30
0.0
 11
2127.079201681689
 21
-641.9580408217191
 31
0.0
  0
LINE
  5
2122F
  8
01
 10
2127.079201681689
 20
-641.9580408217191
 30
0.0
 11
2126.963630569462
 21
-641.9350439192533
 31
0.0
  0
LINE
  5
21230
  8
01
 10
2126.963630569462
 20
-641.9350439192533
 30
0.0
 11
2126.850260811753
 21
-641.9102617384672
 31
0.0
  0
LINE
  5
21231
  8
01
 10
2126.850260811753
 20
-641.9102617384672
 30
0.0
 11
2126.739092408563
 21
-641.8837286116361
 31
0.0
  0
LINE
  5
21232
  8
01
 10
2126.739092408563
 20
-641.8837286116361
 30
0.0
 11
2126.630125359892
 21
-641.8554788710355
 31
0.0
  0
LINE
  5
21233
  8
01
 10
2126.630125359892
 20
-641.8554788710355
 30
0.0
 11
2126.523359665739
 21
-641.8255468489408
 31
0.0
  0
LINE
  5
21234
  8
01
 10
2126.523359665739
 20
-641.8255468489408
 30
0.0
 11
2126.418795326105
 21
-641.7939668776273
 31
0.0
  0
LINE
  5
21235
  8
01
 10
2126.418795326105
 20
-641.7939668776273
 30
0.0
 11
2126.31643234099
 21
-641.7607732893705
 31
0.0
  0
LINE
  5
21236
  8
01
 10
2126.31643234099
 20
-641.7607732893705
 30
0.0
 11
2126.216270710393
 21
-641.7260004164457
 31
0.0
  0
LINE
  5
21237
  8
01
 10
2126.216270710393
 20
-641.7260004164457
 30
0.0
 11
2126.118310434315
 21
-641.6896825911283
 31
0.0
  0
LINE
  5
21238
  8
01
 10
2126.118310434315
 20
-641.6896825911283
 30
0.0
 11
2126.022551512756
 21
-641.6518541456937
 31
0.0
  0
LINE
  5
21239
  8
01
 10
2126.022551512756
 20
-641.6518541456937
 30
0.0
 11
2125.928993945715
 21
-641.6125494124174
 31
0.0
  0
LINE
  5
2123A
  8
01
 10
2125.928993945715
 20
-641.6125494124174
 30
0.0
 11
2125.837637733192
 21
-641.5718027235746
 31
0.0
  0
LINE
  5
2123B
  8
01
 10
2125.837637733192
 20
-641.5718027235746
 30
0.0
 11
2125.748482875189
 21
-641.5296484114408
 31
0.0
  0
LINE
  5
2123C
  8
01
 10
2125.748482875189
 20
-641.5296484114408
 30
0.0
 11
2125.661529371703
 21
-641.4861208082914
 31
0.0
  0
LINE
  5
2123D
  8
01
 10
2125.661529371703
 20
-641.4861208082914
 30
0.0
 11
2125.576777222737
 21
-641.4412542464017
 31
0.0
  0
LINE
  5
2123E
  8
01
 10
2125.576777222737
 20
-641.4412542464017
 30
0.0
 11
2125.494226428289
 21
-641.3950830580472
 31
0.0
  0
LINE
  5
2123F
  8
01
 10
2125.494226428289
 20
-641.3950830580472
 30
0.0
 11
2125.41387698836
 21
-641.3476415755033
 31
0.0
  0
LINE
  5
21240
  8
01
 10
2125.41387698836
 20
-641.3476415755033
 30
0.0
 11
2125.335728902949
 21
-641.2989641310453
 31
0.0
  0
LINE
  5
21241
  8
01
 10
2125.335728902949
 20
-641.2989641310453
 30
0.0
 11
2125.259782172057
 21
-641.2490850569486
 31
0.0
  0
LINE
  5
21242
  8
01
 10
2125.259782172057
 20
-641.2490850569486
 30
0.0
 11
2125.186036795684
 21
-641.1980386854887
 31
0.0
  0
LINE
  5
21243
  8
01
 10
2125.186036795684
 20
-641.1980386854887
 30
0.0
 11
2125.114492773829
 21
-641.1458593489408
 31
0.0
  0
LINE
  5
21244
  8
01
 10
2125.114492773829
 20
-641.1458593489408
 30
0.0
 11
2125.045150106493
 21
-641.0925813795805
 31
0.0
  0
LINE
  5
21245
  8
01
 10
2125.045150106493
 20
-641.0925813795805
 30
0.0
 11
2124.978008793675
 21
-641.038239109683
 31
0.0
  0
LINE
  5
21246
  8
01
 10
2124.978008793675
 20
-641.038239109683
 30
0.0
 11
2124.913068835376
 21
-640.9828668715238
 31
0.0
  0
LINE
  5
21247
  8
01
 10
2124.913068835376
 20
-640.9828668715238
 30
0.0
 11
2124.850330231596
 21
-640.9264989973783
 31
0.0
  0
LINE
  5
21248
  8
01
 10
2124.850330231596
 20
-640.9264989973783
 30
0.0
 11
2124.789792982334
 21
-640.8691698195219
 31
0.0
  0
LINE
  5
21249
  8
01
 10
2124.789792982334
 20
-640.8691698195219
 30
0.0
 11
2124.731457087591
 21
-640.8109136702299
 31
0.0
  0
LINE
  5
2124A
  8
01
 10
2124.731457087591
 20
-640.8109136702299
 30
0.0
 11
2124.675322547366
 21
-640.7517648817777
 31
0.0
  0
LINE
  5
2124B
  8
01
 10
2124.675322547366
 20
-640.7517648817777
 30
0.0
 11
2124.62138936166
 21
-640.6917577864408
 31
0.0
  0
LINE
  5
2124C
  8
01
 10
2124.62138936166
 20
-640.6917577864408
 30
0.0
 11
2124.569657530473
 21
-640.6309267164945
 31
0.0
  0
LINE
  5
2124D
  8
01
 10
2124.569657530473
 20
-640.6309267164945
 30
0.0
 11
2124.520127053804
 21
-640.5693060042142
 31
0.0
  0
LINE
  5
2124E
  8
01
 10
2124.520127053804
 20
-640.5693060042142
 30
0.0
 11
2124.472797931654
 21
-640.5069299818754
 31
0.0
  0
LINE
  5
2124F
  8
01
 10
2124.472797931654
 20
-640.5069299818754
 30
0.0
 11
2124.427670164022
 21
-640.4438329817533
 31
0.0
  0
LINE
  5
21250
  8
01
 10
2124.427670164022
 20
-640.4438329817533
 30
0.0
 11
2124.384743750909
 21
-640.3800493361234
 31
0.0
  0
LINE
  5
21251
  8
01
 10
2124.384743750909
 20
-640.3800493361234
 30
0.0
 11
2124.344018692315
 21
-640.3156133772611
 31
0.0
  0
LINE
  5
21252
  8
01
 10
2124.344018692315
 20
-640.3156133772611
 30
0.0
 11
2124.305494988239
 21
-640.2505594374418
 31
0.0
  0
LINE
  5
21253
  8
01
 10
2124.305494988239
 20
-640.2505594374418
 30
0.0
 11
2124.269172638682
 21
-640.1849218489408
 31
0.0
  0
LINE
  5
21254
  8
01
 10
2124.269172638682
 20
-640.1849218489408
 30
0.0
 11
2124.235051643644
 21
-640.1187349440336
 31
0.0
  0
LINE
  5
21255
  8
01
 10
2124.235051643644
 20
-640.1187349440336
 30
0.0
 11
2124.203132003124
 21
-640.0520330549955
 31
0.0
  0
LINE
  5
21256
  8
01
 10
2124.203132003124
 20
-640.0520330549955
 30
0.0
 11
2124.173413717123
 21
-639.9848505141019
 31
0.0
  0
LINE
  5
21257
  8
01
 10
2124.173413717123
 20
-639.9848505141019
 30
0.0
 11
2124.14589678564
 21
-639.9172216536283
 31
0.0
  0
LINE
  5
21258
  8
01
 10
2124.14589678564
 20
-639.9172216536283
 30
0.0
 11
2124.120581208676
 21
-639.84918080585
 31
0.0
  0
LINE
  5
21259
  8
01
 10
2124.120581208676
 20
-639.84918080585
 30
0.0
 11
2124.097466986231
 21
-639.7807623030424
 31
0.0
  0
LINE
  5
2125A
  8
01
 10
2124.097466986231
 20
-639.7807623030424
 30
0.0
 11
2124.076554118304
 21
-639.7120004774808
 31
0.0
  0
LINE
  5
2125B
  8
01
 10
2124.076554118304
 20
-639.7120004774808
 30
0.0
 11
2124.057842604896
 21
-639.6429296614408
 31
0.0
  0
LINE
  5
2125C
  8
01
 10
2124.057842604896
 20
-639.6429296614408
 30
0.0
 11
2124.041332446006
 21
-639.5735841871976
 31
0.0
  0
LINE
  5
2125D
  8
01
 10
2124.041332446006
 20
-639.5735841871976
 30
0.0
 11
2124.027023641635
 21
-639.5039983870267
 31
0.0
  0
LINE
  5
2125E
  8
01
 10
2124.027023641635
 20
-639.5039983870267
 30
0.0
 11
2124.014916191783
 21
-639.4342065932035
 31
0.0
  0
LINE
  5
2125F
  8
01
 10
2124.014916191783
 20
-639.4342065932035
 30
0.0
 11
2124.005010096449
 21
-639.3642431380033
 31
0.0
  0
LINE
  5
21260
  8
01
 10
2124.005010096449
 20
-639.3642431380033
 30
0.0
 11
2123.997305355634
 21
-639.2941423537015
 31
0.0
  0
LINE
  5
21261
  8
01
 10
2123.997305355634
 20
-639.2941423537015
 30
0.0
 11
2123.991801969338
 21
-639.2239385725736
 31
0.0
  0
LINE
  5
21262
  8
01
 10
2123.991801969338
 20
-639.2239385725736
 30
0.0
 11
2123.988499937559
 21
-639.1536661268949
 31
0.0
  0
LINE
  5
21263
  8
01
 10
2123.988499937559
 20
-639.1536661268949
 30
0.0
 11
2123.9873992603
 21
-639.0833593489408
 31
0.0
  0
LINE
  5
21264
  8
01
 10
2123.9873992603
 20
-639.0833593489408
 30
0.0
 11
2123.988499937559
 21
-639.0130525709867
 31
0.0
  0
LINE
  5
21265
  8
01
 10
2123.988499937559
 20
-639.0130525709867
 30
0.0
 11
2123.991801969338
 21
-638.942780125308
 31
0.0
  0
LINE
  5
21266
  8
01
 10
2123.991801969338
 20
-638.942780125308
 30
0.0
 11
2123.997305355634
 21
-638.8725763441801
 31
0.0
  0
LINE
  5
21267
  8
01
 10
2123.997305355634
 20
-638.8725763441801
 30
0.0
 11
2124.005010096449
 21
-638.8024755598783
 31
0.0
  0
LINE
  5
21268
  8
01
 10
2124.005010096449
 20
-638.8024755598783
 30
0.0
 11
2124.014916191783
 21
-638.7325121046781
 31
0.0
  0
LINE
  5
21269
  8
01
 10
2124.014916191783
 20
-638.7325121046781
 30
0.0
 11
2124.027023641635
 21
-638.6627203108549
 31
0.0
  0
LINE
  5
2126A
  8
01
 10
2124.027023641635
 20
-638.6627203108549
 30
0.0
 11
2124.041332446006
 21
-638.593134510684
 31
0.0
  0
LINE
  5
2126B
  8
01
 10
2124.041332446006
 20
-638.593134510684
 30
0.0
 11
2124.057842604896
 21
-638.5237890364408
 31
0.0
  0
LINE
  5
2126C
  8
01
 10
2124.057842604896
 20
-638.5237890364408
 30
0.0
 11
2124.076554118304
 21
-638.4547182204008
 31
0.0
  0
LINE
  5
2126D
  8
01
 10
2124.076554118304
 20
-638.4547182204008
 30
0.0
 11
2124.097466986231
 21
-638.3859563948392
 31
0.0
  0
LINE
  5
2126E
  8
01
 10
2124.097466986231
 20
-638.3859563948392
 30
0.0
 11
2124.120581208676
 21
-638.3175378920316
 31
0.0
  0
LINE
  5
2126F
  8
01
 10
2124.120581208676
 20
-638.3175378920316
 30
0.0
 11
2124.14589678564
 21
-638.2494970442533
 31
0.0
  0
LINE
  5
21270
  8
01
 10
2124.14589678564
 20
-638.2494970442533
 30
0.0
 11
2124.173413717123
 21
-638.1818681837797
 31
0.0
  0
LINE
  5
21271
  8
01
 10
2124.173413717123
 20
-638.1818681837797
 30
0.0
 11
2124.203132003124
 21
-638.1146856428861
 31
0.0
  0
LINE
  5
21272
  8
01
 10
2124.203132003124
 20
-638.1146856428861
 30
0.0
 11
2124.235051643644
 21
-638.047983753848
 31
0.0
  0
LINE
  5
21273
  8
01
 10
2124.235051643644
 20
-638.047983753848
 30
0.0
 11
2124.269172638682
 21
-637.9817968489408
 31
0.0
  0
LINE
  5
21274
  8
01
 10
2124.269172638682
 20
-637.9817968489408
 30
0.0
 11
2124.305494988239
 21
-637.9161592604398
 31
0.0
  0
LINE
  5
21275
  8
01
 10
2124.305494988239
 20
-637.9161592604398
 30
0.0
 11
2124.344018692315
 21
-637.8511053206205
 31
0.0
  0
LINE
  5
21276
  8
01
 10
2124.344018692315
 20
-637.8511053206205
 30
0.0
 11
2124.384743750909
 21
-637.7866693617582
 31
0.0
  0
LINE
  5
21277
  8
01
 10
2124.384743750909
 20
-637.7866693617582
 30
0.0
 11
2124.427670164022
 21
-637.7228857161283
 31
0.0
  0
LINE
  5
21278
  8
01
 10
2124.427670164022
 20
-637.7228857161283
 30
0.0
 11
2124.472797931654
 21
-637.6597887160062
 31
0.0
  0
LINE
  5
21279
  8
01
 10
2124.472797931654
 20
-637.6597887160062
 30
0.0
 11
2124.520127053804
 21
-637.5974126936674
 31
0.0
  0
LINE
  5
2127A
  8
01
 10
2124.520127053804
 20
-637.5974126936674
 30
0.0
 11
2124.569657530473
 21
-637.5357919813871
 31
0.0
  0
LINE
  5
2127B
  8
01
 10
2124.569657530473
 20
-637.5357919813871
 30
0.0
 11
2124.62138936166
 21
-637.4749609114408
 31
0.0
  0
LINE
  5
2127C
  8
01
 10
2124.62138936166
 20
-637.4749609114408
 30
0.0
 11
2124.675322547366
 21
-637.4149538161039
 31
0.0
  0
LINE
  5
2127D
  8
01
 10
2124.675322547366
 20
-637.4149538161039
 30
0.0
 11
2124.731457087591
 21
-637.3558050276517
 31
0.0
  0
LINE
  5
2127E
  8
01
 10
2124.731457087591
 20
-637.3558050276517
 30
0.0
 11
2124.789792982334
 21
-637.2975488783597
 31
0.0
  0
LINE
  5
2127F
  8
01
 10
2124.789792982334
 20
-637.2975488783597
 30
0.0
 11
2124.850330231596
 21
-637.2402197005033
 31
0.0
  0
LINE
  5
21280
  8
01
 10
2124.850330231596
 20
-637.2402197005033
 30
0.0
 11
2124.913068835376
 21
-637.1838518263578
 31
0.0
  0
LINE
  5
21281
  8
01
 10
2124.913068835376
 20
-637.1838518263578
 30
0.0
 11
2124.978008793675
 21
-637.1284795881986
 31
0.0
  0
LINE
  5
21282
  8
01
 10
2124.978008793675
 20
-637.1284795881986
 30
0.0
 11
2125.045150106493
 21
-637.0741373183012
 31
0.0
  0
LINE
  5
21283
  8
01
 10
2125.045150106493
 20
-637.0741373183012
 30
0.0
 11
2125.114492773829
 21
-637.0208593489408
 31
0.0
  0
LINE
  5
21284
  8
01
 10
2125.114492773829
 20
-637.0208593489408
 30
0.0
 11
2125.186036795684
 21
-636.968680012393
 31
0.0
  0
LINE
  5
21285
  8
01
 10
2125.186036795684
 20
-636.968680012393
 30
0.0
 11
2125.259782172057
 21
-636.917633640933
 31
0.0
  0
LINE
  5
21286
  8
01
 10
2125.259782172057
 20
-636.917633640933
 30
0.0
 11
2125.335728902949
 21
-636.8677545668363
 31
0.0
  0
LINE
  5
21287
  8
01
 10
2125.335728902949
 20
-636.8677545668363
 30
0.0
 11
2125.41387698836
 21
-636.8190771223783
 31
0.0
  0
LINE
  5
21288
  8
01
 10
2125.41387698836
 20
-636.8190771223783
 30
0.0
 11
2125.494226428289
 21
-636.7716356398344
 31
0.0
  0
LINE
  5
21289
  8
01
 10
2125.494226428289
 20
-636.7716356398344
 30
0.0
 11
2125.576777222737
 21
-636.7254644514799
 31
0.0
  0
LINE
  5
2128A
  8
01
 10
2125.576777222737
 20
-636.7254644514799
 30
0.0
 11
2125.661529371703
 21
-636.6805978895902
 31
0.0
  0
LINE
  5
2128B
  8
01
 10
2125.661529371703
 20
-636.6805978895902
 30
0.0
 11
2125.748482875189
 21
-636.6370702864408
 31
0.0
  0
LINE
  5
2128C
  8
01
 10
2125.748482875189
 20
-636.6370702864408
 30
0.0
 11
2125.837637733192
 21
-636.594915974307
 31
0.0
  0
LINE
  5
2128D
  8
01
 10
2125.837637733192
 20
-636.594915974307
 30
0.0
 11
2125.928993945715
 21
-636.5541692854642
 31
0.0
  0
LINE
  5
2128E
  8
01
 10
2125.928993945715
 20
-636.5541692854642
 30
0.0
 11
2126.022551512756
 21
-636.5148645521879
 31
0.0
  0
LINE
  5
2128F
  8
01
 10
2126.022551512756
 20
-636.5148645521879
 30
0.0
 11
2126.118310434315
 21
-636.4770361067533
 31
0.0
  0
LINE
  5
21290
  8
01
 10
2126.118310434315
 20
-636.4770361067533
 30
0.0
 11
2126.216270710393
 21
-636.4407182814359
 31
0.0
  0
LINE
  5
21291
  8
01
 10
2126.216270710393
 20
-636.4407182814359
 30
0.0
 11
2126.31643234099
 21
-636.4059454085111
 31
0.0
  0
LINE
  5
21292
  8
01
 10
2126.31643234099
 20
-636.4059454085111
 30
0.0
 11
2126.418795326105
 21
-636.3727518202543
 31
0.0
  0
LINE
  5
21293
  8
01
 10
2126.418795326105
 20
-636.3727518202543
 30
0.0
 11
2126.523359665739
 21
-636.3411718489408
 31
0.0
  0
LINE
  5
21294
  8
01
 10
2126.523359665739
 20
-636.3411718489408
 30
0.0
 11
2126.630125359892
 21
-636.3112398268461
 31
0.0
  0
LINE
  5
21295
  8
01
 10
2126.630125359892
 20
-636.3112398268461
 30
0.0
 11
2126.739092408563
 21
-636.2829900862455
 31
0.0
  0
LINE
  5
21296
  8
01
 10
2126.739092408563
 20
-636.2829900862455
 30
0.0
 11
2126.850260811753
 21
-636.2564569594144
 31
0.0
  0
LINE
  5
21297
  8
01
 10
2126.850260811753
 20
-636.2564569594144
 30
0.0
 11
2126.963630569462
 21
-636.2316747786283
 31
0.0
  0
LINE
  5
21298
  8
01
 10
2126.963630569462
 20
-636.2316747786283
 30
0.0
 11
2127.079201681689
 21
-636.2086778761625
 31
0.0
  0
LINE
  5
21299
  8
01
 10
2127.079201681689
 20
-636.2086778761625
 30
0.0
 11
2127.196974148434
 21
-636.1875005842924
 31
0.0
  0
LINE
  5
2129A
  8
01
 10
2127.196974148434
 20
-636.1875005842924
 30
0.0
 11
2127.316947969699
 21
-636.1681772352933
 31
0.0
  0
LINE
  5
2129B
  8
01
 10
2127.316947969699
 20
-636.1681772352933
 30
0.0
 11
2127.439123145482
 21
-636.1507421614408
 31
0.0
  0
LINE
  5
2129C
  8
01
 10
2127.439123145482
 20
-636.1507421614408
 30
0.0
 11
2127.690077560603
 21
-636.1216741682767
 31
0.0
  0
LINE
  5
2129D
  8
01
 10
2127.690077560603
 20
-636.1216741682767
 30
0.0
 11
2127.949837393799
 21
-636.1005712630033
 31
0.0
  0
LINE
  5
2129E
  8
01
 10
2127.949837393799
 20
-636.1005712630033
 30
0.0
 11
2128.21840264507
 21
-636.0877081038236
 31
0.0
  0
LINE
  5
2129F
  8
01
 10
2128.21840264507
 20
-636.0877081038236
 30
0.0
 11
2128.495773314415
 21
-636.0833593489408
 31
0.0
  0
LINE
  5
212A0
  8
01
 10
2128.495773314415
 20
-636.0833593489408
 30
0.0
 11
2132.995773312444
 21
-636.0833593489408
 31
0.0
  0
ARC
  5
212A1
  8
01
 10
2132.995773312733
 20
-637.0833593506228
 30
0.0
 40
1.000000001681997
 50
0.0000000963713156
 51
90.00000001654499
  0
LINE
  5
212A2
  8
01
 10
2133.995773314415
 20
-637.0833593489408
 30
0.0
 11
2133.995773314415
 21
-639.0833593489408
 31
0.0
  0
LINE
  5
212A4
  8
01
 10
2133.995773314415
 20
-639.0833593489408
 30
0.0
 11
2223.495773314415
 21
-639.0833593489408
 31
0.0
  0
ARC
  5
212A5
  8
01
 10
2223.495773314414
 20
-639.583359348941
 30
0.0
 40
0.5000000000002274
 50
0.0000000000260551
 51
89.99999999994789
  0
SOLID
  5
215F9
  8
01
 10
561.5799315667435
 20
-683.7308712324107
 30
0.0
 11
561.7372690902707
 21
-681.7093975089106
 31
0.0
 12
562.2440493972586
 22
-683.6726307685005
 32
0.0
 13
562.2440493972586
 23
-683.6726307685005
 33
0.0
1001
ACAD
1000
DSTYLE
1002
{
1070
    45
1040
0.5
1002
}
  0
LINE
  5
215FA
  8
01
 10
561.9119904820011
 20
-683.7017510004556
 30
0.0
 11
575.637511516137
 21
-840.2142964009545
 31
0.0
1001
ACAD
1000
DSTYLE
1002
{
1070
    45
1040
0.5
1002
}
  0
LINE
  5
215FB
  8
01
 10
575.637511516137
 20
-840.2142964009545
 30
0.0
 11
640.0541781828038
 21
-840.2142964009545
 31
0.0
1001
ACAD
1000
DSTYLE
1002
{
1070
    45
1040
0.5
1002
}
  0
TEXT
  5
215FC
  8
01
  6
CONTINUOUS
 10
578.1041781828037
 20
-734.3976297342878
 30
0.0
 40
3.5
  1
\U+6750\U+8CEA\U+306F\U+4EE5\U+4E0B\U+304B\U+3089\U+9078\U+629E
  0
TEXT
  5
215FD
  8
01
  6
CONTINUOUS
 10
578.2208448494704
 20
-740.3476297342878
 30
0.0
 40
3.5
  1
\U+4E9C\U+925B\U+30C0\U+30A4\U+30AD\U+30E3\U+30B9\U+30C8
  0
TEXT
  5
215FE
  8
01
  6
CONTINUOUS
 10
578.1041781828037
 20
-746.1809630676212
 30
0.0
 40
3.5
  1
\U+30B9\U+30C6\U+30F3\U+30EC\U+30B9
  0
TEXT
  5
215FF
  8
01
  6
CONTINUOUS
 10
578.2208448494704
 20
-752.0142964009545
 30
0.0
 40
3.5
  1
\U+771F\U+936E
  0
TEXT
  5
21600
  8
01
  6
CONTINUOUS
 10
578.337511516137
 20
-757.8476297342879
 30
0.0
 40
3.5
  1
ABS\U+6A39\U+8102
  0
TEXT
  5
21601
  8
01
  6
CONTINUOUS
 10
578.2208448494704
 20
-763.6809630676213
 30
0.0
 40
3.5
  1
\U+30DD\U+30EA\U+30D7\U+30ED\U+30D4\U+30EC\U+30F3
  0
TEXT
  5
21602
  8
01
  6
CONTINUOUS
 10
578.2208448494704
 20
-769.5142964009547
 30
0.0
 40
3.5
  1
\U+30DD\U+30EA\U+30A2\U+30BB\U+30BF\U+30FC\U+30EB
  0
TEXT
  5
21603
  8
01
  6
CONTINUOUS
 10
578.2208448494704
 20
-775.347629734288
 30
0.0
 40
3.5
  1
\U+30A2\U+30AF\U+30EA\U+30EB\U+6A39\U+8102
  0
TEXT
  5
21604
  8
01
  6
CONTINUOUS
 10
578.2208448494704
 20
-781.1809630676214
 30
0.0
 40
3.5
  1
\U+30A8\U+30E9\U+30B9\U+30C8\U+30DE\U+30FC
  0
TEXT
  5
21605
  8
01
  6
CONTINUOUS
 10
578.2208448494704
 20
-787.0142964009548
 30
0.0
 40
3.5
  1
\U+30CA\U+30A4\U+30ED\U+30F3
  0
TEXT
  5
21606
  8
01
  6
CONTINUOUS
 10
578.1041781828037
 20
-792.8476297342881
 30
0.0
 40
3.5
  1
\U+5929\U+7136\U+6728\U+FF08\U+30E1\U+30FC\U+30D7\U+30EB/\U+30B1\U+30E4\U+30AD\U+FF09
  0
TEXT
  5
21607
  8
01
  6
CONTINUOUS
 10
578.1041781828037
 20
-798.6809630676215
 30
0.0
 40
3.5
  1
\U+5929\U+7136\U+6728\U+FF08\U+30D3\U+30FC\U+30C1\U+FF09
  0
TEXT
  5
21608
  8
01
  6
CONTINUOUS
 10
578.2208448494704
 20
-804.5142964009549
 30
0.0
 40
3.5
  1
\U+30A2\U+30EB\U+30DF
  0
TEXT
  5
21609
  8
01
  6
CONTINUOUS
 10
578.337511516137
 20
-810.3476297342883
 30
0.0
 40
3.5
  1
PVC
  0
TEXT
  5
2160A
  8
01
  6
CONTINUOUS
 10
578.2208448494704
 20
-816.1809630676216
 30
0.0
 40
3.5
  1
\U+4ED5\U+4E0A\U+3052\U+306F\U+30AB\U+30BF\U+30ED\U+30B0\U+3068\U+540C\U+8868\U+8A18\U+306B\U+3059\U+308B
  0
TEXT
  5
2160B
  8
01
  6
CONTINUOUS
 10
578.337511516137
 20
-822.014296400955
 30
0.0
 40
3.5
  1
\U+8907\U+6570\U+4ED5\U+4E0A\U+3052\U+304C\U+6709\U+308B\U+5834\U+5408\U+3001
  0
TEXT
  5
2160C
  8
01
  6
CONTINUOUS
 10
577.8708448494704
 20
-827.8476297342884
 30
0.0
 40
3.5
  1
\U+30E1\U+30C3\U+30AD\U+4ED5\U+4E0A\U+3052\U+2192\U+5404\U+7A2E\U+30E1\U+30C3\U+30AD
  0
TEXT
  5
2160D
  8
01
  6
CONTINUOUS
 10
577.8708448494704
 20
-833.6809630676217
 30
0.0
 40
3.5
  1
\U+305D\U+306E\U+4ED6\U+4ED5\U+4E0A\U+3052\U+2192\U+5404\U+7A2E\U+4ED5\U+4E0A\U+3052
  0
TEXT
  5
2160E
  8
01
  6
CONTINUOUS
 10
577.637511516137
 20
-839.5142964009551
 30
0.0
 40
3.5
  1
\U+3068\U+8868\U+8A18\U+3059\U+308B\U+3002
  0
TEXT
  5
2160F
  8
01
  6
CONTINUOUS
 10
809.7537571261875
 20
-611.3902613041472
 30
0.0
 40
3.5
  1
PB
  0
TEXT
  5
21610
  8
01
  6
CONTINUOUS
 10
822.8891752713527
 20
-611.3902613041472
 30
0.0
 40
3.5
  1
\U+5408\U+677F9mm\U+4EE5\U+4E0A
  0
TEXT
  5
21611
  8
01
  6
CONTINUOUS
 10
364.1619295444131
 20
-505.0044915991293
 30
0.0
 40
3.5
  1
\U+30B7\U+30A7\U+30EB\U+30D5\U+63A5\U+5730\U+9762
 50
0.0000000000000649
  0
SOLID
  5
21612
  8
01
 10
665.5451697942907
 20
-640.4947681899744
 30
0.0
 11
665.0628907579609
 21
-642.4641635393717
 31
0.0
 12
664.880377841171
 22
-640.444807170051
 32
0.0
 13
664.880377841171
 23
-640.444807170051
 33
0.0
1001
ACAD
1000
DSTYLE
1002
{
1070
    45
1040
0.5
1002
}
  0
LINE
  5
21613
  8
01
 10
665.2127738177309
 20
-640.4697876800127
 30
0.0
 11
665.9807324376102
 21
-630.2511670111762
 31
0.0
1001
ACAD
1000
DSTYLE
1002
{
1070
    45
1040
0.5
1002
}
  0
LINE
  5
21614
  8
01
 10
665.9807324376102
 20
-630.2511670111762
 30
0.0
 11
688.5140657709435
 21
-630.2511670111762
 31
0.0
1001
ACAD
1000
DSTYLE
1002
{
1070
    45
1040
0.5
1002
}
  0
TEXT
  5
21615
  8
01
  6
CONTINUOUS
 10
668.2140657709435
 20
-629.5511670111762
 30
0.0
 40
3.5
  1
\U+30B7\U+30A7\U+30EB\U+30D5\U+539A
  0
LINE
  5
21616
  8
01
 10
21.56877635351702
 20
-655.8213303512663
 30
0.0
 11
7.622111059233232
 21
-655.8213303512663
 31
0.0
1001
ACAD
1000
DSTYLE
1002
{
1070
    45
1040
0.5
1002
}
  0
LINE
  5
21617
  8
01
 10
21.56877635351703
 20
-505.8213303512663
 30
0.0
 11
7.622111059233266
 21
-505.8213303512663
 31
0.0
1001
ACAD
1000
DSTYLE
1002
{
1070
    45
1040
0.5
1002
}
  0
LINE
  5
21618
  8
01
 10
8.622111059233232
 20
-653.8213303512663
 30
0.0
 11
8.622111059233266
 21
-507.8213303512663
 31
0.0
1001
ACAD
1000
DSTYLE
1002
{
1070
    45
1040
0.5
1002
}
  0
TEXT
  5
2161C
  8
01
  6
CONTINUOUS
 10
368.2452628777464
 20
-655.0044915991293
 30
0.0
 40
3.5
  1
\U+30AC\U+30E9\U+30B9\U+4E2D\U+5FC3\U+7DDA
 50
0.0000000000000649
  0
TEXT
  5
2161D
  8
01
  6
CONTINUOUS
 10
642.2197738061868
 20
-592.7642992393401
 30
0.0
 40
3.5
  1
\U+53F3\U+7AEF\U+9762\U+4F4D\U+7F6E
 50
89.99999999999999
  0
SOLID
  5
2161E
  8
01
 10
774.2515258507484
 20
-702.7722678521711
 30
0.0
 11
773.0068867908294
 21
-701.171647746826
 31
0.0
 12
774.7033680978918
 22
-702.2820811243408
 32
0.0
 13
774.7033680978918
 23
-702.2820811243408
 33
0.0
1001
ACAD
1000
DSTYLE
1002
{
1070
    45
1040
0.5
1002
}
  0
LINE
  5
2161F
  8
01
 10
774.4774469743202
 20
-702.527174488256
 30
0.0
 11
801.6127480102167
 21
-727.5398374202813
 31
0.0
1001
ACAD
1000
DSTYLE
1002
{
1070
    45
1040
0.5
1002
}
  0
LINE
  5
21620
  8
01
 10
801.6127480102167
 20
-727.5398374202813
 30
0.0
 11
832.7794146768833
 21
-727.5398374202813
 31
0.0
1001
ACAD
1000
DSTYLE
1002
{
1070
    45
1040
0.5
1002
}
  0
TEXT
  5
21621
  8
01
  6
CONTINUOUS
 10
804.1960813435501
 20
-726.8398374202812
 30
0.0
 40
3.5
  1
\U+30D6\U+30E9\U+30B1\U+30C3\U+30C8\U+5168\U+9577
  0
SOLID
  5
21622
  8
01
 10
843.4589027427699
 20
-637.5579303795413
 30
0.0
 11
841.763387521823
 21
-638.669838310374
 31
0.0
 12
843.0066344829892
 22
-637.0681366825224
 32
0.0
 13
843.0066344829892
 23
-637.0681366825224
 33
0.0
1001
ACAD
1000
DSTYLE
1002
{
1070
    45
1040
0.5
1002
}
  0
LINE
  5
21623
  8
01
 10
843.2327686128796
 20
-637.3130335310319
 30
0.0
 11
852.3610193230066
 21
-628.8841417575388
 31
0.0
1001
ACAD
1000
DSTYLE
1002
{
1070
    45
1040
0.5
1002
}
  0
LINE
  5
21624
  8
01
 10
852.3610193230066
 20
-628.8841417575388
 30
0.0
 11
883.1776859896734
 21
-628.8841417575388
 31
0.0
1001
ACAD
1000
DSTYLE
1002
{
1070
    45
1040
0.5
1002
}
  0
TEXT
  5
21625
  8
01
  6
CONTINUOUS
 10
855.0610193230067
 20
-622.2341417575387
 30
0.0
 40
3.5
  1
\U+4E0A\U+9762\U+304B\U+3089
  0
TEXT
  5
21626
  8
01
  6
CONTINUOUS
 10
854.7110193230067
 20
-628.1841417575388
 30
0.0
 40
3.5
  1
\U+30CD\U+30B8\U+307E\U+3067\U+306E\U+4F4D\U+7F6E
  0
SOLID
  5
21627
  8
01
 10
854.941292135519
 20
-649.0403197722904
 30
0.0
 11
853.2457769145722
 21
-650.1522277031231
 31
0.0
 12
854.4890238757383
 22
-648.5505260752716
 32
0.0
 13
854.4890238757383
 23
-648.5505260752716
 33
0.0
1001
ACAD
1000
DSTYLE
1002
{
1070
    45
1040
0.5
1002
}
  0
LINE
  5
21628
  8
01
 10
854.7151580056287
 20
-648.7954229237811
 30
0.0
 11
863.8434087157558
 21
-640.366531150288
 31
0.0
1001
ACAD
1000
DSTYLE
1002
{
1070
    45
1040
0.5
1002
}
  0
LINE
  5
21629
  8
01
 10
863.8434087157558
 20
-640.366531150288
 30
0.0
 11
874.0100753824224
 21
-640.366531150288
 31
0.0
1001
ACAD
1000
DSTYLE
1002
{
1070
    45
1040
0.5
1002
}
  0
TEXT
  5
2162A
  8
01
  6
CONTINUOUS
 10
866.4267420490892
 20
-639.6665311502879
 30
0.0
 40
3.5
  1
\U+5168\U+9577
  0
SOLID
  5
2162B
  8
01
 10
802.872807199437
 20
-652.7857474902278
 30
0.0
 11
801.0386410972785
 21
-653.6500077639902
 31
0.0
 12
802.4933624564785
 22
-652.2375995800014
 32
0.0
 13
802.4933624564785
 23
-652.2375995800014
 33
0.0
1001
ACAD
1000
DSTYLE
1002
{
1070
    45
1040
0.5
1002
}
  0
LINE
  5
2162C
  8
01
 10
802.6830848279577
 20
-652.5116735351146
 30
0.0
 11
862.3465809818559
 21
-611.2107772993294
 31
0.0
1001
ACAD
1000
DSTYLE
1002
{
1070
    45
1040
0.5
1002
}
  0
LINE
  5
2162D
  8
01
 10
862.3465809818559
 20
-611.2107772993294
 30
0.0
 11
905.6465809818559
 21
-611.2107772993294
 31
0.0
1001
ACAD
1000
DSTYLE
1002
{
1070
    45
1040
0.5
1002
}
  0
TEXT
  5
2162E
  8
01
  6
CONTINUOUS
 10
864.4632476485226
 20
-598.6107772993294
 30
0.0
 40
3.5
  1
\U+30B3\U+30CD\U+30AF\U+30BF\U+30FC\U+304C\U+3042\U+308B\U+5834\U+5408
  0
TEXT
  5
2162F
  8
01
  6
CONTINUOUS
 10
864.4632476485226
 20
-604.5607772993294
 30
0.0
 40
3.5
  1
\U+30B3\U+30CD\U+30AF\U+30BF\U+30FC\U+306E\U+5916\U+5F62\U+3092
  0
TEXT
  5
21630
  8
01
  6
CONTINUOUS
 10
863.8799143151894
 20
-610.5107772993294
 30
0.0
 40
3.5
  1
\U+FF12\U+70B9\U+9396\U+7DDA\U+3067\U+63CF\U+304F
  0
SOLID
  5
21631
  8
01
 10
634.4692558331147
 20
-652.0702685284613
 30
0.0
 11
633.1982188317486
 21
-653.6500077639902
 31
0.0
 12
633.8882032701666
 22
-651.7434316218306
 32
0.0
 13
633.8882032701666
 23
-651.7434316218306
 33
0.0
1001
ACAD
1000
DSTYLE
1002
{
1070
    45
1040
0.5
1002
}
  0
LINE
  5
21632
  8
01
 10
634.1787295516407
 20
-651.9068500751459
 30
0.0
 11
655.3933848352533
 21
-614.1913119136887
 31
0.0
1001
ACAD
1000
DSTYLE
1002
{
1070
    45
1040
0.5
1002
}
  0
LINE
  5
21633
  8
01
 10
655.3933848352533
 20
-614.1913119136887
 30
0.0
 11
698.6933848352533
 21
-614.1913119136887
 31
0.0
1001
ACAD
1000
DSTYLE
1002
{
1070
    45
1040
0.5
1002
}
  0
TEXT
  5
21634
  8
01
  6
CONTINUOUS
 10
657.51005150192
 20
-601.5913119136886
 30
0.0
 40
3.5
  1
\U+30B3\U+30CD\U+30AF\U+30BF\U+30FC\U+304C\U+3042\U+308B\U+5834\U+5408
  0
TEXT
  5
21635
  8
01
  6
CONTINUOUS
 10
657.51005150192
 20
-607.5413119136887
 30
0.0
 40
3.5
  1
\U+30B3\U+30CD\U+30AF\U+30BF\U+30FC\U+306E\U+5916\U+5F62\U+3092
  0
TEXT
  5
21636
  8
01
  6
CONTINUOUS
 10
656.9267181685867
 20
-613.4913119136887
 30
0.0
 40
3.5
  1
\U+FF12\U+70B9\U+9396\U+7DDA\U+3067\U+63CF\U+304F
  0
SOLID
  5
21637
  8
01
 10
623.5375770436858
 20
-651.9888132784419
 30
0.0
 11
622.3750178011976
 21
-653.6500077639902
 31
0.0
 12
622.9359702244546
 22
-651.7015613341509
 32
0.0
 13
622.9359702244546
 23
-651.7015613341509
 33
0.0
1001
ACAD
1000
DSTYLE
1002
{
1070
    45
1040
0.5
1002
}
  0
LINE
  5
21638
  8
01
 10
623.2367736340702
 20
-651.8451873062963
 30
0.0
 11
655.3933848352533
 21
-584.4979091886232
 31
0.0
1001
ACAD
1000
DSTYLE
1002
{
1070
    45
1040
0.5
1002
}
  0
LINE
  5
21639
  8
01
 10
655.3933848352533
 20
-584.4979091886232
 30
0.0
 11
703.71005150192
 21
-584.4979091886232
 31
0.0
1001
ACAD
1000
DSTYLE
1002
{
1070
    45
1040
0.5
1002
}
  0
TEXT
  5
2163A
  8
01
  6
CONTINUOUS
 10
658.0933848352533
 20
-577.9645758552898
 30
0.0
 40
3.5
  1
\U+58C1\U+9762\U+53D6\U+308A\U+4ED8\U+3051\U+30CD\U+30B8\U+7A74\U+53CA\U+3073
  0
TEXT
  5
2163B
  8
01
  6
CONTINUOUS
 10
657.7433848352533
 20
-583.7979091886232
 30
0.0
 40
3.5
  1
\U+30CD\U+30B8\U+7A74\U+4E2D\U+5FC3\U+7DDA\U+3092\U+63CF\U+304F
  0
SOLID
  5
2163C
  8
01
 10
631.731846861265
 20
-505.7131184260274
 30
0.0
 11
630.0648858424355
 21
-506.8673939879337
 31
0.0
 12
631.2673812185478
 22
-505.2348756935371
 32
0.0
 13
631.2673812185478
 23
-505.2348756935371
 33
0.0
1001
ACAD
1000
DSTYLE
1002
{
1070
    45
1040
0.5
1002
}
  0
LINE
  5
2163D
  8
01
 10
631.4996140399064
 20
-505.4739970597823
 30
0.0
 11
655.3933848352533
 21
-482.2685516751582
 31
0.0
1001
ACAD
1000
DSTYLE
1002
{
1070
    45
1040
0.5
1002
}
  0
LINE
  5
2163E
  8
01
 10
655.3933848352533
 20
-482.2685516751582
 30
0.0
 11
698.6933848352533
 21
-482.2685516751582
 31
0.0
1001
ACAD
1000
DSTYLE
1002
{
1070
    45
1040
0.5
1002
}
  0
TEXT
  5
2163F
  8
01
  6
CONTINUOUS
 10
657.51005150192
 20
-469.6685516751583
 30
0.0
 40
3.5
  1
\U+30B3\U+30CD\U+30AF\U+30BF\U+30FC\U+304C\U+3042\U+308B\U+5834\U+5408
  0
TEXT
  5
21640
  8
01
  6
CONTINUOUS
 10
657.51005150192
 20
-475.6185516751582
 30
0.0
 40
3.5
  1
\U+30B3\U+30CD\U+30AF\U+30BF\U+30FC\U+306E\U+5916\U+5F62\U+3092
  0
TEXT
  5
21641
  8
01
  6
CONTINUOUS
 10
656.9267181685867
 20
-481.5685516751582
 30
0.0
 40
3.5
  1
\U+FF12\U+70B9\U+9396\U+7DDA\U+3067\U+63CF\U+304F
  0
TEXT
  5
21642
  8
01
  6
CONTINUOUS
 10
174.8688181859245
 20
-784.2079036232041
 30
0.0
 40
7.0
  1
\U+25CF\U+624B\U+9806\U+30EA\U+30B9\U+30C8\U+25CF
  0
TEXT
  5
21643
  8
01
  6
CONTINUOUS
 10
173.9354848525912
 20
-795.8745702898707
 30
0.0
 40
7.0
  1
\U+203B\U+30D5\U+30A1\U+30A4\U+30EB\U+540DXX4\U+306B\U+54C1\U+756A\U+3092\U+5165\U+308C\U+3066\U+304F\U+3060\U+3055\U+3044\U+3002
  0
TEXT
  5
21644
  8
01
  6
CONTINUOUS
 10
173.9354848525912
 20
-807.7745702898707
 30
0.0
 40
7.0
  1
\U+203B\U+4E88\U+3081\U+7528\U+610F\U+3055\U+308C\U+3066\U+3044\U+308B\U+5BF8\U+6CD5\U+7DDA\U+4EE5\U+5916\U+4F7F\U+7528\U+3057\U+306A\U+3044\U+3067\U+304F\U+3060\U+3055\U+3044\U+3002
  0
TEXT
  5
21645
  8
01
  6
CONTINUOUS
 10
175.1021515192579
 20
-819.4412369565373
 30
0.0
 40
7.0
  1
\U+3000\U+3000\U+5BF8\U+6CD5\U+7DDA\U+306E\U+4ED8\U+8DB3\U+3057\U+3001\U+524A\U+9664\U+304C\U+5FC5\U+8981\U+306A\U+5F62\U+72B6\U+306E\U+5834\U+5408\U+306F\U+627F\U+8A8D\U+56F3\U+7BA1\U+7406\U+8005\U+306B\U+76F8\U+8AC7\U+3057\U+3066\U+304F\U+3060\U+3055\U+3044\U+3002
  0
TEXT
  5
21646
  8
01
  6
CONTINUOUS
 10
174.8641515192579
 20
-832.654903623204
 30
0.0
 40
7.0
  1
\U+2460
  0
TEXT
  5
21647
  8
01
  6
CONTINUOUS
 10
185.0421515192579
 20
-832.654903623204
 30
0.0
 40
7.0
  1
\U+6B63\U+9762\U+56F3\U+3001\U+5074\U+9762\U+56F3\U+3001\U+4E0A\U+9762\U+56F3\U+3092\U+8A2D\U+7F6E\U+3057\U+3066\U+304F\U+3060\U+3055\U+3044\U+3002
  0
TEXT
  5
21648
  8
01
  6
CONTINUOUS
 10
174.8641515192579
 20
-845.8685702898706
 30
0.0
 40
7.0
  1
\U+2461
  0
TEXT
  5
21649
  8
01
  6
CONTINUOUS
 10
185.0421515192579
 20
-845.8685702898706
 30
0.0
 40
7.0
  1
\U+5BF8\U+6CD5\U+7DDA\U+3092\U+9069\U+5207\U+306A\U+4F4D\U+7F6E\U+306B\U+79FB\U+52D5\U+3057\U+3066\U+304F\U+3060\U+3055\U+3044\U+3002
  0
TEXT
  5
2164A
  8
01
  6
CONTINUOUS
 10
174.8641515192579
 20
-859.0822369565373
 30
0.0
 40
7.0
  1
\U+2462
  0
TEXT
  5
2164B
  8
01
  6
CONTINUOUS
 10
185.0421515192579
 20
-859.0822369565373
 30
0.0
 40
7.0
  1
\U+6750\U+8CEA\U+3001\U+4ED5\U+4E0A\U+3052\U+3092\U+8A18\U+5165\U+3057\U+3066\U+304F\U+3060\U+3055\U+3044\U+3002
  0
TEXT
  5
2164C
  8
01
  6
CONTINUOUS
 10
174.8641515192579
 20
-872.2959036232039
 30
0.0
 40
7.0
  1
\U+2463
  0
TEXT
  5
2164D
  8
01
  6
CONTINUOUS
 10
185.0421515192579
 20
-872.2959036232039
 30
0.0
 40
7.0
  1
\U+54C1\U+756A\U+3092\U+5165\U+529B\U+3057\U+3066\U+304F\U+3060\U+3055\U+3044\U+3002
  0
TEXT
  5
2164E
  8
01
  6
CONTINUOUS
 10
174.8641515192579
 20
-885.5095702898706
 30
0.0
 40
7.0
  1
\U+2464
  0
TEXT
  5
2164F
  8
01
  6
CONTINUOUS
 10
185.0421515192579
 20
-885.5095702898706
 30
0.0
 40
7.0
  1
\U+9752\U+6587\U+5B57\U+3001\U+4E0D\U+5FC5\U+8981\U+306A\U+30B3\U+30FC\U+30C9\U+8868\U+3001\U+4ED5\U+4E0A\U+3052\U+3092\U+6D88\U+3057\U+3066\U+304F\U+3060\U+3055\U+3044\U+3002
  0
TEXT
  5
21650
  8
01
  6
CONTINUOUS
 10
174.8641515192579
 20
-898.7232369565372
 30
0.0
 40
7.0
  1
\U+2465
  0
TEXT
  5
21651
  8
01
  6
CONTINUOUS
 10
185.0421515192579
 20
-898.7232369565372
 30
0.0
 40
7.0
  1
\U+624B\U+9806\U+30EA\U+30B9\U+30C8\U+3092\U+524A\U+9664\U+2192\U+30BA\U+30FC\U+30E0\U+2192\U+30DA\U+30FC\U+30D1\U+30FC\U+7A7A\U+9593\U+2192\U+4FDD\U+5B58\U+3067\U+7D42\U+4E86\U+3067\U+3059\U+3002
  0
SOLID
  5
21652
  8
01
 10
624.405630701517
 20
-463.9353203863126
 30
0.0
 11
623.097104431105
 21
-465.4841490116785
 31
0.0
 12
623.832576754349
 22
-463.5946539540366
 32
0.0
 13
623.832576754349
 23
-463.5946539540366
 33
0.0
  0
LINE
  5
21653
  8
01
 10
624.119103727933
 20
-463.7649871701746
 30
0.0
 11
627.8183805368442
 21
-457.5422279659571
 31
0.0
  0
LINE
  5
21654
  8
01
 10
627.8183805368442
 20
-457.5422279659571
 30
0.0
 11
676.9383805368442
 21
-457.5422279659571
 31
0.0
  0
TEXT
  5
21655
  8
01
  6
CONTINUOUS
 10
630.4017138701776
 20
-444.0040335215126
 30
0.0
 40
3.5
  1
\U+30D6\U+30E9\U+30B1\U+30C3\U+30C8
  0
TEXT
  5
21656
  8
01
  6
CONTINUOUS
 10
630.4017138701776
 20
-449.8373668548459
 30
0.0
 40
3.5
  1
\U+63A5\U+5730\U+5BF8\U+6CD5
  0
TEXT
  5
21657
  8
01
  6
CONTINUOUS
 10
630.5183805368442
 20
-455.6707001881792
 30
0.0
 40
3.5
  1
Bracket grounding dimensions
 41
0.6
  0
SOLID
  5
21658
  8
01
 10
729.1055692900914
 20
-582.3944857257686
 30
0.0
 11
727.1054837283073
 21
-582.0616661700723
 31
0.0
 12
729.1053980345451
 22
-581.7278190810983
 32
0.0
 13
729.1053980345451
 23
-581.7278190810983
 33
0.0
1001
ACAD
1000
DSTYLE
1002
{
1070
    45
1040
0.5
1002
}
  0
LINE
  5
21659
  8
01
 10
729.1054836623182
 20
-582.0611524034335
 30
0.0
 11
857.5009975248248
 21
-582.0281697365505
 31
0.0
1001
ACAD
1000
DSTYLE
1002
{
1070
    45
1040
0.5
1002
}
  0
LINE
  5
2165A
  8
01
 10
857.5009975248248
 20
-582.0281697365505
 30
0.0
 11
938.8176641914915
 21
-582.0281697365505
 31
0.0
1001
ACAD
1000
DSTYLE
1002
{
1070
    45
1040
0.5
1002
}
  0
TEXT
  5
2165B
  8
01
  6
CONTINUOUS
 10
939.0933361942032
 20
-575.355355914288
 30
0.0
 40
3.5
  1
\U+811A\U+90E8\U+3068\U+63E1\U+308A\U+3067\U+4ED5\U+4E0A\U+3052\U+304C\U+7570\U+306A\U+308B\U+5834\U+5408\U+306F
  0
TEXT
  5
2165C
  8
01
  6
CONTINUOUS
 10
939.0933361942032
 20
-581.305355914288
 30
0.0
 40
3.5
  1
\U+5DE6\U+306E\U+8868\U+3092\U+524A\U+9664\U+3057\U+5DE6\U+306E\U+8868\U+3092\U+3053\U+306E\U+7DDA\U+306B\U+3042\U+308F\U+305B\U+308B\U+3002
  0
SOLID
  5
2165D
  8
01
 10
974.1339031203825
 20
-607.3435209235527
 30
0.0
 11
973.7383678437398
 21
-605.3548874842174
 31
0.0
 12
974.7574850316997
 22
-607.1077455127855
 32
0.0
 13
974.7574850316997
 23
-607.1077455127855
 33
0.0
1001
ACAD
1000
DSTYLE
1002
{
1070
    45
1040
0.5
1002
}
  0
LINE
  5
2165E
  8
01
 10
974.4456940760411
 20
-607.2256332181692
 30
0.0
 11
981.5879392696656
 21
-626.1155373623111
 31
0.0
1001
ACAD
1000
DSTYLE
1002
{
1070
    45
1040
0.5
1002
}
  0
LINE
  5
2165F
  8
01
 10
981.5879392696656
 20
-626.1155373623111
 30
0.0
 11
1046.471272602999
 21
-626.1155373623111
 31
0.0
1001
ACAD
1000
DSTYLE
1002
{
1070
    45
1040
0.5
1002
}
  0
TEXT
  5
21660
  8
01
  6
CONTINUOUS
 10
984.2879392696657
 20
-613.7488706956444
 30
0.0
 40
3.5
  1
\U+811A\U+90E8\U+3068\U+63E1\U+308A\U+3067\U+4ED5\U+4E0A\U+3052\U+304C\U+7570\U+306A\U+308B\U+5834\U+5408
  0
TEXT
  5
21661
  8
01
  6
CONTINUOUS
 10
984.171272602999
 20
-619.5822040289778
 30
0.0
 40
3.5
  1
\U+8868\U+9762\U+51E6\U+7406\U+3092\U+5206\U+3051\U+3066\U+8A18\U+8F09\U+3059\U+308B\U+3002
  0
TEXT
  5
21662
  8
01
  6
CONTINUOUS
 10
984.2879392696657
 20
-625.4155373623112
 30
0.0
 40
3.5
  1
\U+4F7F\U+7528\U+3057\U+306A\U+3044\U+5834\U+5408\U+306F\U+524A\U+9664\U+3059\U+308B\U+3002
  0
SOLID
  5
21663
  8
01
 10
743.6218791910751
 20
-723.3767385664963
 30
0.0
 11
742.7675739982941
 21
-721.5379145540637
 31
0.0
 12
744.1720758873894
 22
-723.000270719517
 32
0.0
 13
744.1720758873894
 23
-723.000270719517
 33
0.0
1001
ACAD
1000
DSTYLE
1002
{
1070
    45
1040
0.5
1002
}
  0
LINE
  5
21664
  8
01
 10
743.8969775392322
 20
-723.1885046430066
 30
0.0
 11
757.0317664515463
 21
-742.3846126886879
 31
0.0
1001
ACAD
1000
DSTYLE
1002
{
1070
    45
1040
0.5
1002
}
  0
LINE
  5
21665
  8
01
 10
757.0317664515463
 20
-742.3846126886879
 30
0.0
 11
767.198433118213
 21
-742.3846126886879
 31
0.0
1001
ACAD
1000
DSTYLE
1002
{
1070
    45
1040
0.5
1002
}
  0
TEXT
  5
21666
  8
01
  6
CONTINUOUS
 10
759.6150997848797
 20
-741.6846126886878
 30
0.0
 40
3.5
  1
\U+5168\U+9577
  0
SOLID
  5
21667
  8
01
 10
743.8018975125354
 20
-712.3991001932106
 30
0.0
 11
742.4572653008781
 21
-710.88151153798
 31
0.0
 12
744.2214056054936
 22
-711.8809714404985
 32
0.0
 13
744.2214056054936
 23
-711.8809714404985
 33
0.0
1001
ACAD
1000
DSTYLE
1002
{
1070
    45
1040
0.5
1002
}
  0
LINE
  5
21668
  8
01
 10
744.0116515590146
 20
-712.1400358168545
 30
0.0
 11
783.049884734912
 21
-743.7477292064849
 31
0.0
1001
ACAD
1000
DSTYLE
1002
{
1070
    45
1040
0.5
1002
}
  0
LINE
  5
21669
  8
01
 10
783.049884734912
 20
-743.7477292064849
 30
0.0
 11
818.5332180682453
 21
-743.7477292064849
 31
0.0
1001
ACAD
1000
DSTYLE
1002
{
1070
    45
1040
0.5
1002
}
  0
TEXT
  5
2166A
  8
01
  6
CONTINUOUS
 10
785.2832180682453
 20
-737.2143958731515
 30
0.0
 40
3.5
  1
\U+30B7\U+30A7\U+30EB\U+30D5\U+90E8\U+5168\U+9577
  0
TEXT
  5
2166B
  8
01
  6
CONTINUOUS
 10
785.6332180682454
 20
-743.0477292064849
 30
0.0
 40
3.5
  1
\U+4E0D\U+8981\U+306A\U+5834\U+5408\U+306F\U+524A\U+9664
  0
TEXT
  5
2166C
  8
01
  6
CONTINUOUS
 10
705.6085081792015
 20
-469.8873016751583
 30
0.0
 40
3.5
  1
If you have a connector
 41
0.5
  0
TEXT
  5
2166D
  8
01
  6
CONTINUOUS
 10
705.6085081792015
 20
-475.7206350084916
 30
0.0
 40
3.5
  1
Draw the outline of the connector
 41
0.5
  0
TEXT
  5
2166E
  8
01
  6
CONTINUOUS
 10
705.6085081792015
 20
-481.5539683418249
 30
0.0
 40
3.5
  1
as a double-dotted line
 41
0.5
  0
TEXT
  5
2166F
  8
01
  6
CONTINUOUS
 10
360.600355470339
 20
-498.441785688355
 30
0.0
 40
3.5
  1
Shelf ground surface
 50
0.0000000000000649
 41
0.5
  0
TEXT
  5
21670
  8
01
  6
CONTINUOUS
 10
658.0933848352533
 20
-565.2142054178133
 30
0.0
 40
3.5
  1
Wall mounting screw holes and
 41
0.6
  0
TEXT
  5
21671
  8
01
  6
CONTINUOUS
 10
658.0933848352533
 20
-571.0475387511467
 30
0.0
 40
3.5
  1
Draw a threaded hole centerline.
 41
0.6
  0
TEXT
  5
21672
  8
01
  6
CONTINUOUS
 10
939.0933361942032
 20
-567.3980410323672
 30
0.0
 40
3.5
  1
I
  0
TEXT
  5
21673
  8
01
  6
CONTINUOUS
 10
941.4266695275365
 20
-567.3980410323672
 30
0.0
 40
3.5
  1
f the finish is different between the legs and the grip, delete the table on the left and align the table on the left with this line.
 41
0.5
  0
TEXT
  5
21674
  8
01
  6
CONTINUOUS
 10
984.2879392696657
 20
-633.9830074848325
 30
0.0
 40
3.5
  1
If different finishes are used for the legs and the grip, the surface treatment is listed separately.
 41
0.5
  0
TEXT
  5
21675
  8
01
  6
CONTINUOUS
 10
984.2879392696657
 20
-639.8163408181658
 30
0.0
 40
3.5
  1
If not used, delete it.
 41
0.5
  0
TEXT
  5
21676
  8
01
  6
CONTINUOUS
 10
705.6085081792015
 20
-600.9637140560061
 30
0.0
 40
3.5
  1
If you have a connector
 41
0.5
  0
TEXT
  5
21677
  8
01
  6
CONTINUOUS
 10
705.6085081792015
 20
-606.7970473893395
 30
0.0
 40
3.5
  1
Draw the outline of the connector
 41
0.5
  0
TEXT
  5
21678
  8
01
  6
CONTINUOUS
 10
705.6085081792015
 20
-612.6303807226728
 30
0.0
 40
3.5
  1
as a double-dotted line
 41
0.5
  0
TEXT
  5
21679
  8
01
  6
CONTINUOUS
 10
864.8701003258955
 20
-579.7274217428458
 30
0.0
 40
3.5
  1
If you have a connector
 41
0.5
  0
TEXT
  5
2167A
  8
01
  6
CONTINUOUS
 10
864.8701003258955
 20
-585.5607550761791
 30
0.0
 40
3.5
  1
Draw the outline of the connector
 41
0.5
  0
TEXT
  5
2167B
  8
01
  6
CONTINUOUS
 10
864.8701003258955
 20
-591.3940884095125
 30
0.0
 40
3.5
  1
as a double-dotted line
 41
0.5
  0
TEXT
  5
2167C
  8
01
  6
CONTINUOUS
 10
822.548402446938
 20
-737.1471224343147
 30
0.0
 40
3.5
  1
Shelf Length
 41
0.5
  0
TEXT
  5
2167D
  8
01
  6
CONTINUOUS
 10
822.548402446938
 20
-742.9804557676481
 30
0.0
 40
3.5
  1
Delete if unnecessary.
 41
0.5
  0
TEXT
  5
2167E
  8
01
  6
CONTINUOUS
 10
635.8420883382444
 20
-598.6810816467475
 30
0.0
 40
3.5
  1
Right end position
 50
89.99999999999999
 41
0.5
  0
TEXT
  5
2167F
  8
01
  6
CONTINUOUS
 10
368.9379712110797
 20
-648.7690684726049
 30
0.0
 40
3.5
  1
Glass centerline
 50
0.0000000000000649
 41
0.5
  0
TEXT
  5
21680
  8
01
  6
CONTINUOUS
 10
175.1021515192579
 20
-943.9586923028371
 30
0.0
 40
7.0
  1
Procedure list
  0
TEXT
  5
21681
  8
01
  6
CONTINUOUS
 10
175.0924292970356
 20
-955.635081191726
 30
0.0
 40
7.0
  1
*Please put the part number in the file name XX4.
  0
TEXT
  5
21682
  8
01
  6
CONTINUOUS
 10
175.0924292970356
 20
-967.311470080615
 30
0.0
 40
7.0
  1
*Do not use dimension lines other than those that have been prepared in advance.
  0
TEXT
  5
21683
  8
01
  6
CONTINUOUS
 10
175.1021515192579
 20
-978.9781367472816
 30
0.0
 40
7.0
  1
\U+3000\U+3000When adding or deleting dimension lines or shapes that need to be deleted, consult with the drawing administrator.
  0
TEXT
  5
21684
  8
01
  6
CONTINUOUS
 10
175.1021515192579
 20
-990.6448034139482
 30
0.0
 40
7.0
  1
In case it is necessary to add or delete dimension lines, consult the person in charge of the approval drawing.
  0
TEXT
  5
21685
  8
01
  6
CONTINUOUS
 10
175.1021515192579
 20
-1013.978136747281
 30
0.0
 40
7.0
  1
(1) Install the front, side and top views.
  0
TEXT
  5
21686
  8
01
  6
CONTINUOUS
 10
175.1021515192579
 20
-1025.644803413948
 30
0.0
 40
7.0
  1
(2) Move the dimension line to the appropriate location.
  0
TEXT
  5
21687
  8
01
  6
CONTINUOUS
 10
175.1021515192579
 20
-1037.311470080615
 30
0.0
 40
7.0
  1
(3) Please fill in the material and finish.
  0
TEXT
  5
21688
  8
01
  6
CONTINUOUS
 10
175.1021515192579
 20
-1048.978136747282
 30
0.0
 40
7.0
  1
(4) Enter the part number.
  0
TEXT
  5
21689
  8
01
  6
CONTINUOUS
 10
175.1021515192579
 20
-1060.654525636171
 30
0.0
 40
7.0
  1
(5) Cross out the blue text, unnecessary code list, and finish.
  0
TEXT
  5
2168A
  8
01
  6
CONTINUOUS
 10
175.1021515192579
 20
-1072.321192302837
 30
0.0
 40
7.0
  1
(6) Delete the procedure list \U+2192 Zoom \U+2192 Paper space \U+2192 Save to finish.
  0
TEXT
  5
2168B
  8
01
  6
CONTINUOUS
 10
649.3103398914951
 20
-728.8160077983238
 30
0.0
 40
3.5
  1
Material is choosen ffrom below
 41
0.6
  0
TEXT
  5
2168C
  8
01
  6
CONTINUOUS
 10
649.3103398914951
 20
-734.6493411316571
 30
0.0
 40
3.5
  1
Zinc-diecasting
 41
0.6
  0
TEXT
  5
2168D
  8
01
  6
CONTINUOUS
 10
649.3103398914951
 20
-740.4826744649905
 30
0.0
 40
3.5
  1
Stainless steel
 41
0.6
  0
TEXT
  5
2168E
  8
01
  6
CONTINUOUS
 10
649.3103398914951
 20
-746.3160077983239
 30
0.0
 40
3.5
  1
Brass
 41
0.6
  0
TEXT
  5
2168F
  8
01
  6
CONTINUOUS
 10
649.3103398914951
 20
-752.1493411316573
 30
0.0
 40
3.5
  1
ABS
 41
0.6
  0
TEXT
  5
21690
  8
01
  6
CONTINUOUS
 10
649.3103398914951
 20
-757.9826744649906
 30
0.0
 40
3.5
  1
PP
 41
0.6
  0
TEXT
  5
21691
  8
01
  6
CONTINUOUS
 10
649.3103398914951
 20
-763.816007798324
 30
0.0
 40
3.5
  1
POM
 41
0.6
  0
TEXT
  5
21692
  8
01
  6
CONTINUOUS
 10
649.3103398914951
 20
-769.6493411316574
 30
0.0
 40
3.5
  1
PMMA
 41
0.6
  0
TEXT
  5
21693
  8
01
  6
CONTINUOUS
 10
649.3103398914951
 20
-775.4826744649907
 30
0.0
 40
3.5
  1
TPE
 41
0.6
  0
TEXT
  5
21694
  8
01
  6
CONTINUOUS
 10
649.3103398914951
 20
-781.3160077983241
 30
0.0
 40
3.5
  1
Nylon
 41
0.6
  0
TEXT
  5
21695
  8
01
  6
CONTINUOUS
 10
649.3103398914951
 20
-787.1493411316575
 30
0.0
 40
3.5
  1
Wood (Maple/Zelkova)
 41
0.6
  0
TEXT
  5
21696
  8
01
  6
CONTINUOUS
 10
649.3103398914951
 20
-792.9826744649909
 30
0.0
 40
3.5
  1
Wood (Beach)
 41
0.6
  0
TEXT
  5
21697
  8
01
  6
CONTINUOUS
 10
649.3103398914951
 20
-798.8160077983242
 30
0.0
 40
3.5
  1
Aluminium
 41
0.6
  0
TEXT
  5
21698
  8
01
  6
CONTINUOUS
 10
649.3103398914951
 20
-804.6493411316576
 30
0.0
 40
3.5
  1
PVC
 41
0.6
  0
TEXT
  5
21699
  8
01
  6
CONTINUOUS
 10
649.3103398914951
 20
-816.3160077983243
 30
0.0
 40
3.5
  1
Finish should be labeled the same as in the catalog.
 41
0.6
  0
TEXT
  5
2169A
  8
01
  6
CONTINUOUS
 10
649.3103398914951
 20
-822.1493411316577
 30
0.0
 40
3.5
  1
If multiple finishes are available,
 41
0.6
  0
TEXT
  5
2169B
  8
01
  6
CONTINUOUS
 10
649.3103398914951
 20
-827.9826744649911
 30
0.0
 40
3.5
  1
Plating -> Various plating
 41
0.6
  0
TEXT
  5
2169C
  8
01
  6
CONTINUOUS
 10
649.3103398914951
 20
-833.8160077983244
 30
0.0
 40
3.5
  1
Other finishes -> Various finishes
 41
0.6
  0
TEXT
  5
2169D
  8
01
  6
CONTINUOUS
 10
668.6807324376102
 20
-624.3050177460716
 30
0.0
 40
3.5
  1
Shelf Thickness
 41
0.5
  0
ARC
  5
2169E
  8
01
 10
800.516241615365
 20
-689.3213303541128
 30
0.0
 40
0.5
 50
180.0
 51
270.0
  0
LINE
  5
2169F
  8
01
 10
800.516241615365
 20
-689.8213303541128
 30
0.0
 11
802.516241615365
 21
-689.8213303541128
 31
0.0
  0
ARC
  5
216A0
  8
01
 10
802.516241615365
 20
-689.3213303541128
 30
0.0
 40
0.5
 50
270.0
 51
0.0
  0
LINE
  5
216A1
  8
01
 10
803.0162417839523
 20
-659.3298902549332
 30
0.0
 11
803.0162417839523
 21
-659.8213303512664
 31
0.0
  0
LINE
  5
216A2
  8
01
 10
803.0162417839523
 20
-659.8213303512664
 30
0.0
 11
803.0162417839523
 21
-660.8213303512664
 31
0.0
  0
LINE
  5
216A3
  8
01
 10
803.0162417839523
 20
-660.8213303512664
 30
0.0
 11
803.0162417839523
 21
-661.8213303512664
 31
0.0
  0
LINE
  5
216A4
  8
01
 10
803.0162417839523
 20
-661.8213303512664
 30
0.0
 11
707.5162417839523
 21
-661.8213303512664
 31
0.0
  0
LINE
  5
216A5
  8
01
 10
707.5162417839523
 20
-661.8213303512664
 30
0.0
 11
707.2388711146074
 21
-661.8169815963836
 31
0.0
  0
LINE
  5
216A6
  8
01
 10
707.2388711146074
 20
-661.8169815963836
 30
0.0
 11
706.9703058633369
 21
-661.8041184372039
 31
0.0
  0
LINE
  5
216A7
  8
01
 10
706.9703058633369
 20
-661.8041184372039
 30
0.0
 11
706.7105460301406
 21
-661.7830155319305
 31
0.0
  0
LINE
  5
216A8
  8
01
 10
706.7105460301406
 20
-661.7830155319305
 30
0.0
 11
706.4595916150191
 21
-661.7539475387664
 31
0.0
  0
LINE
  5
216A9
  8
01
 10
706.4595916150191
 20
-661.7539475387664
 30
0.0
 11
706.3374164392363
 21
-661.7365124649139
 31
0.0
  0
LINE
  5
216AA
  8
01
 10
706.3374164392363
 20
-661.7365124649139
 30
0.0
 11
706.2174426179721
 21
-661.7171891159148
 31
0.0
  0
LINE
  5
216AB
  8
01
 10
706.2174426179721
 20
-661.7171891159148
 30
0.0
 11
706.0996701512264
 21
-661.6960118240447
 31
0.0
  0
LINE
  5
216AC
  8
01
 10
706.0996701512264
 20
-661.6960118240447
 30
0.0
 11
705.9840990389993
 21
-661.6730149215789
 31
0.0
  0
LINE
  5
216AD
  8
01
 10
705.9840990389993
 20
-661.6730149215789
 30
0.0
 11
705.8707292812907
 21
-661.6482327407928
 31
0.0
  0
LINE
  5
216AE
  8
01
 10
705.8707292812907
 20
-661.6482327407928
 30
0.0
 11
705.7595608781008
 21
-661.6216996139617
 31
0.0
  0
LINE
  5
216AF
  8
01
 10
705.7595608781008
 20
-661.6216996139617
 30
0.0
 11
705.6505938294296
 21
-661.5934498733611
 31
0.0
  0
LINE
  5
216B0
  8
01
 10
705.6505938294296
 20
-661.5934498733611
 30
0.0
 11
705.5438281352771
 21
-661.5635178512664
 31
0.0
  0
LINE
  5
216B1
  8
01
 10
705.5438281352771
 20
-661.5635178512664
 30
0.0
 11
705.4392637956429
 21
-661.5319378799529
 31
0.0
  0
LINE
  5
216B2
  8
01
 10
705.4392637956429
 20
-661.5319378799529
 30
0.0
 11
705.3369008105277
 21
-661.4987442916961
 31
0.0
  0
LINE
  5
216B3
  8
01
 10
705.3369008105277
 20
-661.4987442916961
 30
0.0
 11
705.2367391799311
 21
-661.4639714187713
 31
0.0
  0
LINE
  5
216B4
  8
01
 10
705.2367391799311
 20
-661.4639714187713
 30
0.0
 11
705.138778903853
 21
-661.4276535934539
 31
0.0
  0
LINE
  5
216B5
  8
01
 10
705.138778903853
 20
-661.4276535934539
 30
0.0
 11
705.0430199822935
 21
-661.3898251480193
 31
0.0
  0
LINE
  5
216B6
  8
01
 10
705.0430199822935
 20
-661.3898251480193
 30
0.0
 11
704.9494624152525
 21
-661.350520414743
 31
0.0
  0
LINE
  5
216B7
  8
01
 10
704.9494624152525
 20
-661.350520414743
 30
0.0
 11
704.85810620273
 21
-661.3097737259002
 31
0.0
  0
LINE
  5
216B8
  8
01
 10
704.85810620273
 20
-661.3097737259002
 30
0.0
 11
704.7689513447264
 21
-661.2676194137664
 31
0.0
  0
LINE
  5
216B9
  8
01
 10
704.7689513447264
 20
-661.2676194137664
 30
0.0
 11
704.681997841241
 21
-661.224091810617
 31
0.0
  0
LINE
  5
216BA
  8
01
 10
704.681997841241
 20
-661.224091810617
 30
0.0
 11
704.5972456922747
 21
-661.1792252487273
 31
0.0
  0
LINE
  5
216BB
  8
01
 10
704.5972456922747
 20
-661.1792252487273
 30
0.0
 11
704.5146948978269
 21
-661.1330540603728
 31
0.0
  0
LINE
  5
216BC
  8
01
 10
704.5146948978269
 20
-661.1330540603728
 30
0.0
 11
704.4343454578976
 21
-661.0856125778289
 31
0.0
  0
LINE
  5
216BD
  8
01
 10
704.4343454578976
 20
-661.0856125778289
 30
0.0
 11
704.3561973724869
 21
-661.0369351333709
 31
0.0
  0
LINE
  5
216BE
  8
01
 10
704.3561973724869
 20
-661.0369351333709
 30
0.0
 11
704.2802506415948
 21
-660.9870560592742
 31
0.0
  0
LINE
  5
216BF
  8
01
 10
704.2802506415948
 20
-660.9870560592742
 30
0.0
 11
704.2065052652214
 21
-660.9360096878142
 31
0.0
  0
LINE
  5
216C0
  8
01
 10
704.2065052652214
 20
-660.9360096878142
 30
0.0
 11
704.1349612433665
 21
-660.8838303512664
 31
0.0
  0
LINE
  5
216C1
  8
01
 10
704.1349612433665
 20
-660.8838303512664
 30
0.0
 11
704.0656185760303
 21
-660.830552381906
 31
0.0
  0
LINE
  5
216C2
  8
01
 10
704.0656185760303
 20
-660.830552381906
 30
0.0
 11
703.9984772632127
 21
-660.7762101120086
 31
0.0
  0
LINE
  5
216C3
  8
01
 10
703.9984772632127
 20
-660.7762101120086
 30
0.0
 11
703.9335373049138
 21
-660.7208378738494
 31
0.0
  0
LINE
  5
216C4
  8
01
 10
703.9335373049138
 20
-660.7208378738494
 30
0.0
 11
703.8707987011336
 21
-660.6644699997039
 31
0.0
  0
LINE
  5
216C5
  8
01
 10
703.8707987011336
 20
-660.6644699997039
 30
0.0
 11
703.8102614518717
 21
-660.6071408218475
 31
0.0
  0
LINE
  5
216C6
  8
01
 10
703.8102614518717
 20
-660.6071408218475
 30
0.0
 11
703.7519255571284
 21
-660.5488846725555
 31
0.0
  0
LINE
  5
216C7
  8
01
 10
703.7519255571284
 20
-660.5488846725555
 30
0.0
 11
703.6957910169036
 21
-660.4897358841033
 31
0.0
  0
LINE
  5
216C8
  8
01
 10
703.6957910169036
 20
-660.4897358841033
 30
0.0
 11
703.6418578311979
 21
-660.4297287887664
 31
0.0
  0
LINE
  5
216C9
  8
01
 10
703.6418578311979
 20
-660.4297287887664
 30
0.0
 11
703.5901260000104
 21
-660.3688977188201
 31
0.0
  0
LINE
  5
216CA
  8
01
 10
703.5901260000104
 20
-660.3688977188201
 30
0.0
 11
703.5405955233417
 21
-660.3072770065398
 31
0.0
  0
LINE
  5
216CB
  8
01
 10
703.5405955233417
 20
-660.3072770065398
 30
0.0
 11
703.4932664011916
 21
-660.244900984201
 31
0.0
  0
LINE
  5
216CC
  8
01
 10
703.4932664011916
 20
-660.244900984201
 30
0.0
 11
703.4481386335602
 21
-660.1818039840789
 31
0.0
  0
LINE
  5
216CD
  8
01
 10
703.4481386335602
 20
-660.1818039840789
 30
0.0
 11
703.4052122204472
 21
-660.118020338449
 31
0.0
  0
LINE
  5
216CE
  8
01
 10
703.4052122204472
 20
-660.118020338449
 30
0.0
 11
703.3644871618527
 21
-660.0535843795867
 31
0.0
  0
LINE
  5
216CF
  8
01
 10
703.3644871618527
 20
-660.0535843795867
 30
0.0
 11
703.325963457777
 21
-659.9885304397674
 31
0.0
  0
LINE
  5
216D0
  8
01
 10
703.325963457777
 20
-659.9885304397674
 30
0.0
 11
703.28964110822
 21
-659.9228928512664
 31
0.0
  0
LINE
  5
216D1
  8
01
 10
703.28964110822
 20
-659.9228928512664
 30
0.0
 11
703.2555201131817
 21
-659.8567059463592
 31
0.0
  0
LINE
  5
216D2
  8
01
 10
703.2555201131817
 20
-659.8567059463592
 30
0.0
 11
703.2236004726618
 21
-659.7900040573211
 31
0.0
  0
LINE
  5
216D3
  8
01
 10
703.2236004726618
 20
-659.7900040573211
 30
0.0
 11
703.1938821866605
 21
-659.7228215164275
 31
0.0
  0
LINE
  5
216D4
  8
01
 10
703.1938821866605
 20
-659.7228215164275
 30
0.0
 11
703.166365255178
 21
-659.6551926559539
 31
0.0
  0
LINE
  5
216D5
  8
01
 10
703.166365255178
 20
-659.6551926559539
 30
0.0
 11
703.1410496782138
 21
-659.5871518081756
 31
0.0
  0
LINE
  5
216D6
  8
01
 10
703.1410496782138
 20
-659.5871518081756
 30
0.0
 11
703.1179354557686
 21
-659.518733305368
 31
0.0
  0
LINE
  5
216D7
  8
01
 10
703.1179354557686
 20
-659.518733305368
 30
0.0
 11
703.0970225878417
 21
-659.4499714798064
 31
0.0
  0
LINE
  5
216D8
  8
01
 10
703.0970225878417
 20
-659.4499714798064
 30
0.0
 11
703.0783110744336
 21
-659.3809006637664
 31
0.0
  0
LINE
  5
216D9
  8
01
 10
703.0783110744336
 20
-659.3809006637664
 30
0.0
 11
703.061800915544
 21
-659.3115551895232
 31
0.0
  0
LINE
  5
216DA
  8
01
 10
703.061800915544
 20
-659.3115551895232
 30
0.0
 11
703.047492111173
 21
-659.2419693893523
 31
0.0
  0
LINE
  5
216DB
  8
01
 10
703.047492111173
 20
-659.2419693893523
 30
0.0
 11
703.0353846613206
 21
-659.1721775955291
 31
0.0
  0
LINE
  5
216DC
  8
01
 10
703.0353846613206
 20
-659.1721775955291
 30
0.0
 11
703.0254785659871
 21
-659.1022141403289
 31
0.0
  0
LINE
  5
216DD
  8
01
 10
703.0254785659871
 20
-659.1022141403289
 30
0.0
 11
703.017773825172
 21
-659.0321133560271
 31
0.0
  0
LINE
  5
216DE
  8
01
 10
703.017773825172
 20
-659.0321133560271
 30
0.0
 11
703.0122704388754
 21
-658.9619095748992
 31
0.0
  0
LINE
  5
216DF
  8
01
 10
703.0122704388754
 20
-658.9619095748992
 30
0.0
 11
703.0089684070973
 21
-658.8916371292205
 31
0.0
  0
LINE
  5
216E0
  8
01
 10
703.0089684070973
 20
-658.8916371292205
 30
0.0
 11
703.007867729838
 21
-658.8213303512664
 31
0.0
  0
LINE
  5
216E1
  8
01
 10
703.007867729838
 20
-658.8213303512664
 30
0.0
 11
703.0089684070973
 21
-658.7510235733123
 31
0.0
  0
LINE
  5
216E2
  8
01
 10
703.0089684070973
 20
-658.7510235733123
 30
0.0
 11
703.0122704388754
 21
-658.6807511276336
 31
0.0
  0
LINE
  5
216E3
  8
01
 10
703.0122704388754
 20
-658.6807511276336
 30
0.0
 11
703.017773825172
 21
-658.6105473465057
 31
0.0
  0
LINE
  5
216E4
  8
01
 10
703.017773825172
 20
-658.6105473465057
 30
0.0
 11
703.0254785659871
 21
-658.5404465622039
 31
0.0
  0
LINE
  5
216E5
  8
01
 10
703.0254785659871
 20
-658.5404465622039
 30
0.0
 11
703.0353846613206
 21
-658.4704831070037
 31
0.0
  0
LINE
  5
216E6
  8
01
 10
703.0353846613206
 20
-658.4704831070037
 30
0.0
 11
703.047492111173
 21
-658.4006913131805
 31
0.0
  0
LINE
  5
216E7
  8
01
 10
703.047492111173
 20
-658.4006913131805
 30
0.0
 11
703.061800915544
 21
-658.3311055130096
 31
0.0
  0
LINE
  5
216E8
  8
01
 10
703.061800915544
 20
-658.3311055130096
 30
0.0
 11
703.0783110744336
 21
-658.2617600387664
 31
0.0
  0
LINE
  5
216E9
  8
01
 10
703.0783110744336
 20
-658.2617600387664
 30
0.0
 11
703.0970225878417
 21
-658.1926892227264
 31
0.0
  0
LINE
  5
216EA
  8
01
 10
703.0970225878417
 20
-658.1926892227264
 30
0.0
 11
703.1179354557686
 21
-658.1239273971648
 31
0.0
  0
LINE
  5
216EB
  8
01
 10
703.1179354557686
 20
-658.1239273971648
 30
0.0
 11
703.1410496782138
 21
-658.0555088943572
 31
0.0
  0
LINE
  5
216EC
  8
01
 10
703.1410496782138
 20
-658.0555088943572
 30
0.0
 11
703.166365255178
 21
-657.9874680465789
 31
0.0
  0
LINE
  5
216ED
  8
01
 10
703.166365255178
 20
-657.9874680465789
 30
0.0
 11
703.1938821866605
 21
-657.9198391861053
 31
0.0
  0
LINE
  5
216EE
  8
01
 10
703.1938821866605
 20
-657.9198391861053
 30
0.0
 11
703.2236004726618
 21
-657.8526566452117
 31
0.0
  0
LINE
  5
216EF
  8
01
 10
703.2236004726618
 20
-657.8526566452117
 30
0.0
 11
703.2555201131817
 21
-657.7859547561736
 31
0.0
  0
LINE
  5
216F0
  8
01
 10
703.2555201131817
 20
-657.7859547561736
 30
0.0
 11
703.28964110822
 21
-657.7197678512664
 31
0.0
  0
LINE
  5
216F1
  8
01
 10
703.28964110822
 20
-657.7197678512664
 30
0.0
 11
703.325963457777
 21
-657.6541302627654
 31
0.0
  0
LINE
  5
216F2
  8
01
 10
703.325963457777
 20
-657.6541302627654
 30
0.0
 11
703.3644871618527
 21
-657.5890763229461
 31
0.0
  0
LINE
  5
216F3
  8
01
 10
703.3644871618527
 20
-657.5890763229461
 30
0.0
 11
703.4052122204472
 21
-657.5246403640838
 31
0.0
  0
LINE
  5
216F4
  8
01
 10
703.4052122204472
 20
-657.5246403640838
 30
0.0
 11
703.4481386335602
 21
-657.4608567184539
 31
0.0
  0
LINE
  5
216F5
  8
01
 10
703.4481386335602
 20
-657.4608567184539
 30
0.0
 11
703.4932664011916
 21
-657.3977597183318
 31
0.0
  0
LINE
  5
216F6
  8
01
 10
703.4932664011916
 20
-657.3977597183318
 30
0.0
 11
703.5405955233417
 21
-657.335383695993
 31
0.0
  0
LINE
  5
216F7
  8
01
 10
703.5405955233417
 20
-657.335383695993
 30
0.0
 11
703.5901260000104
 21
-657.2737629837127
 31
0.0
  0
LINE
  5
216F8
  8
01
 10
703.5901260000104
 20
-657.2737629837127
 30
0.0
 11
703.6418578311979
 21
-657.2129319137664
 31
0.0
  0
LINE
  5
216F9
  8
01
 10
703.6418578311979
 20
-657.2129319137664
 30
0.0
 11
703.6957910169036
 21
-657.1529248184295
 31
0.0
  0
LINE
  5
216FA
  8
01
 10
703.6957910169036
 20
-657.1529248184295
 30
0.0
 11
703.7519255571284
 21
-657.0937760299773
 31
0.0
  0
LINE
  5
216FB
  8
01
 10
703.7519255571284
 20
-657.0937760299773
 30
0.0
 11
703.8102614518717
 21
-657.0355198806853
 31
0.0
  0
LINE
  5
216FC
  8
01
 10
703.8102614518717
 20
-657.0355198806853
 30
0.0
 11
703.8707987011336
 21
-656.9781907028289
 31
0.0
  0
LINE
  5
216FD
  8
01
 10
703.8707987011336
 20
-656.9781907028289
 30
0.0
 11
703.9335373049138
 21
-656.9218228286834
 31
0.0
  0
LINE
  5
216FE
  8
01
 10
703.9335373049138
 20
-656.9218228286834
 30
0.0
 11
703.9984772632127
 21
-656.8664505905242
 31
0.0
  0
LINE
  5
216FF
  8
01
 10
703.9984772632127
 20
-656.8664505905242
 30
0.0
 11
704.0656185760303
 21
-656.8121083206267
 31
0.0
  0
LINE
  5
21700
  8
01
 10
704.0656185760303
 20
-656.8121083206267
 30
0.0
 11
704.1349612433665
 21
-656.7588303512664
 31
0.0
  0
LINE
  5
21701
  8
01
 10
704.1349612433665
 20
-656.7588303512664
 30
0.0
 11
704.2065052652214
 21
-656.7066510147185
 31
0.0
  0
LINE
  5
21702
  8
01
 10
704.2065052652214
 20
-656.7066510147185
 30
0.0
 11
704.2802506415948
 21
-656.6556046432586
 31
0.0
  0
LINE
  5
21703
  8
01
 10
704.2802506415948
 20
-656.6556046432586
 30
0.0
 11
704.3561973724869
 21
-656.6057255691619
 31
0.0
  0
LINE
  5
21704
  8
01
 10
704.3561973724869
 20
-656.6057255691619
 30
0.0
 11
704.4343454578976
 21
-656.5570481247039
 31
0.0
  0
LINE
  5
21705
  8
01
 10
704.4343454578976
 20
-656.5570481247039
 30
0.0
 11
704.5146948978269
 21
-656.50960664216
 31
0.0
  0
LINE
  5
21706
  8
01
 10
704.5146948978269
 20
-656.50960664216
 30
0.0
 11
704.5972456922747
 21
-656.4634354538055
 31
0.0
  0
LINE
  5
21707
  8
01
 10
704.5972456922747
 20
-656.4634354538055
 30
0.0
 11
704.681997841241
 21
-656.4185688919158
 31
0.0
  0
LINE
  5
21708
  8
01
 10
704.681997841241
 20
-656.4185688919158
 30
0.0
 11
704.7689513447264
 21
-656.3750412887664
 31
0.0
  0
LINE
  5
21709
  8
01
 10
704.7689513447264
 20
-656.3750412887664
 30
0.0
 11
704.85810620273
 21
-656.3328869766326
 31
0.0
  0
LINE
  5
2170A
  8
01
 10
704.85810620273
 20
-656.3328869766326
 30
0.0
 11
704.9494624152525
 21
-656.2921402877898
 31
0.0
  0
LINE
  5
2170B
  8
01
 10
704.9494624152525
 20
-656.2921402877898
 30
0.0
 11
705.0430199822935
 21
-656.2528355545135
 31
0.0
  0
LINE
  5
2170C
  8
01
 10
705.0430199822935
 20
-656.2528355545135
 30
0.0
 11
705.138778903853
 21
-656.2150071090789
 31
0.0
  0
LINE
  5
2170D
  8
01
 10
705.138778903853
 20
-656.2150071090789
 30
0.0
 11
705.2367391799311
 21
-656.1786892837615
 31
0.0
  0
LINE
  5
2170E
  8
01
 10
705.2367391799311
 20
-656.1786892837615
 30
0.0
 11
705.3369008105277
 21
-656.1439164108367
 31
0.0
  0
LINE
  5
2170F
  8
01
 10
705.3369008105277
 20
-656.1439164108367
 30
0.0
 11
705.4392637956429
 21
-656.1107228225799
 31
0.0
  0
LINE
  5
21710
  8
01
 10
705.4392637956429
 20
-656.1107228225799
 30
0.0
 11
705.5438281352771
 21
-656.0791428512664
 31
0.0
  0
LINE
  5
21711
  8
01
 10
705.5438281352771
 20
-656.0791428512664
 30
0.0
 11
705.6505938294296
 21
-656.0492108291717
 31
0.0
  0
LINE
  5
21712
  8
01
 10
705.6505938294296
 20
-656.0492108291717
 30
0.0
 11
705.7595608781008
 21
-656.0209610885711
 31
0.0
  0
LINE
  5
21713
  8
01
 10
705.7595608781008
 20
-656.0209610885711
 30
0.0
 11
705.8707292812907
 21
-655.99442796174
 31
0.0
  0
LINE
  5
21714
  8
01
 10
705.8707292812907
 20
-655.99442796174
 30
0.0
 11
705.9840990389993
 21
-655.9696457809539
 31
0.0
  0
LINE
  5
21715
  8
01
 10
705.9840990389993
 20
-655.9696457809539
 30
0.0
 11
706.0996701512264
 21
-655.9466488784881
 31
0.0
  0
LINE
  5
21716
  8
01
 10
706.0996701512264
 20
-655.9466488784881
 30
0.0
 11
706.2174426179721
 21
-655.925471586618
 31
0.0
  0
LINE
  5
21717
  8
01
 10
706.2174426179721
 20
-655.925471586618
 30
0.0
 11
706.3374164392363
 21
-655.9061482376189
 31
0.0
  0
LINE
  5
21718
  8
01
 10
706.3374164392363
 20
-655.9061482376189
 30
0.0
 11
706.4595916150191
 21
-655.8887131637664
 31
0.0
  0
LINE
  5
21719
  8
01
 10
706.4595916150191
 20
-655.8887131637664
 30
0.0
 11
706.7105460301406
 21
-655.8596451706023
 31
0.0
  0
LINE
  5
2171A
  8
01
 10
706.7105460301406
 20
-655.8596451706023
 30
0.0
 11
706.9703058633369
 21
-655.8385422653289
 31
0.0
  0
LINE
  5
2171B
  8
01
 10
706.9703058633369
 20
-655.8385422653289
 30
0.0
 11
707.2388711146074
 21
-655.8256791061492
 31
0.0
  0
LINE
  5
2171C
  8
01
 10
707.2388711146074
 20
-655.8256791061492
 30
0.0
 11
707.5162417839523
 21
-655.8213303512664
 31
0.0
  0
LINE
  5
2171D
  8
01
 10
707.5162417839523
 20
-655.8213303512664
 30
0.0
 11
712.0162417819819
 21
-655.8213303512664
 31
0.0
  0
ARC
  5
2171E
  8
01
 10
712.0162417822704
 20
-656.8213303529485
 30
0.0
 40
1.000000001682082
 50
0.0000000963762011
 51
90.00000001653358
  0
LINE
  5
2171F
  8
01
 10
713.0162417839525
 20
-656.8213303512664
 30
0.0
 11
713.0162417839523
 21
-657.8213303512664
 31
0.0
  0
ARC
  5
21720
  8
01
 10
714.0155539488552
 20
-657.8220181863634
 30
0.0
 40
0.9993124016242472
 50
179.9605628318965
 51
270.03943716811
  0
LINE
  5
21721
  8
01
 10
714.0162417839523
 20
-658.8213303512663
 30
0.0
 11
802.5162417839523
 21
-658.8213303512664
 31
0.0
  0
ARC
  5
21722
  8
01
 10
802.5162417839521
 20
-659.3213303512666
 30
0.0
 40
0.5000000000002274
 50
0.0000000000521102
 51
90.0
  0
LINE
  5
21723
  8
01
 10
500.6713787432049
 20
-511.7711713389247
 30
0.0
 11
500.3396403863977
 21
-511.7711713389247
 31
0.0
  0
LINE
  5
21724
  8
01
 10
500.3396403863977
 20
-511.7711713389247
 30
0.0
 11
499.8292394537917
 21
-510.5591804931596
 31
0.0
  0
LINE
  5
21725
  8
01
 10
499.8292394537917
 20
-510.5591804931596
 30
0.0
 11
499.3537700584212
 21
-511.8238578868065
 31
0.0
  0
LINE
  5
21726
  8
01
 10
499.3537700584212
 20
-511.8238578868065
 30
0.0
 11
498.8783006630514
 21
-510.5591804931596
 31
0.0
  0
LINE
  5
21727
  8
01
 10
498.8783006630514
 20
-510.5591804931596
 30
0.0
 11
498.368122224313
 21
-511.7711713389247
 31
0.0
  0
LINE
  5
21728
  8
01
 10
498.368122224313
 20
-511.7711713389247
 30
0.0
 11
498.0363838675057
 21
-511.7711713389247
 31
0.0
  0
LINE
  5
21729
  8
01
 10
498.0363838675057
 20
-511.7711713389247
 30
0.0
 11
498.8796356262577
 21
-509.7687265292234
 31
0.0
  0
LINE
  5
2172A
  8
01
 10
498.8796356262577
 20
-509.7687265292234
 30
0.0
 11
499.3537700584212
 21
-511.0302222605616
 31
0.0
  0
LINE
  5
2172B
  8
01
 10
499.3537700584212
 20
-511.0302222605616
 30
0.0
 11
499.8281269844528
 21
-509.7687265292234
 31
0.0
  0
LINE
  5
2172C
  8
01
 10
499.8281269844528
 20
-509.7687265292234
 30
0.0
 11
500.6713787432049
 21
-511.7711713389247
 31
0.0
  0
LINE
  5
2172D
  8
01
 10
497.4592347745763
 20
-510.3483898028584
 30
0.0
 11
497.2269165414426
 21
-509.8287998735125
 31
0.0
  0
LINE
  5
2172E
  8
01
 10
497.2269165414426
 20
-509.8287998735125
 30
0.0
 11
496.6969707836838
 21
-509.8287998735125
 31
0.0
  0
ARC
  5
2172F
  8
01
 10
496.6969707836838
 20
-510.3494355240354
 30
0.0
 40
0.5206356505228769
 50
90.0
 51
180.0
  0
LINE
  5
21730
  8
01
 10
496.1763351331609
 20
-510.3494355240354
 30
0.0
 11
496.1763351331609
 21
-511.7711713389247
 31
0.0
  0
LINE
  5
21731
  8
01
 10
496.1763351331609
 20
-511.7711713389247
 30
0.0
 11
496.4967263027135
 21
-511.7711713389247
 31
0.0
  0
LINE
  5
21732
  8
01
 10
496.4967263027135
 20
-511.7711713389247
 30
0.0
 11
496.4967263027135
 21
-510.3294110759383
 31
0.0
  0
ARC
  5
21733
  8
01
 10
496.6969707836838
 20
-510.3294110759383
 30
0.0
 40
0.2002444809703547
 50
90.0
 51
180.0
  0
LINE
  5
21734
  8
01
 10
496.6969707836838
 20
-510.129166594968
 30
0.0
 11
497.0147834877604
 21
-510.129166594968
 31
0.0
  0
LINE
  5
21735
  8
01
 10
497.0147834877604
 20
-510.129166594968
 30
0.0
 11
497.7729511280962
 21
-511.8238578868065
 31
0.0
  0
LINE
  5
21736
  8
01
 10
497.7729511280962
 20
-511.8238578868065
 30
0.0
 11
498.6689339335035
 21
-509.8214130771053
 31
0.0
  0
LINE
  5
21737
  8
01
 10
494.9548437992422
 20
-511.7711713389247
 30
0.0
 11
494.9548437992424
 21
-510.3735804301693
 31
0.0
  0
ARC
  5
21738
  8
01
 10
495.2151616245037
 20
-510.3735804301694
 30
0.0
 40
0.2603178252612893
 50
119.9999999999701
 51
180.0
  0
ARC
  5
21739
  8
01
 10
495.3052716409405
 20
-510.5296555569086
 30
0.0
 40
0.4405378581346286
 50
60.00000000004436
 51
119.9999999999852
  0
ARC
  5
2173A
  8
01
 10
495.395381657377
 20
-510.3735804301695
 30
0.0
 40
0.2603178252614499
 50
0.0000000000205718
 51
60.00000000004911
  0
LINE
  5
2173B
  8
01
 10
495.6556994826384
 20
-510.3735804301693
 30
0.0
 11
495.6556994826384
 21
-511.7711713389247
 31
0.0
  0
LINE
  5
2173C
  8
01
 10
495.6556994826384
 20
-511.7711713389247
 30
0.0
 11
495.976090652191
 21
-511.7711713389247
 31
0.0
  0
LINE
  5
2173D
  8
01
 10
495.976090652191
 20
-511.7711713389247
 30
0.0
 11
495.976090652191
 21
-510.3735804301693
 31
0.0
  0
ARC
  5
2173E
  8
01
 10
495.395381657377
 20
-510.3735804301695
 30
0.0
 40
0.580708994814036
 50
0.0
 51
60.00000000002854
  0
ARC
  5
2173F
  8
01
 10
495.3052716409405
 20
-510.5296555569086
 30
0.0
 40
0.760929027687194
 50
60.00000000003745
 51
119.9999999999797
  0
ARC
  5
21740
  8
01
 10
495.2151616245037
 20
-510.3735804301695
 30
0.0
 40
0.5807089948138807
 50
119.9999999999598
 51
179.9999999999883
  0
LINE
  5
21741
  8
01
 10
494.6344526296898
 20
-510.3735804301693
 30
0.0
 11
494.63445262969
 21
-511.7711713389247
 31
0.0
  0
LINE
  5
21742
  8
01
 10
494.63445262969
 20
-511.7711713389247
 30
0.0
 11
494.9548437992422
 21
-511.7711713389247
 31
0.0
  0
LINE
  5
21743
  8
01
 10
494.4268658510855
 20
-511.8238801361933
 30
0.0
 11
494.4268658510855
 21
-509.8214353264921
 31
0.0
  0
LINE
  5
21744
  8
01
 10
494.4268658510855
 20
-509.8214353264921
 30
0.0
 11
494.1107020650203
 21
-509.8214353264921
 31
0.0
  0
LINE
  5
21745
  8
01
 10
494.1107020650203
 20
-509.8214353264921
 30
0.0
 11
494.1107020650203
 21
-511.0099530692102
 31
0.0
  0
LINE
  5
21746
  8
01
 10
494.1107020650203
 20
-511.0099530692102
 30
0.0
 11
493.0040175668588
 21
-509.7687265292234
 31
0.0
  0
LINE
  5
21747
  8
01
 10
493.0040175668588
 20
-509.7687265292234
 30
0.0
 11
493.0040175668588
 21
-511.7711713389247
 31
0.0
  0
LINE
  5
21748
  8
01
 10
493.0040175668588
 20
-511.7711713389247
 30
0.0
 11
493.3201813529238
 21
-511.7711713389247
 31
0.0
  0
LINE
  5
21749
  8
01
 10
493.3201813529238
 20
-511.7711713389247
 30
0.0
 11
493.3201813529238
 21
-510.5826313468198
 31
0.0
  0
LINE
  5
2174A
  8
01
 10
493.3201813529238
 20
-510.5826313468198
 30
0.0
 11
494.4268658510855
 21
-511.8238578868065
 31
0.0
  0
LINE
  5
2174B
  8
01
 10
497.9569535567211
 20
-510.6382103149824
 30
0.0
 11
497.5889486994711
 21
-510.6382103149824
 31
0.0
  0
LINE
  5
2174C
  8
01
 10
497.5889486994711
 20
-510.6382103149824
 30
0.0
 11
497.7729511280962
 21
-511.049623725829
 31
0.0
  0
LINE
  5
2174D
  8
01
 10
497.7729511280962
 20
-511.049623725829
 30
0.0
 11
497.9569535567211
 21
-510.6382103149824
 31
0.0
  0
LINE
  5
2174E
  8
01
 10
500.9610657590085
 20
-511.049623725829
 30
0.0
 11
501.1450681876331
 21
-510.6382103149824
 31
0.0
  0
LINE
  5
2174F
  8
01
 10
501.1450681876331
 20
-510.6382103149824
 30
0.0
 11
500.7770633303835
 21
-510.6382103149824
 31
0.0
  0
LINE
  5
21750
  8
01
 10
500.7770633303835
 20
-510.6382103149824
 30
0.0
 11
500.9610657590085
 21
-511.049623725829
 31
0.0
  0
LINE
  5
21751
  8
01
 10
498.3225109814254
 20
-509.8214130771053
 30
0.0
 11
498.086667481616
 21
-510.3483898028584
 31
0.0
  0
LINE
  5
21752
  8
01
 10
498.086667481616
 20
-510.3483898028584
 30
0.0
 11
497.4592347745763
 21
-510.3483898028584
 31
0.0
  0
LINE
  5
21753
  8
01
 10
501.9887649341206
 20
-509.8214130771053
 30
0.0
 11
502.7000778293001
 21
-510.8753442792247
 31
0.0
  0
LINE
  5
21754
  8
01
 10
502.7000778293001
 20
-510.8753442792247
 30
0.0
 11
501.9887649341206
 21
-511.7711713389247
 31
0.0
  0
LINE
  5
21755
  8
01
 10
501.9887649341206
 20
-511.7711713389247
 30
0.0
 11
501.5849385641641
 21
-511.7711713389247
 31
0.0
  0
LINE
  5
21756
  8
01
 10
501.5849385641641
 20
-511.7711713389247
 30
0.0
 11
502.3082661282018
 21
-510.8601701974444
 31
0.0
  0
LINE
  5
21757
  8
01
 10
502.3082661282018
 20
-510.8601701974444
 30
0.0
 11
501.7573713116662
 21
-510.0439291942366
 31
0.0
  0
LINE
  5
21758
  8
01
 10
501.7573713116662
 20
-510.0439291942366
 30
0.0
 11
500.9610657590085
 21
-511.8238801361933
 31
0.0
  0
LINE
  5
21759
  8
01
 10
502.7000778293001
 20
-509.8214353264921
 30
0.0
 11
503.0162416153651
 21
-509.8214353264921
 31
0.0
  0
LINE
  5
2175A
  8
01
 10
503.0162416153651
 20
-509.8214353264921
 30
0.0
 11
503.0162416153651
 21
-511.7711713389247
 31
0.0
  0
LINE
  5
2175B
  8
01
 10
503.0162416153651
 20
-511.7711713389247
 30
0.0
 11
502.7000778293001
 21
-511.7711713389247
 31
0.0
  0
LINE
  5
2175C
  8
01
 10
502.7000778293001
 20
-511.7711713389247
 30
0.0
 11
502.7000778293001
 21
-509.8214353264921
 31
0.0
  0
LINE
  5
2175D
  8
01
 10
501.5106256123373
 20
-509.8214130771053
 30
0.0
 11
501.2747821125281
 21
-510.3483898028584
 31
0.0
  0
LINE
  5
2175E
  8
01
 10
501.2747821125281
 20
-510.3483898028584
 30
0.0
 11
500.6473494054885
 21
-510.3483898028584
 31
0.0
  0
LINE
  5
2175F
  8
01
 10
500.6473494054885
 20
-510.3483898028584
 30
0.0
 11
500.4117283995471
 21
-509.8214130771053
 31
0.0
  0
SOLID
  5
21760
  8
01
 10
1982.559463097206
 20
-964.3053259346616
 30
0.0
 11
1982.716800620733
 21
-962.2838522111615
 31
0.0
 12
1983.223580927721
 22
-964.2470854707515
 32
0.0
 13
1983.223580927721
 23
-964.2470854707515
 33
0.0
1001
ACAD
1000
DSTYLE
1002
{
1070
    45
1040
0.5
1002
}
  0
LINE
  5
21761
  8
01
 10
1982.891522012463
 20
-964.2762057027065
 30
0.0
 11
1996.617043046599
 21
-1120.788751103205
 31
0.0
1001
ACAD
1000
DSTYLE
1002
{
1070
    45
1040
0.5
1002
}
  0
LINE
  5
21762
  8
01
 10
1996.617043046599
 20
-1120.788751103205
 30
0.0
 11
2061.033709713266
 21
-1120.788751103205
 31
0.0
1001
ACAD
1000
DSTYLE
1002
{
1070
    45
1040
0.5
1002
}
  0
TEXT
  5
21763
  8
01
  6
CONTINUOUS
 10
1999.083709713266
 20
-1014.972084436539
 30
0.0
 40
3.5
  1
\U+6750\U+8CEA\U+306F\U+4EE5\U+4E0B\U+304B\U+3089\U+9078\U+629E
  0
TEXT
  5
21764
  8
01
  6
CONTINUOUS
 10
1999.200376379933
 20
-1020.922084436539
 30
0.0
 40
3.5
  1
\U+4E9C\U+925B\U+30C0\U+30A4\U+30AD\U+30E3\U+30B9\U+30C8
  0
TEXT
  5
21765
  8
01
  6
CONTINUOUS
 10
1999.083709713266
 20
-1026.755417769872
 30
0.0
 40
3.5
  1
\U+30B9\U+30C6\U+30F3\U+30EC\U+30B9
  0
TEXT
  5
21766
  8
01
  6
CONTINUOUS
 10
1999.200376379933
 20
-1032.588751103205
 30
0.0
 40
3.5
  1
\U+771F\U+936E
  0
TEXT
  5
21767
  8
01
  6
CONTINUOUS
 10
1999.317043046599
 20
-1038.422084436539
 30
0.0
 40
3.5
  1
ABS\U+6A39\U+8102
  0
TEXT
  5
21768
  8
01
  6
CONTINUOUS
 10
1999.200376379933
 20
-1044.255417769872
 30
0.0
 40
3.5
  1
\U+30DD\U+30EA\U+30D7\U+30ED\U+30D4\U+30EC\U+30F3
  0
TEXT
  5
21769
  8
01
  6
CONTINUOUS
 10
1999.200376379933
 20
-1050.088751103205
 30
0.0
 40
3.5
  1
\U+30DD\U+30EA\U+30A2\U+30BB\U+30BF\U+30FC\U+30EB
  0
TEXT
  5
2176A
  8
01
  6
CONTINUOUS
 10
1999.200376379933
 20
-1055.922084436538
 30
0.0
 40
3.5
  1
\U+30A2\U+30AF\U+30EA\U+30EB\U+6A39\U+8102
  0
TEXT
  5
2176B
  8
01
  6
CONTINUOUS
 10
1999.200376379933
 20
-1061.755417769872
 30
0.0
 40
3.5
  1
\U+30A8\U+30E9\U+30B9\U+30C8\U+30DE\U+30FC
  0
TEXT
  5
2176C
  8
01
  6
CONTINUOUS
 10
1999.200376379933
 20
-1067.588751103205
 30
0.0
 40
3.5
  1
\U+30CA\U+30A4\U+30ED\U+30F3
  0
TEXT
  5
2176D
  8
01
  6
CONTINUOUS
 10
1999.083709713266
 20
-1073.422084436538
 30
0.0
 40
3.5
  1
\U+5929\U+7136\U+6728\U+FF08\U+30E1\U+30FC\U+30D7\U+30EB/\U+30B1\U+30E4\U+30AD\U+FF09
  0
TEXT
  5
2176E
  8
01
  6
CONTINUOUS
 10
1999.083709713266
 20
-1079.255417769871
 30
0.0
 40
3.5
  1
\U+5929\U+7136\U+6728\U+FF08\U+30D3\U+30FC\U+30C1\U+FF09
  0
TEXT
  5
2176F
  8
01
  6
CONTINUOUS
 10
1999.200376379933
 20
-1085.088751103205
 30
0.0
 40
3.5
  1
\U+30A2\U+30EB\U+30DF
  0
TEXT
  5
21770
  8
01
  6
CONTINUOUS
 10
1999.317043046599
 20
-1090.922084436538
 30
0.0
 40
3.5
  1
PVC
  0
TEXT
  5
21771
  8
01
  6
CONTINUOUS
 10
1999.200376379933
 20
-1096.755417769871
 30
0.0
 40
3.5
  1
\U+4ED5\U+4E0A\U+3052\U+306F\U+30AB\U+30BF\U+30ED\U+30B0\U+3068\U+540C\U+8868\U+8A18\U+306B\U+3059\U+308B
  0
TEXT
  5
21772
  8
01
  6
CONTINUOUS
 10
1999.317043046599
 20
-1102.588751103204
 30
0.0
 40
3.5
  1
\U+8907\U+6570\U+4ED5\U+4E0A\U+3052\U+304C\U+6709\U+308B\U+5834\U+5408\U+3001
  0
TEXT
  5
21773
  8
01
  6
CONTINUOUS
 10
1998.850376379933
 20
-1108.422084436538
 30
0.0
 40
3.5
  1
\U+30E1\U+30C3\U+30AD\U+4ED5\U+4E0A\U+3052\U+2192\U+5404\U+7A2E\U+30E1\U+30C3\U+30AD
  0
TEXT
  5
21774
  8
01
  6
CONTINUOUS
 10
1998.850376379933
 20
-1114.255417769871
 30
0.0
 40
3.5
  1
\U+305D\U+306E\U+4ED6\U+4ED5\U+4E0A\U+3052\U+2192\U+5404\U+7A2E\U+4ED5\U+4E0A\U+3052
  0
TEXT
  5
21775
  8
01
  6
CONTINUOUS
 10
1998.617043046599
 20
-1120.088751103204
 30
0.0
 40
3.5
  1
\U+3068\U+8868\U+8A18\U+3059\U+308B\U+3002
  0
TEXT
  5
21776
  8
01
  6
CONTINUOUS
 10
2230.73328865665
 20
-603.1775110437906
 30
0.0
 40
3.5
  1
PB
  0
TEXT
  5
21777
  8
01
  6
CONTINUOUS
 10
2243.868706801815
 20
-603.1775110437906
 30
0.0
 40
3.5
  1
\U+5408\U+677F9mm\U+4EE5\U+4E0A
  0
TEXT
  5
21778
  8
01
  6
CONTINUOUS
 10
2070.289871421957
 20
-1009.390462500575
 30
0.0
 40
3.5
  1
Material is choosen ffrom below
 41
0.6
  0
TEXT
  5
21779
  8
01
  6
CONTINUOUS
 10
2070.289871421957
 20
-1015.223795833908
 30
0.0
 40
3.5
  1
Zinc-diecasting
 41
0.6
  0
TEXT
  5
2177A
  8
01
  6
CONTINUOUS
 10
2070.289871421957
 20
-1021.057129167242
 30
0.0
 40
3.5
  1
Stainless steel
 41
0.6
  0
TEXT
  5
2177B
  8
01
  6
CONTINUOUS
 10
2070.289871421957
 20
-1026.890462500575
 30
0.0
 40
3.5
  1
Brass
 41
0.6
  0
TEXT
  5
2177C
  8
01
  6
CONTINUOUS
 10
2070.289871421957
 20
-1032.723795833908
 30
0.0
 40
3.5
  1
ABS
 41
0.6
  0
TEXT
  5
2177D
  8
01
  6
CONTINUOUS
 10
2070.289871421957
 20
-1038.557129167241
 30
0.0
 40
3.5
  1
PP
 41
0.6
  0
TEXT
  5
2177E
  8
01
  6
CONTINUOUS
 10
2070.289871421957
 20
-1044.390462500575
 30
0.0
 40
3.5
  1
POM
 41
0.6
  0
TEXT
  5
2177F
  8
01
  6
CONTINUOUS
 10
2070.289871421957
 20
-1050.223795833908
 30
0.0
 40
3.5
  1
PMMA
 41
0.6
  0
TEXT
  5
21780
  8
01
  6
CONTINUOUS
 10
2070.289871421957
 20
-1056.057129167241
 30
0.0
 40
3.5
  1
TPE
 41
0.6
  0
TEXT
  5
21781
  8
01
  6
CONTINUOUS
 10
2070.289871421957
 20
-1061.890462500574
 30
0.0
 40
3.5
  1
Nylon
 41
0.6
  0
TEXT
  5
21782
  8
01
  6
CONTINUOUS
 10
2070.289871421957
 20
-1067.723795833908
 30
0.0
 40
3.5
  1
Wood (Maple/Zelkova)
 41
0.6
  0
TEXT
  5
21783
  8
01
  6
CONTINUOUS
 10
2070.289871421957
 20
-1073.557129167241
 30
0.0
 40
3.5
  1
Wood (Beach)
 41
0.6
  0
TEXT
  5
21784
  8
01
  6
CONTINUOUS
 10
2070.289871421957
 20
-1079.390462500574
 30
0.0
 40
3.5
  1
Aluminium
 41
0.6
  0
TEXT
  5
21785
  8
01
  6
CONTINUOUS
 10
2070.289871421957
 20
-1085.223795833907
 30
0.0
 40
3.5
  1
PVC
 41
0.6
  0
TEXT
  5
21786
  8
01
  6
CONTINUOUS
 10
2070.289871421957
 20
-1096.890462500574
 30
0.0
 40
3.5
  1
Finish should be labeled the same as in the catalog.
 41
0.6
  0
TEXT
  5
21787
  8
01
  6
CONTINUOUS
 10
2070.289871421957
 20
-1102.723795833907
 30
0.0
 40
3.5
  1
If multiple finishes are available,
 41
0.6
  0
TEXT
  5
21788
  8
01
  6
CONTINUOUS
 10
2070.289871421957
 20
-1108.55712916724
 30
0.0
 40
3.5
  1
Plating -> Various plating
 41
0.6
  0
TEXT
  5
21789
  8
01
  6
CONTINUOUS
 10
2070.289871421957
 20
-1114.390462500574
 30
0.0
 40
3.5
  1
Other finishes -> Various finishes
 41
0.6
  0
ARC
  5
2178A
  8
01
 10
2221.495773145827
 20
-669.5833593517872
 30
0.0
 40
0.5
 50
180.0
 51
270.0
  0
LINE
  5
2178B
  8
01
 10
2221.495773145827
 20
-670.0833593517872
 30
0.0
 11
2223.495773145827
 21
-670.0833593517872
 31
0.0
  0
ARC
  5
2178C
  8
01
 10
2223.495773145827
 20
-669.5833593517872
 30
0.0
 40
0.5
 50
270.0
 51
0.0
  0
LINE
  5
2178D
  8
01
 10
1921.650910273667
 20
-507.2184687524912
 30
0.0
 11
1921.31917191686
 21
-507.2184687524912
 31
0.0
  0
LINE
  5
2178E
  8
01
 10
1921.31917191686
 20
-507.2184687524912
 30
0.0
 11
1920.808770984254
 21
-506.0064779067261
 31
0.0
  0
LINE
  5
2178F
  8
01
 10
1920.808770984254
 20
-506.0064779067261
 30
0.0
 11
1920.333301588883
 21
-507.271155300373
 31
0.0
  0
LINE
  5
21790
  8
01
 10
1920.333301588883
 20
-507.271155300373
 30
0.0
 11
1919.857832193514
 21
-506.0064779067261
 31
0.0
  0
LINE
  5
21791
  8
01
 10
1919.857832193514
 20
-506.0064779067261
 30
0.0
 11
1919.347653754775
 21
-507.2184687524912
 31
0.0
  0
LINE
  5
21792
  8
01
 10
1919.347653754775
 20
-507.2184687524912
 30
0.0
 11
1919.015915397968
 21
-507.2184687524912
 31
0.0
  0
LINE
  5
21793
  8
01
 10
1919.015915397968
 20
-507.2184687524912
 30
0.0
 11
1919.85916715672
 21
-505.2160239427899
 31
0.0
  0
LINE
  5
21794
  8
01
 10
1919.85916715672
 20
-505.2160239427899
 30
0.0
 11
1920.333301588883
 21
-506.4775196741281
 31
0.0
  0
LINE
  5
21795
  8
01
 10
1920.333301588883
 20
-506.4775196741281
 30
0.0
 11
1920.807658514915
 21
-505.2160239427899
 31
0.0
  0
LINE
  5
21796
  8
01
 10
1920.807658514915
 20
-505.2160239427899
 30
0.0
 11
1921.650910273667
 21
-507.2184687524912
 31
0.0
  0
LINE
  5
21797
  8
01
 10
1918.438766305039
 20
-505.7956872164249
 30
0.0
 11
1918.206448071905
 21
-505.276097287079
 31
0.0
  0
LINE
  5
21798
  8
01
 10
1918.206448071905
 20
-505.276097287079
 30
0.0
 11
1917.676502314146
 21
-505.276097287079
 31
0.0
  0
ARC
  5
21799
  8
01
 10
1917.676502314146
 20
-505.7967329376018
 30
0.0
 40
0.52063565052282
 50
90.0
 51
180.0
  0
LINE
  5
2179A
  8
01
 10
1917.155866663623
 20
-505.7967329376019
 30
0.0
 11
1917.155866663623
 21
-507.2184687524912
 31
0.0
  0
LINE
  5
2179B
  8
01
 10
1917.155866663623
 20
-507.2184687524912
 30
0.0
 11
1917.476257833176
 21
-507.2184687524912
 31
0.0
  0
LINE
  5
2179C
  8
01
 10
1917.476257833176
 20
-507.2184687524912
 30
0.0
 11
1917.476257833176
 21
-505.7767084895048
 31
0.0
  0
ARC
  5
2179D
  8
01
 10
1917.676502314146
 20
-505.7767084895049
 30
0.0
 40
0.2002444809704116
 50
90.0
 51
180.0
  0
LINE
  5
2179E
  8
01
 10
1917.676502314146
 20
-505.5764640085345
 30
0.0
 11
1917.994315018223
 21
-505.5764640085345
 31
0.0
  0
LINE
  5
2179F
  8
01
 10
1917.994315018223
 20
-505.5764640085345
 30
0.0
 11
1918.752482658559
 21
-507.271155300373
 31
0.0
  0
LINE
  5
217A0
  8
01
 10
1918.752482658559
 20
-507.271155300373
 30
0.0
 11
1919.648465463966
 21
-505.2687104906718
 31
0.0
  0
LINE
  5
217A1
  8
01
 10
1915.934375329704
 20
-507.2184687524912
 30
0.0
 11
1915.934375329705
 21
-505.8208778437358
 31
0.0
  0
ARC
  5
217A2
  8
01
 10
1916.194693154966
 20
-505.8208778437357
 30
0.0
 40
0.2603178252611756
 50
119.9999999999701
 51
180.0
  0
ARC
  5
217A3
  8
01
 10
1916.284803171403
 20
-505.9769529704751
 30
0.0
 40
0.4405378581347423
 50
60.00000000004436
 51
119.9999999999852
  0
ARC
  5
217A4
  8
01
 10
1916.374913187839
 20
-505.8208778437358
 30
0.0
 40
0.2603178252613931
 50
359.9999999999989
 51
60.00000000002743
  0
LINE
  5
217A5
  8
01
 10
1916.635231013101
 20
-505.8208778437358
 30
0.0
 11
1916.635231013101
 21
-507.2184687524912
 31
0.0
  0
LINE
  5
217A6
  8
01
 10
1916.635231013101
 20
-507.2184687524912
 30
0.0
 11
1916.955622182653
 21
-507.2184687524912
 31
0.0
  0
LINE
  5
217A7
  8
01
 10
1916.955622182653
 20
-507.2184687524912
 30
0.0
 11
1916.955622182653
 21
-505.8208778437358
 31
0.0
  0
ARC
  5
217A8
  8
01
 10
1916.374913187839
 20
-505.820877843736
 30
0.0
 40
0.580708994814036
 50
0.0
 51
60.00000000002854
  0
ARC
  5
217A9
  8
01
 10
1916.284803171403
 20
-505.9769529704749
 30
0.0
 40
0.7609290276870803
 50
60.00000000003745
 51
119.9999999999797
  0
ARC
  5
217AA
  8
01
 10
1916.194693154966
 20
-505.8208778437361
 30
0.0
 40
0.5807089948139375
 50
119.9999999999501
 51
179.9999999999787
  0
LINE
  5
217AB
  8
01
 10
1915.613984160152
 20
-505.8208778437358
 30
0.0
 11
1915.613984160152
 21
-507.2184687524912
 31
0.0
  0
LINE
  5
217AC
  8
01
 10
1915.613984160152
 20
-507.2184687524912
 30
0.0
 11
1915.934375329704
 21
-507.2184687524912
 31
0.0
  0
LINE
  5
217AD
  8
01
 10
1915.406397381548
 20
-507.2711775497598
 30
0.0
 11
1915.406397381548
 21
-505.2687327400586
 31
0.0
  0
LINE
  5
217AE
  8
01
 10
1915.406397381548
 20
-505.2687327400586
 30
0.0
 11
1915.090233595482
 21
-505.2687327400586
 31
0.0
  0
LINE
  5
217AF
  8
01
 10
1915.090233595482
 20
-505.2687327400586
 30
0.0
 11
1915.090233595482
 21
-506.4572504827767
 31
0.0
  0
LINE
  5
217B0
  8
01
 10
1915.090233595482
 20
-506.4572504827767
 30
0.0
 11
1913.983549097321
 21
-505.2160239427899
 31
0.0
  0
LINE
  5
217B1
  8
01
 10
1913.983549097321
 20
-505.2160239427899
 30
0.0
 11
1913.983549097321
 21
-507.2184687524912
 31
0.0
  0
LINE
  5
217B2
  8
01
 10
1913.983549097321
 20
-507.2184687524912
 30
0.0
 11
1914.299712883386
 21
-507.2184687524912
 31
0.0
  0
LINE
  5
217B3
  8
01
 10
1914.299712883386
 20
-507.2184687524912
 30
0.0
 11
1914.299712883386
 21
-506.0299287603863
 31
0.0
  0
LINE
  5
217B4
  8
01
 10
1914.299712883386
 20
-506.0299287603863
 30
0.0
 11
1915.406397381548
 21
-507.271155300373
 31
0.0
  0
LINE
  5
217B5
  8
01
 10
1918.936485087183
 20
-506.0855077285489
 30
0.0
 11
1918.568480229933
 21
-506.0855077285489
 31
0.0
  0
LINE
  5
217B6
  8
01
 10
1918.568480229933
 20
-506.0855077285489
 30
0.0
 11
1918.752482658559
 21
-506.4969211393955
 31
0.0
  0
LINE
  5
217B7
  8
01
 10
1918.752482658559
 20
-506.4969211393955
 30
0.0
 11
1918.936485087183
 21
-506.0855077285489
 31
0.0
  0
LINE
  5
217B8
  8
01
 10
1921.940597289471
 20
-506.4969211393955
 30
0.0
 11
1922.124599718095
 21
-506.0855077285489
 31
0.0
  0
LINE
  5
217B9
  8
01
 10
1922.124599718095
 20
-506.0855077285489
 30
0.0
 11
1921.756594860846
 21
-506.0855077285489
 31
0.0
  0
LINE
  5
217BA
  8
01
 10
1921.756594860846
 20
-506.0855077285489
 30
0.0
 11
1921.940597289471
 21
-506.4969211393955
 31
0.0
  0
LINE
  5
217BB
  8
01
 10
1919.302042511888
 20
-505.2687104906718
 30
0.0
 11
1919.066199012078
 21
-505.7956872164249
 31
0.0
  0
LINE
  5
217BC
  8
01
 10
1919.066199012078
 20
-505.7956872164249
 30
0.0
 11
1918.438766305039
 21
-505.7956872164249
 31
0.0
  0
LINE
  5
217BD
  8
01
 10
1922.968296464583
 20
-505.2687104906718
 30
0.0
 11
1923.679609359762
 21
-506.3226416927912
 31
0.0
  0
LINE
  5
217BE
  8
01
 10
1923.679609359762
 20
-506.3226416927912
 30
0.0
 11
1922.968296464583
 21
-507.2184687524912
 31
0.0
  0
LINE
  5
217BF
  8
01
 10
1922.968296464583
 20
-507.2184687524912
 30
0.0
 11
1922.564470094626
 21
-507.2184687524912
 31
0.0
  0
LINE
  5
217C0
  8
01
 10
1922.564470094626
 20
-507.2184687524912
 30
0.0
 11
1923.287797658664
 21
-506.3074676110109
 31
0.0
  0
LINE
  5
217C1
  8
01
 10
1923.287797658664
 20
-506.3074676110109
 30
0.0
 11
1922.736902842129
 21
-505.4912266078031
 31
0.0
  0
LINE
  5
217C2
  8
01
 10
1922.736902842129
 20
-505.4912266078031
 30
0.0
 11
1921.940597289471
 21
-507.2711775497598
 31
0.0
  0
LINE
  5
217C3
  8
01
 10
1923.679609359762
 20
-505.2687327400586
 30
0.0
 11
1923.995773145827
 21
-505.2687327400586
 31
0.0
  0
LINE
  5
217C4
  8
01
 10
1923.995773145827
 20
-505.2687327400586
 30
0.0
 11
1923.995773145827
 21
-507.2184687524912
 31
0.0
  0
LINE
  5
217C5
  8
01
 10
1923.995773145827
 20
-507.2184687524912
 30
0.0
 11
1923.679609359762
 21
-507.2184687524912
 31
0.0
  0
LINE
  5
217C6
  8
01
 10
1923.679609359762
 20
-507.2184687524912
 30
0.0
 11
1923.679609359762
 21
-505.2687327400586
 31
0.0
  0
LINE
  5
217C7
  8
01
 10
1922.490157142799
 20
-505.2687104906718
 30
0.0
 11
1922.25431364299
 21
-505.7956872164249
 31
0.0
  0
LINE
  5
217C8
  8
01
 10
1922.25431364299
 20
-505.7956872164249
 30
0.0
 11
1921.626880935951
 21
-505.7956872164249
 31
0.0
  0
LINE
  5
217C9
  8
01
 10
1921.626880935951
 20
-505.7956872164249
 30
0.0
 11
1921.391259930009
 21
-505.2687104906718
 31
0.0
  0
LINE
  5
217CA
  8
01
  6
BYBLOCK
 10
9.158009439233233
 20
-653.8213303512663
 30
0.0
 11
8.622111059233232
 21
-655.8213303512663
 31
0.0
  0
LINE
  5
217CB
  8
01
  6
BYBLOCK
 10
8.622111059233232
 20
-655.8213303512663
 30
0.0
 11
8.086212679233233
 21
-653.8213303512663
 31
0.0
  0
LINE
  5
217CC
  8
01
  6
BYBLOCK
 10
8.622111059233232
 20
-655.8213303512663
 30
0.0
 11
8.622111059233232
 21
-653.8213303512663
 31
0.0
  0
LINE
  5
217CD
  8
01
  6
BYBLOCK
 10
8.086212679233265
 20
-507.8213303512663
 30
0.0
 11
8.622111059233266
 21
-505.8213303512663
 31
0.0
  0
LINE
  5
217CE
  8
01
  6
BYBLOCK
 10
8.622111059233266
 20
-505.8213303512663
 30
0.0
 11
9.158009439233265
 21
-507.8213303512663
 31
0.0
  0
LINE
  5
217CF
  8
01
  6
BYBLOCK
 10
8.622111059233266
 20
-505.8213303512663
 30
0.0
 11
8.622111059233266
 21
-507.8213303512663
 31
0.0
  0
TEXT
  5
217D0
  8
01
  6
CONTINUOUS
 10
7.92211105923343
 20
-584.6980664623774
 30
0.0
 40
3.5
  1
150
 50
90.0
1001
ACAD
1000
DSTYLE
1002
{
1070
    45
1040
0.5
1002
}
  0
LINE
  5
217D1
  8
1DIM1
 10
444.5441060361766
 20
-681.3213303981522
 30
0.0
 11
444.5441060361766
 21
-714.4805055393304
 31
0.0
1001
ACAD
1000
DSTYLE
1002
{
1070
    40
1040
3.0
1070
    45
1040
0.5
1002
}
  0
LINE
  5
217D2
  8
1DIM1
 10
551.5108170428405
 20
-681.3213303981522
 30
0.0
 11
551.5108170428405
 21
-714.4805055393304
 31
0.0
1001
ACAD
1000
DSTYLE
1002
{
1070
    40
1040
3.0
1070
    45
1040
0.5
1002
}
  0
LINE
  5
217D3
  8
1DIM1
 10
450.5441060361766
 20
-711.4805055393304
 30
0.0
 11
545.5108170428405
 21
-711.4805055393304
 31
0.0
1001
ACAD
1000
DSTYLE
1002
{
1070
    40
1040
3.0
1070
    45
1040
0.5
1002
}
  0
LINE
  5
217D7
  8
1DIM
 10
707.5162417839523
 20
-661.8213303512664
 30
0.0
 11
667.0162416153651
 21
-661.8213303512664
 31
0.0
1001
ACAD
1000
DSTYLE
1002
{
1070
    45
1040
0.5
1002
}
  0
LINE
  5
217D8
  8
1DIM
 10
707.5162417839523
 20
-655.8213303512664
 30
0.0
 11
667.0162416153651
 21
-655.8213303512664
 31
0.0
1001
ACAD
1000
DSTYLE
1002
{
1070
    45
1040
0.5
1002
}
  0
LINE
  5
217D9
  8
1DIM
 10
668.0162416153651
 20
-655.8213303512664
 30
0.0
 11
668.0162416153651
 21
-650.2546636845996
 31
0.0
1001
ACAD
1000
DSTYLE
1002
{
1070
    45
1040
0.5
1002
}
  0
LINE
  5
217DA
  8
1DIM
 10
668.0162416153651
 20
-659.8213303512664
 30
0.0
 11
668.0162416153651
 21
-657.8213303512664
 31
0.0
1001
ACAD
1000
DSTYLE
1002
{
1070
    45
1040
0.5
1002
}
  0
SOLID
  5
217DE
  8
1DIM
 10
599.2442348465654
 20
-653.8325363661876
 30
0.0
 11
599.6389620890939
 21
-655.8213303512742
 31
0.0
 12
598.6205571888362
 22
-654.0680583899853
 32
0.0
 13
598.6205571888362
 23
-654.0680583899853
 33
0.0
1001
ACAD
1000
DSTYLE
1002
{
1070
    45
1040
0.5
1002
}
  0
LINE
  5
217DF
  8
1DIM
 10
598.9323960177009
 20
-653.9502973780864
 30
0.0
 11
594.807722625075
 21
-643.0278936090829
 31
0.0
1001
ACAD
1000
DSTYLE
1002
{
1070
    45
1040
0.5
1002
}
  0
LINE
  5
217E0
  8
1DIM
 10
594.807722625075
 20
-643.0278936090829
 30
0.0
 11
531.307722625075
 21
-643.0278936090829
 31
0.0
1001
ACAD
1000
DSTYLE
1002
{
1070
    45
1040
0.5
1002
}
  0
TEXT
  5
217E1
  8
1DIM
  6
CONTINUOUS
 10
519.4081855880379
 20
-636.4945602757494
 30
0.0
 40
3.5
  1
Material\U+FF1AStainless Steel
  0
TEXT
  5
217E2
  8
1DIM
  6
CONTINUOUS
 10
524.0813337361861
 20
-642.3278936090828
 30
0.0
 40
3.5
  1
Finish\U+FF1AVarious Finishes
  0
LINE
  5
217E3
  8
1DIM
 10
831.9771563752067
 20
-674.8213303541093
 30
0.0
 11
845.516241615365
 21
-674.8213303541093
 31
0.0
1001
ACAD
1000
DSTYLE
1002
{
1070
    45
1040
0.5
1070
   271
1070
     0
1002
}
  0
LINE
  5
217E4
  8
1DIM
 10
802.5162417839523
 20
-658.8213303512664
 30
0.0
 11
845.516241615365
 21
-658.8213303512664
 31
0.0
1001
ACAD
1000
DSTYLE
1002
{
1070
    45
1040
0.5
1070
   271
1070
     0
1002
}
  0
LINE
  5
217E5
  8
1DIM
 10
844.516241615365
 20
-672.8213303541093
 30
0.0
 11
844.516241615365
 21
-660.8213303512664
 31
0.0
1001
ACAD
1000
DSTYLE
1002
{
1070
    45
1040
0.5
1070
   271
1070
     0
1002
}
  0
LINE
  5
217E9
  8
1DIM1
 10
353.0162416153647
 20
-660.821330304308
 30
0.0
 11
353.0162416153647
 21
-734.4213303512677
 31
0.0
1001
ACAD
1000
DSTYLE
1002
{
1070
    40
1040
3.0
1070
    45
1040
0.5
1002
}
  0
LINE
  5
217EA
  8
1DIM1
 10
643.0162416153646
 20
-660.8213302922483
 30
0.0
 11
643.0162416153646
 21
-734.4213303512677
 31
0.0
1001
ACAD
1000
DSTYLE
1002
{
1070
    40
1040
3.0
1070
    45
1040
0.5
1002
}
  0
LINE
  5
217EB
  8
1DIM1
 10
359.0162416153647
 20
-731.4213303512677
 30
0.0
 11
637.0162416153646
 21
-731.4213303512677
 31
0.0
1001
ACAD
1000
DSTYLE
1002
{
1070
    40
1040
3.0
1070
    45
1040
0.5
1002
}
  0
LINE
  5
217EF
  8
1DIM
 10
802.516241615365
 20
-689.8213303541128
 30
0.0
 11
855.516241615365
 21
-689.8213303541128
 31
0.0
1001
ACAD
1000
DSTYLE
1002
{
1070
    45
1040
0.5
1002
}
  0
LINE
  5
217F0
  8
1DIM
 10
802.5162417839523
 20
-658.8213303512664
 30
0.0
 11
855.516241615365
 21
-658.8213303512664
 31
0.0
1001
ACAD
1000
DSTYLE
1002
{
1070
    45
1040
0.5
1002
}
  0
LINE
  5
217F1
  8
1DIM
 10
854.516241615365
 20
-687.8213303541128
 30
0.0
 11
854.516241615365
 21
-660.8213303512664
 31
0.0
1001
ACAD
1000
DSTYLE
1002
{
1070
    45
1040
0.5
1002
}
  0
SOLID
  5
217F5
  8
1DIM
 10
806.6708479197653
 20
-624.9354292138315
 30
0.0
 11
805.9299131930724
 21
-626.8227889680627
 31
0.0
 12
806.0186807169501
 22
-624.797145505403
 32
0.0
 13
806.0186807169501
 23
-624.797145505403
 33
0.0
1001
ACAD
1000
DSTYLE
1002
{
1070
    45
1040
0.5
1002
}
  0
LINE
  5
217F6
  8
1DIM
 10
806.3447643183576
 20
-624.8662873596172
 30
0.0
 11
809.0537571261874
 21
-612.0902613041472
 31
0.0
1001
ACAD
1000
DSTYLE
1002
{
1070
    45
1040
0.5
1002
}
  0
SOLID
  5
217F7
  8
1DIM
 10
819.8062660649305
 20
-624.9354292138315
 30
0.0
 11
819.0653313382376
 21
-626.8227889680627
 31
0.0
 12
819.1540988621153
 22
-624.797145505403
 32
0.0
 13
819.1540988621153
 23
-624.797145505403
 33
0.0
1001
ACAD
1000
DSTYLE
1002
{
1070
    45
1040
0.5
1002
}
  0
LINE
  5
217F8
  8
1DIM
 10
819.4801824635229
 20
-624.8662873596172
 30
0.0
 11
822.1891752713526
 21
-612.0902613041472
 31
0.0
1001
ACAD
1000
DSTYLE
1002
{
1070
    45
1040
0.5
1002
}
  0
SOLID
  5
217F9
  8
1DIM
 10
710.3167197631866
 20
-652.8517979089814
 30
0.0
 11
709.4933943240571
 21
-654.7047000468164
 31
0.0
 12
709.6712744515035
 22
-652.684930314552
 32
0.0
 13
709.6712744515035
 23
-652.684930314552
 33
0.0
1001
ACAD
1000
DSTYLE
1002
{
1070
    45
1040
0.5
1002
}
  0
LINE
  5
217FA
  8
1DIM
 10
709.993997107345
 20
-652.7683641117668
 30
0.0
 11
713.1295248188064
 21
-640.6401155567542
 31
0.0
1001
ACAD
1000
DSTYLE
1002
{
1070
    45
1040
0.5
1002
}
  0
LINE
  5
217FB
  8
1DIM
 10
713.1295248188064
 20
-640.6401155567542
 30
0.0
 11
740.0961914854731
 21
-640.6401155567542
 31
0.0
1001
ACAD
1000
DSTYLE
1002
{
1070
    45
1040
0.5
1002
}
  0
TEXT
  5
217FC
  8
1DIM
  6
CONTINUOUS
 10
715.5961914854731
 20
-634.1067822234207
 30
0.0
 40
3.5
  1
\U+6750\U+8CEA\U+FF1A\U+30AC\U+30E9\U+30B9
  0
TEXT
  5
217FD
  8
1DIM
  6
CONTINUOUS
 10
715.7128581521398
 20
-639.9401155567541
 30
0.0
 40
3.5
  1
\U+4ED5\U+4E0A\U+3052\U+FF1A\U+900F\U+660E
  0
LINE
  5
217FE
  8
1DIM
 10
703.0084180684677
 20
-658.9361769594443
 30
0.0
 11
703.0084180684677
 21
-722.4213303512677
 31
0.0
1001
ACAD
1000
DSTYLE
1002
{
1070
    45
1040
0.5
1002
}
  0
LINE
  5
217FF
  8
1DIM
 10
803.016241615365
 20
-693.0495039365483
 30
0.0
 11
803.016241615365
 21
-722.4213303512677
 31
0.0
1001
ACAD
1000
DSTYLE
1002
{
1070
    45
1040
0.5
1002
}
  0
LINE
  5
21800
  8
1DIM
 10
705.0084180684677
 20
-721.4213303512677
 30
0.0
 11
801.016241615365
 21
-721.4213303512677
 31
0.0
1001
ACAD
1000
DSTYLE
1002
{
1070
    45
1040
0.5
1002
}
  0
LINE
  5
21804
  8
1DIM
 10
713.0162417839523
 20
-657.9713303484214
 30
0.0
 11
713.0162417839523
 21
-712.4213303512677
 31
0.0
1001
ACAD
1000
DSTYLE
1002
{
1070
    45
1040
0.5
1002
}
  0
LINE
  5
21805
  8
1DIM
 10
803.016241615365
 20
-693.0495039365483
 30
0.0
 11
803.016241615365
 21
-712.4213303512677
 31
0.0
1001
ACAD
1000
DSTYLE
1002
{
1070
    45
1040
0.5
1002
}
  0
LINE
  5
21806
  8
1DIM
 10
715.0162417839523
 20
-711.4213303512677
 30
0.0
 11
801.016241615365
 21
-711.4213303512677
 31
0.0
1001
ACAD
1000
DSTYLE
1002
{
1070
    45
1040
0.5
1002
}
  0
LINE
  5
2180B
  8
0
 10
553.6255102799647
 20
-674.1942125650176
 30
0.0
 11
552.1264739076377
 21
-674.1942021011671
 31
0.0
  0
LINE
  5
2180C
  8
0
 10
552.1264634438483
 20
-672.6951744839168
 30
0.0
 11
550.8722235481418
 21
-672.69516572884
 31
0.0
  0
LINE
  5
2180D
  8
0
 10
552.1264634438483
 20
-672.6951744839168
 30
0.0
 11
552.1264739076377
 21
-674.1942021011671
 31
0.0
  0
LINE
  5
2180E
  8
0
 10
553.6255015248878
 20
-675.448452460724
 30
0.0
 11
553.6255102799647
 21
-674.1942125650176
 31
0.0
  0
LINE
  5
2180F
  8
0
 10
553.6255015248878
 20
-675.448452460724
 30
0.0
 11
552.1264826628607
 21
-675.4484629244521
 31
0.0
  0
LINE
  5
21810
  8
0
 10
552.1264826628607
 20
-675.4484629244521
 30
0.0
 11
552.1264931267112
 21
-676.9474992970477
 31
0.0
  0
LINE
  5
21811
  8
0
 10
550.8722043290072
 20
-675.4484716797974
 30
0.0
 11
549.3731767117571
 21
-675.448482143587
 31
0.0
  0
LINE
  5
21812
  8
0
 10
550.8722043290072
 20
-675.4484716797974
 30
0.0
 11
550.8721938652789
 21
-676.9474905415564
 31
0.0
  0
LINE
  5
21813
  8
0
 10
550.8721938652789
 20
-676.9474905415564
 30
0.0
 11
552.1264931267112
 21
-676.9474992970477
 31
0.0
  0
LINE
  5
21814
  8
0
 10
550.8722130843524
 20
-674.1941933459441
 30
0.0
 11
549.3731854672484
 21
-674.1941828821546
 31
0.0
  0
LINE
  5
21815
  8
0
 10
549.3731854672484
 20
-674.1941828821546
 30
0.0
 11
549.3731767117571
 21
-675.448482143587
 31
0.0
  0
LINE
  5
21816
  8
0
 10
550.8722235481418
 20
-672.69516572884
 30
0.0
 11
550.8722130843524
 21
-674.1941933459441
 31
0.0
  0
LINE
  5
21818
  8
0
 10
446.6587992733008
 20
-674.1942125650176
 30
0.0
 11
445.1597629009738
 21
-674.1942021011671
 31
0.0
  0
LINE
  5
21819
  8
0
 10
445.1597524371843
 20
-672.6951744839168
 30
0.0
 11
443.905512541478
 21
-672.69516572884
 31
0.0
  0
LINE
  5
2181A
  8
0
 10
445.1597524371843
 20
-672.6951744839168
 30
0.0
 11
445.1597629009738
 21
-674.1942021011671
 31
0.0
  0
LINE
  5
2181B
  8
0
 10
446.6587905182239
 20
-675.448452460724
 30
0.0
 11
446.6587992733008
 21
-674.1942125650176
 31
0.0
  0
LINE
  5
2181C
  8
0
 10
446.6587905182239
 20
-675.448452460724
 30
0.0
 11
445.1597716561968
 21
-675.4484629244521
 31
0.0
  0
LINE
  5
2181D
  8
0
 10
445.1597716561968
 20
-675.4484629244521
 30
0.0
 11
445.1597821200473
 21
-676.9474992970477
 31
0.0
  0
LINE
  5
2181E
  8
0
 10
443.9054933223433
 20
-675.4484716797974
 30
0.0
 11
442.4064657050932
 21
-675.448482143587
 31
0.0
  0
LINE
  5
2181F
  8
0
 10
443.9054933223433
 20
-675.4484716797974
 30
0.0
 11
443.905482858615
 21
-676.9474905415564
 31
0.0
  0
LINE
  5
21820
  8
0
 10
443.905482858615
 20
-676.9474905415564
 30
0.0
 11
445.1597821200473
 21
-676.9474992970477
 31
0.0
  0
LINE
  5
21821
  8
0
 10
443.9055020776885
 20
-674.1941933459441
 30
0.0
 11
442.4064744605845
 21
-674.1941828821546
 31
0.0
  0
LINE
  5
21822
  8
0
 10
442.4064744605845
 20
-674.1941828821546
 30
0.0
 11
442.4064657050932
 21
-675.448482143587
 31
0.0
  0
LINE
  5
21823
  8
0
 10
443.905512541478
 20
-672.69516572884
 30
0.0
 11
443.9055020776885
 21
-674.1941933459441
 31
0.0
  0
LINE
  5
21824
  8
0
 10
551.5108635756341
 20
-473.8213303514287
 30
0.0
 11
550.0108635756341
 21
-479.1213268612904
 31
0.0
  0
LINE
  5
21825
  8
0
 10
550.0108635756341
 20
-479.1213268612904
 30
0.0
 11
550.0108635756343
 21
-508.8213268611823
 31
0.0
  0
LINE
  5
21826
  8
0
 10
551.5108635756341
 20
-473.8213303514287
 30
0.0
 11
553.0108635756342
 21
-479.1213338416741
 31
0.0
  0
LINE
  5
21827
  8
0
 10
548.0108170397363
 20
-508.8213222074842
 30
0.0
 11
555.0108170397361
 21
-508.8213384950486
 31
0.0
  0
LINE
  5
21828
  8
0
 10
553.0108635756342
 20
-479.1213338416741
 30
0.0
 11
553.0108635756343
 21
-508.821333841567
 31
0.0
  0
LINE
  5
21829
  8
0
 10
548.0108170397363
 20
-508.8213222074842
 30
0.0
 11
548.0108170397361
 21
-509.9213256976795
 31
0.0
  0
ARC
  5
2182A
  8
0
 10
549.5108170397361
 20
-509.9213256976795
 30
0.0
 40
1.5
 50
180.0
 51
269.9998666844662
  0
LINE
  5
2182B
  8
0
 10
555.0108170397361
 20
-508.8213384950486
 30
0.0
 11
555.0108170397361
 21
-509.9213350048591
 31
0.0
  0
LINE
  5
2182C
  8
0
 10
549.5108135495437
 20
-511.4213256976755
 30
0.0
 11
553.5108135495437
 21
-511.4213350048551
 31
0.0
  0
ARC
  5
2182D
  8
0
 10
553.5108170397361
 20
-509.9213350048591
 30
0.0
 40
1.5
 50
269.9998666844662
 51
0.0
  0
LINE
  5
2182E
  8
1CENTER
 10
551.5108170397361
 20
-472.3905354339634
 30
0.0
 11
551.5108170397361
 21
-512.4916067605752
 31
0.0
  0
LINE
  5
2182F
  8
0
 10
550.4164932257411
 20
-475.9213278051066
 30
0.0
 11
552.3788283146165
 21
-475.1213323710556
 31
0.0
  0
LINE
  5
21830
  8
0
 10
552.3788283146165
 20
-475.1213323710556
 30
0.0
 11
551.7905517395741
 21
-474.8095625148035
 31
0.0
  0
LINE
  5
21831
  8
0
 10
549.5108635756341
 20
-498.3213256978966
 30
0.0
 11
553.5108635756341
 21
-497.5213350050783
 31
0.0
  0
LINE
  5
21832
  8
0
 10
549.5108635756341
 20
-487.1213256978922
 30
0.0
 11
553.5108635756341
 21
-486.3213350050696
 31
0.0
  0
LINE
  5
21833
  8
0
 10
549.5108635756341
 20
-483.9213256978921
 30
0.0
 11
553.5108635756341
 21
-483.1213350050696
 31
0.0
  0
LINE
  5
21834
  8
0
 10
553.5108635756341
 20
-483.1213350050696
 30
0.0
 11
553.0108635756341
 21
-483.0213338416723
 31
0.0
  0
LINE
  5
21835
  8
0
 10
550.0108635756341
 20
-482.4213268612893
 30
0.0
 11
549.5108635756341
 21
-482.3213256978921
 31
0.0
  0
LINE
  5
21836
  8
0
 10
553.5108635756341
 20
-486.3213350050696
 30
0.0
 11
553.0108635756341
 21
-486.2213338416724
 31
0.0
  0
LINE
  5
21837
  8
0
 10
553.5108635756341
 20
-484.7213350050695
 30
0.0
 11
553.0108635756341
 21
-484.6213338416724
 31
0.0
  0
LINE
  5
21838
  8
0
 10
550.0108635756341
 20
-484.0213268612893
 30
0.0
 11
549.5108635756341
 21
-483.9213256978921
 31
0.0
  0
LINE
  5
21839
  8
0
 10
550.0108635756341
 20
-485.6213268612892
 30
0.0
 11
549.5108635756341
 21
-485.5213256978921
 31
0.0
  0
LINE
  5
2183A
  8
0
 10
549.5108635756341
 20
-485.5213256978921
 30
0.0
 11
553.5108635756341
 21
-484.7213350050695
 31
0.0
  0
LINE
  5
2183B
  8
0
 10
552.8316424190233
 20
-476.7213334246612
 30
0.0
 11
552.27989295522
 21
-476.5385692820332
 31
0.0
  0
LINE
  5
2183C
  8
0
 10
553.5108635756341
 20
-479.9213350050695
 30
0.0
 11
553.0108635756341
 21
-479.8213338416724
 31
0.0
  0
LINE
  5
2183D
  8
0
 10
553.5108635756341
 20
-481.5213350050695
 30
0.0
 11
553.0108635756341
 21
-481.4213338416725
 31
0.0
  0
LINE
  5
2183E
  8
0
 10
553.2844565234301
 20
-478.3213344782669
 30
0.0
 11
552.747862788159
 21
-478.192063780637
 31
0.0
  0
LINE
  5
2183F
  8
0
 10
550.4317781728428
 20
-477.6340962638524
 30
0.0
 11
549.9636797176928
 21
-477.5213267515023
 31
0.0
  0
LINE
  5
21840
  8
0
 10
550.0108635756341
 20
-480.8213268612892
 30
0.0
 11
549.5108635756341
 21
-480.7213256978921
 31
0.0
  0
LINE
  5
21841
  8
0
 10
550.0108635756341
 20
-479.2213268612893
 30
0.0
 11
549.5108635756341
 21
-479.1213256978922
 31
0.0
  0
LINE
  5
21842
  8
0
 10
550.8736650663722
 20
-476.072763601547
 30
0.0
 11
550.4164932257411
 21
-475.9213278051066
 31
0.0
  0
LINE
  5
21843
  8
0
 10
549.9636797176928
 20
-477.5213267515023
 30
0.0
 11
552.8316424190233
 21
-476.7213334246612
 31
0.0
  0
LINE
  5
21844
  8
0
 10
549.5108635756341
 20
-480.7213256978921
 30
0.0
 11
553.5108635756341
 21
-479.9213350050695
 31
0.0
  0
LINE
  5
21845
  8
0
 10
549.5108635756341
 20
-479.1213256978922
 30
0.0
 11
553.2844565234301
 21
-478.3213344782669
 31
0.0
  0
LINE
  5
21846
  8
0
 10
549.5108635756341
 20
-482.3213256978921
 30
0.0
 11
553.5108635756341
 21
-481.5213350050695
 31
0.0
  0
LINE
  5
21847
  8
0
 10
549.5108635756341
 20
-495.1213256978965
 30
0.0
 11
553.5108635756341
 21
-494.3213350050783
 31
0.0
  0
LINE
  5
21848
  8
0
 10
553.5108635756341
 20
-494.3213350050783
 30
0.0
 11
553.0108635756341
 21
-494.2213338416806
 31
0.0
  0
LINE
  5
21849
  8
0
 10
550.0108635756341
 20
-493.6213268612898
 30
0.0
 11
549.5108635756341
 21
-493.5213256978922
 31
0.0
  0
LINE
  5
2184A
  8
0
 10
553.5108635756341
 20
-495.9213350050784
 30
0.0
 11
553.0108635756341
 21
-495.8213338416807
 31
0.0
  0
LINE
  5
2184B
  8
0
 10
553.5108635756341
 20
-497.5213350050783
 30
0.0
 11
553.0108635756341
 21
-497.4213338416806
 31
0.0
  0
LINE
  5
2184C
  8
0
 10
550.0108635756341
 20
-495.2213268612942
 30
0.0
 11
549.5108635756341
 21
-495.1213256978965
 31
0.0
  0
LINE
  5
2184D
  8
0
 10
550.0108635756341
 20
-496.8213268612943
 30
0.0
 11
549.5108635756341
 21
-496.7213256978966
 31
0.0
  0
LINE
  5
2184E
  8
0
 10
549.5108635756341
 20
-496.7213256978966
 30
0.0
 11
553.5108635756341
 21
-495.9213350050784
 31
0.0
  0
LINE
  5
2184F
  8
0
 10
553.5108635756341
 20
-489.5213350050739
 30
0.0
 11
553.0108635756341
 21
-489.4213338416762
 31
0.0
  0
LINE
  5
21850
  8
0
 10
553.5108635756341
 20
-487.9213350050695
 30
0.0
 11
553.0108635756341
 21
-487.8213338416724
 31
0.0
  0
LINE
  5
21851
  8
0
 10
553.5108635756341
 20
-492.7213350050739
 30
0.0
 11
553.0108635756341
 21
-492.6213338416762
 31
0.0
  0
LINE
  5
21852
  8
0
 10
553.5108635756341
 20
-491.121335005074
 30
0.0
 11
553.0108635756341
 21
-491.0213338416763
 31
0.0
  0
LINE
  5
21853
  8
0
 10
550.0108635756341
 20
-487.2213268612893
 30
0.0
 11
549.5108635756341
 21
-487.1213256978922
 31
0.0
  0
LINE
  5
21854
  8
0
 10
550.0108635756341
 20
-488.8213268612899
 30
0.0
 11
549.5108635756341
 21
-488.7213256978921
 31
0.0
  0
LINE
  5
21855
  8
0
 10
550.0108635756341
 20
-492.0213268612899
 30
0.0
 11
549.5108635756341
 21
-491.9213256978923
 31
0.0
  0
LINE
  5
21856
  8
0
 10
550.0108635756341
 20
-490.4213268612898
 30
0.0
 11
549.5108635756341
 21
-490.3213256978921
 31
0.0
  0
LINE
  5
21857
  8
0
 10
549.5108635756341
 20
-490.3213256978921
 30
0.0
 11
553.5108635756341
 21
-489.5213350050739
 31
0.0
  0
LINE
  5
21858
  8
0
 10
549.5108635756341
 20
-488.7213256978921
 30
0.0
 11
553.5108635756341
 21
-487.9213350050695
 31
0.0
  0
LINE
  5
21859
  8
0
 10
549.5108635756341
 20
-491.9213256978923
 30
0.0
 11
553.5108635756341
 21
-491.121335005074
 31
0.0
  0
LINE
  5
2185A
  8
0
 10
549.5108635756341
 20
-493.5213256978922
 30
0.0
 11
553.5108635756341
 21
-492.7213350050739
 31
0.0
  0
LINE
  5
2185B
  8
0
 10
550.0108635756341
 20
-503.2213268612984
 30
0.0
 11
549.5108635756341
 21
-503.1213256979007
 31
0.0
  0
LINE
  5
2185C
  8
0
 10
549.5108635756341
 20
-503.1213256979007
 30
0.0
 11
553.5108635756341
 21
-502.3213350050825
 31
0.0
  0
LINE
  5
2185D
  8
0
 10
553.5108635756341
 20
-502.3213350050825
 30
0.0
 11
553.0108635756341
 21
-502.2213338416848
 31
0.0
  0
LINE
  5
2185E
  8
0
 10
550.0108635756341
 20
-501.6213268612985
 30
0.0
 11
549.5108635756341
 21
-501.5213256979008
 31
0.0
  0
LINE
  5
2185F
  8
0
 10
550.0108635756341
 20
-500.0213268612986
 30
0.0
 11
549.5108635756341
 21
-499.9213256979009
 31
0.0
  0
LINE
  5
21860
  8
0
 10
549.5108635756341
 20
-499.9213256979009
 30
0.0
 11
553.5108635756341
 21
-499.1213350050826
 31
0.0
  0
LINE
  5
21861
  8
0
 10
553.5108635756341
 20
-500.7213350050826
 30
0.0
 11
553.0108635756341
 21
-500.6213338416849
 31
0.0
  0
LINE
  5
21862
  8
0
 10
553.5108635756341
 20
-499.1213350050826
 30
0.0
 11
553.0108635756341
 21
-499.021333841685
 31
0.0
  0
LINE
  5
21863
  8
0
 10
549.5108635756341
 20
-501.5213256979008
 30
0.0
 11
553.5108635756341
 21
-500.7213350050826
 31
0.0
  0
LINE
  5
21864
  8
0
 10
550.0108635756341
 20
-498.4213268612942
 30
0.0
 11
549.5108635756341
 21
-498.3213256978966
 31
0.0
  0
LINE
  5
21865
  8
0
 10
550.0108635756341
 20
-504.8213268612983
 30
0.0
 11
549.5108635756341
 21
-504.7213256979006
 31
0.0
  0
LINE
  5
21866
  8
0
 10
549.5108635756341
 20
-504.7213256979006
 30
0.0
 11
553.5108635756341
 21
-503.9213350050824
 31
0.0
  0
LINE
  5
21867
  8
0
 10
553.5108635756341
 20
-503.9213350050824
 30
0.0
 11
553.0108635756341
 21
-503.8213338416847
 31
0.0
  0
LINE
  5
21868
  8
0
 10
550.0108635756341
 20
-506.4213268612982
 30
0.0
 11
549.5108635756341
 21
-506.3213256979005
 31
0.0
  0
LINE
  5
21869
  8
0
 10
549.5108635756341
 20
-506.3213256979005
 30
0.0
 11
553.5108635756341
 21
-505.5213350050823
 31
0.0
  0
LINE
  5
2186A
  8
0
 10
553.5108635756341
 20
-505.5213350050823
 30
0.0
 11
553.0108635756341
 21
-505.4213338416847
 31
0.0
  0
LINE
  5
2186B
  8
0
 10
550.0108635756341
 20
-508.0213268612981
 30
0.0
 11
549.5108635756341
 21
-507.9213256979004
 31
0.0
  0
LINE
  5
2186C
  8
0
 10
549.5108635756341
 20
-507.9213256979004
 30
0.0
 11
553.5108635756341
 21
-507.1213350050822
 31
0.0
  0
LINE
  5
2186D
  8
0
 10
553.5108635756341
 20
-507.1213350050822
 30
0.0
 11
553.0108635756341
 21
-507.0213338416846
 31
0.0
  0
LINE
  5
2186E
  8
0
 10
444.5326459375659
 20
-474.0213268614605
 30
0.0
 11
443.0326459375659
 21
-479.3213233713221
 31
0.0
  0
LINE
  5
2186F
  8
0
 10
443.0326459375659
 20
-479.3213233713221
 30
0.0
 11
443.0326459375661
 21
-509.021323371214
 31
0.0
  0
LINE
  5
21870
  8
0
 10
444.5326459375659
 20
-474.0213268614605
 30
0.0
 11
446.032645937566
 21
-479.3213303517058
 31
0.0
  0
LINE
  5
21871
  8
0
 10
441.0325994016681
 20
-509.021318717516
 30
0.0
 11
448.032599401668
 21
-509.0213350050803
 31
0.0
  0
LINE
  5
21872
  8
0
 10
446.032645937566
 20
-479.3213303517058
 30
0.0
 11
446.0326459375661
 21
-509.0213303515987
 31
0.0
  0
LINE
  5
21873
  8
0
 10
441.0325994016681
 20
-509.021318717516
 30
0.0
 11
441.032599401668
 21
-510.1213222077113
 31
0.0
  0
ARC
  5
21874
  8
0
 10
442.532599401668
 20
-510.1213222077113
 30
0.0
 40
1.5
 50
180.0
 51
269.9998666844684
  0
LINE
  5
21875
  8
0
 10
448.032599401668
 20
-509.0213350050803
 30
0.0
 11
448.032599401668
 21
-510.1213315148909
 31
0.0
  0
LINE
  5
21876
  8
0
 10
442.5325959114756
 20
-511.6213222077072
 30
0.0
 11
446.5325959114756
 21
-511.6213315148868
 31
0.0
  0
ARC
  5
21877
  8
0
 10
446.532599401668
 20
-510.1213315148909
 30
0.0
 40
1.5
 50
269.9998666844684
 51
0.0
  0
LINE
  5
21878
  8
1CENTER
 10
444.532599401668
 20
-472.5905319439951
 30
0.0
 11
444.532599401668
 21
-512.691603270607
 31
0.0
  0
LINE
  5
21879
  8
0
 10
443.4382755876729
 20
-476.1213243151383
 30
0.0
 11
445.4006106765484
 21
-475.3213288810873
 31
0.0
  0
LINE
  5
2187A
  8
0
 10
445.4006106765484
 20
-475.3213288810873
 30
0.0
 11
444.8123341015059
 21
-475.0095590248352
 31
0.0
  0
LINE
  5
2187B
  8
0
 10
442.5326459375659
 20
-498.5213222079283
 30
0.0
 11
446.5326459375659
 21
-497.72133151511
 31
0.0
  0
LINE
  5
2187C
  8
0
 10
442.5326459375659
 20
-487.3213222079239
 30
0.0
 11
446.5326459375659
 21
-486.5213315151013
 31
0.0
  0
LINE
  5
2187D
  8
0
 10
442.5326459375659
 20
-484.1213222079239
 30
0.0
 11
446.5326459375659
 21
-483.3213315151013
 31
0.0
  0
LINE
  5
2187E
  8
0
 10
446.5326459375659
 20
-483.3213315151013
 30
0.0
 11
446.0326459375659
 21
-483.2213303517041
 31
0.0
  0
LINE
  5
2187F
  8
0
 10
443.0326459375659
 20
-482.6213233713211
 30
0.0
 11
442.5326459375659
 21
-482.5213222079238
 31
0.0
  0
LINE
  5
21880
  8
0
 10
446.5326459375659
 20
-486.5213315151013
 30
0.0
 11
446.0326459375659
 21
-486.4213303517041
 31
0.0
  0
LINE
  5
21881
  8
0
 10
446.5326459375659
 20
-484.9213315151012
 30
0.0
 11
446.0326459375659
 21
-484.8213303517041
 31
0.0
  0
LINE
  5
21882
  8
0
 10
443.0326459375659
 20
-484.221323371321
 30
0.0
 11
442.5326459375659
 21
-484.1213222079239
 31
0.0
  0
LINE
  5
21883
  8
0
 10
443.0326459375659
 20
-485.8213233713209
 30
0.0
 11
442.5326459375659
 21
-485.7213222079238
 31
0.0
  0
LINE
  5
21884
  8
0
 10
442.5326459375659
 20
-485.7213222079238
 30
0.0
 11
446.5326459375659
 21
-484.9213315151012
 31
0.0
  0
LINE
  5
21885
  8
0
 10
445.8534247809552
 20
-476.9213299346929
 30
0.0
 11
445.3016753171519
 21
-476.7385657920649
 31
0.0
  0
LINE
  5
21886
  8
0
 10
446.5326459375659
 20
-480.1213315151012
 30
0.0
 11
446.0326459375659
 21
-480.0213303517041
 31
0.0
  0
LINE
  5
21887
  8
0
 10
446.5326459375659
 20
-481.7213315151013
 30
0.0
 11
446.0326459375659
 21
-481.6213303517043
 31
0.0
  0
LINE
  5
21888
  8
0
 10
446.3062388853619
 20
-478.5213309882986
 30
0.0
 11
445.7696451500908
 21
-478.3920602906687
 31
0.0
  0
LINE
  5
21889
  8
0
 10
443.4535605347746
 20
-477.8340927738841
 30
0.0
 11
442.9854620796247
 21
-477.7213232615341
 31
0.0
  0
LINE
  5
2188A
  8
0
 10
443.0326459375659
 20
-481.0213233713209
 30
0.0
 11
442.5326459375659
 21
-480.9213222079238
 31
0.0
  0
LINE
  5
2188B
  8
0
 10
443.0326459375659
 20
-479.421323371321
 30
0.0
 11
442.5326459375659
 21
-479.3213222079239
 31
0.0
  0
LINE
  5
2188C
  8
0
 10
443.895447428304
 20
-476.2727601115787
 30
0.0
 11
443.4382755876729
 21
-476.1213243151383
 31
0.0
  0
LINE
  5
2188D
  8
0
 10
442.9854620796247
 20
-477.7213232615341
 30
0.0
 11
445.8534247809552
 21
-476.9213299346929
 31
0.0
  0
LINE
  5
2188E
  8
0
 10
442.5326459375659
 20
-480.9213222079238
 30
0.0
 11
446.5326459375659
 21
-480.1213315151012
 31
0.0
  0
LINE
  5
2188F
  8
0
 10
442.5326459375659
 20
-479.3213222079239
 30
0.0
 11
446.3062388853619
 21
-478.5213309882986
 31
0.0
  0
LINE
  5
21890
  8
0
 10
442.5326459375659
 20
-482.5213222079238
 30
0.0
 11
446.5326459375659
 21
-481.7213315151013
 31
0.0
  0
LINE
  5
21891
  8
0
 10
442.5326459375659
 20
-495.3213222079282
 30
0.0
 11
446.5326459375659
 21
-494.52133151511
 31
0.0
  0
LINE
  5
21892
  8
0
 10
446.5326459375659
 20
-494.52133151511
 30
0.0
 11
446.0326459375659
 21
-494.4213303517123
 31
0.0
  0
LINE
  5
21893
  8
0
 10
443.0326459375659
 20
-493.8213233713216
 30
0.0
 11
442.5326459375659
 21
-493.7213222079239
 31
0.0
  0
LINE
  5
21894
  8
0
 10
446.5326459375659
 20
-496.1213315151101
 30
0.0
 11
446.0326459375659
 21
-496.0213303517124
 31
0.0
  0
LINE
  5
21895
  8
0
 10
446.5326459375659
 20
-497.72133151511
 30
0.0
 11
446.0326459375659
 21
-497.6213303517123
 31
0.0
  0
LINE
  5
21896
  8
0
 10
443.0326459375659
 20
-495.4213233713259
 30
0.0
 11
442.5326459375659
 21
-495.3213222079282
 31
0.0
  0
LINE
  5
21897
  8
0
 10
443.0326459375659
 20
-497.021323371326
 30
0.0
 11
442.5326459375659
 21
-496.9213222079284
 31
0.0
  0
LINE
  5
21898
  8
0
 10
442.5326459375659
 20
-496.9213222079284
 30
0.0
 11
446.5326459375659
 21
-496.1213315151101
 31
0.0
  0
LINE
  5
21899
  8
0
 10
446.5326459375659
 20
-489.7213315151056
 30
0.0
 11
446.0326459375659
 21
-489.6213303517079
 31
0.0
  0
LINE
  5
2189A
  8
0
 10
446.5326459375659
 20
-488.1213315151012
 30
0.0
 11
446.0326459375659
 21
-488.0213303517041
 31
0.0
  0
LINE
  5
2189B
  8
0
 10
446.5326459375659
 20
-492.9213315151056
 30
0.0
 11
446.0326459375659
 21
-492.821330351708
 31
0.0
  0
LINE
  5
2189C
  8
0
 10
446.5326459375659
 20
-491.3213315151057
 30
0.0
 11
446.0326459375659
 21
-491.221330351708
 31
0.0
  0
LINE
  5
2189D
  8
0
 10
443.0326459375659
 20
-487.421323371321
 30
0.0
 11
442.5326459375659
 21
-487.3213222079239
 31
0.0
  0
LINE
  5
2189E
  8
0
 10
443.0326459375659
 20
-489.0213233713216
 30
0.0
 11
442.5326459375659
 21
-488.9213222079238
 31
0.0
  0
LINE
  5
2189F
  8
0
 10
443.0326459375659
 20
-492.2213233713217
 30
0.0
 11
442.5326459375659
 21
-492.121322207924
 31
0.0
  0
LINE
  5
218A0
  8
0
 10
443.0326459375659
 20
-490.6213233713215
 30
0.0
 11
442.5326459375659
 21
-490.5213222079238
 31
0.0
  0
LINE
  5
218A1
  8
0
 10
442.5326459375659
 20
-490.5213222079238
 30
0.0
 11
446.5326459375659
 21
-489.7213315151056
 31
0.0
  0
LINE
  5
218A2
  8
0
 10
442.5326459375659
 20
-488.9213222079238
 30
0.0
 11
446.5326459375659
 21
-488.1213315151012
 31
0.0
  0
LINE
  5
218A3
  8
0
 10
442.5326459375659
 20
-492.121322207924
 30
0.0
 11
446.5326459375659
 21
-491.3213315151057
 31
0.0
  0
LINE
  5
218A4
  8
0
 10
442.5326459375659
 20
-493.7213222079239
 30
0.0
 11
446.5326459375659
 21
-492.9213315151056
 31
0.0
  0
LINE
  5
218A5
  8
0
 10
443.0326459375659
 20
-503.4213233713301
 30
0.0
 11
442.5326459375659
 21
-503.3213222079324
 31
0.0
  0
LINE
  5
218A6
  8
0
 10
442.5326459375659
 20
-503.3213222079324
 30
0.0
 11
446.5326459375659
 21
-502.5213315151142
 31
0.0
  0
LINE
  5
218A7
  8
0
 10
446.5326459375659
 20
-502.5213315151142
 30
0.0
 11
446.0326459375659
 21
-502.4213303517165
 31
0.0
  0
LINE
  5
218A8
  8
0
 10
443.0326459375659
 20
-501.8213233713302
 30
0.0
 11
442.5326459375659
 21
-501.7213222079325
 31
0.0
  0
LINE
  5
218A9
  8
0
 10
443.0326459375659
 20
-500.2213233713303
 30
0.0
 11
442.5326459375659
 21
-500.1213222079326
 31
0.0
  0
LINE
  5
218AA
  8
0
 10
442.5326459375659
 20
-500.1213222079326
 30
0.0
 11
446.5326459375659
 21
-499.3213315151144
 31
0.0
  0
LINE
  5
218AB
  8
0
 10
446.5326459375659
 20
-500.9213315151143
 30
0.0
 11
446.0326459375659
 21
-500.8213303517166
 31
0.0
  0
LINE
  5
218AC
  8
0
 10
446.5326459375659
 20
-499.3213315151144
 30
0.0
 11
446.0326459375659
 21
-499.2213303517167
 31
0.0
  0
LINE
  5
218AD
  8
0
 10
442.5326459375659
 20
-501.7213222079325
 30
0.0
 11
446.5326459375659
 21
-500.9213315151143
 31
0.0
  0
LINE
  5
218AE
  8
0
 10
443.0326459375659
 20
-498.621323371326
 30
0.0
 11
442.5326459375659
 21
-498.5213222079283
 31
0.0
  0
LINE
  5
218AF
  8
0
 10
443.0326459375659
 20
-505.02132337133
 30
0.0
 11
442.5326459375659
 21
-504.9213222079323
 31
0.0
  0
LINE
  5
218B0
  8
0
 10
442.5326459375659
 20
-504.9213222079323
 30
0.0
 11
446.5326459375659
 21
-504.1213315151141
 31
0.0
  0
LINE
  5
218B1
  8
0
 10
446.5326459375659
 20
-504.1213315151141
 30
0.0
 11
446.0326459375659
 21
-504.0213303517164
 31
0.0
  0
LINE
  5
218B2
  8
0
 10
443.0326459375659
 20
-506.6213233713299
 30
0.0
 11
442.5326459375659
 21
-506.5213222079323
 31
0.0
  0
LINE
  5
218B3
  8
0
 10
442.5326459375659
 20
-506.5213222079323
 30
0.0
 11
446.5326459375659
 21
-505.7213315151141
 31
0.0
  0
LINE
  5
218B4
  8
0
 10
446.5326459375659
 20
-505.7213315151141
 30
0.0
 11
446.0326459375659
 21
-505.6213303517164
 31
0.0
  0
LINE
  5
218B5
  8
0
 10
443.0326459375659
 20
-508.2213233713298
 30
0.0
 11
442.5326459375659
 21
-508.1213222079322
 31
0.0
  0
LINE
  5
218B6
  8
0
 10
442.5326459375659
 20
-508.1213222079322
 30
0.0
 11
446.5326459375659
 21
-507.321331515114
 31
0.0
  0
LINE
  5
218B7
  8
0
 10
446.5326459375659
 20
-507.321331515114
 30
0.0
 11
446.0326459375659
 21
-507.2213303517163
 31
0.0
  0
LINE
  5
218B8
  8
1DIM1
 10
1865.523637566639
 20
-661.5833593958266
 30
0.0
 11
1865.523637566639
 21
-694.7425345370048
 31
0.0
1001
ACAD
1000
DSTYLE
1002
{
1070
    40
1040
3.0
1070
    45
1040
0.5
1002
}
  0
LINE
  5
218B9
  8
1DIM1
 10
1972.490348573303
 20
-661.5833593958266
 30
0.0
 11
1972.490348573303
 21
-694.7425345370048
 31
0.0
1001
ACAD
1000
DSTYLE
1002
{
1070
    40
1040
3.0
1070
    45
1040
0.5
1002
}
  0
LINE
  5
218BA
  8
1DIM1
 10
1871.523637566639
 20
-691.7425345370048
 30
0.0
 11
1966.490348573303
 21
-691.7425345370048
 31
0.0
1001
ACAD
1000
DSTYLE
1002
{
1070
    40
1040
3.0
1070
    45
1040
0.5
1002
}
  0
LINE
  5
218BE
  8
1DIM
 10
2128.495773314415
 20
-642.0833593489408
 30
0.0
 11
2087.995773145827
 21
-642.0833593489408
 31
0.0
1001
ACAD
1000
DSTYLE
1002
{
1070
    45
1040
0.5
1002
}
  0
LINE
  5
218BF
  8
1DIM
 10
2128.495773314415
 20
-636.0833593489408
 30
0.0
 11
2087.995773145827
 21
-636.0833593489408
 31
0.0
1001
ACAD
1000
DSTYLE
1002
{
1070
    45
1040
0.5
1002
}
  0
LINE
  5
218C0
  8
1DIM
 10
2088.995773145827
 20
-640.0833593489408
 30
0.0
 11
2088.995773145827
 21
-638.0833593489408
 31
0.0
1001
ACAD
1000
DSTYLE
1002
{
1070
    45
1040
0.5
1002
}
  0
LINE
  5
218C1
  8
1DIM
 10
2088.995773145827
 20
-636.0833593489408
 30
0.0
 11
2088.995773145827
 21
-630.5166926822741
 31
0.0
1001
ACAD
1000
DSTYLE
1002
{
1070
    45
1040
0.5
1002
}
  0
SOLID
  5
218C5
  8
1DIM
 10
2020.223766377028
 20
-634.094565363862
 30
0.0
 11
2020.618493619556
 21
-636.0833593489486
 31
0.0
 12
2019.600088719298
 22
-634.3300873876597
 32
0.0
 13
2019.600088719298
 23
-634.3300873876597
 33
0.0
1001
ACAD
1000
DSTYLE
1002
{
1070
    45
1040
0.5
1002
}
  0
LINE
  5
218C6
  8
1DIM
 10
2019.911927548163
 20
-634.2123263757608
 30
0.0
 11
2015.787254155537
 21
-623.2899226067573
 31
0.0
1001
ACAD
1000
DSTYLE
1002
{
1070
    45
1040
0.5
1002
}
  0
LINE
  5
218C7
  8
1DIM
 10
2015.787254155537
 20
-623.2899226067573
 30
0.0
 11
1952.287254155537
 21
-623.2899226067573
 31
0.0
1001
ACAD
1000
DSTYLE
1002
{
1070
    45
1040
0.5
1002
}
  0
TEXT
  5
218C8
  8
1DIM
  6
CONTINUOUS
 10
1940.3877171185
 20
-616.7565892734239
 30
0.0
 40
3.5
  1
Material\U+FF1AStainless Steel
  0
TEXT
  5
218C9
  8
1DIM
  6
CONTINUOUS
 10
1945.060865266648
 20
-622.5899226067572
 30
0.0
 40
3.5
  1
Finish\U+FF1AVarious Finishes
  0
LINE
  5
218CA
  8
1DIM
 10
2252.956687905669
 20
-655.0833593517837
 30
0.0
 11
2266.495773145827
 21
-655.0833593517837
 31
0.0
1001
ACAD
1000
DSTYLE
1002
{
1070
    45
1040
0.5
1070
   271
1070
     0
1002
}
  0
LINE
  5
218CB
  8
1DIM
 10
2223.495773314415
 20
-639.0833593489408
 30
0.0
 11
2266.495773145827
 21
-639.0833593489408
 31
0.0
1001
ACAD
1000
DSTYLE
1002
{
1070
    45
1040
0.5
1070
   271
1070
     0
1002
}
  0
LINE
  5
218CC
  8
1DIM
 10
2265.495773145827
 20
-653.0833593517837
 30
0.0
 11
2265.495773145827
 21
-641.0833593489408
 31
0.0
1001
ACAD
1000
DSTYLE
1002
{
1070
    45
1040
0.5
1070
   271
1070
     0
1002
}
  0
LINE
  5
218D0
  8
1DIM1
 10
1773.995773145827
 20
-641.0833593019825
 30
0.0
 11
1773.995773145827
 21
-714.6833593489421
 31
0.0
1001
ACAD
1000
DSTYLE
1002
{
1070
    40
1040
3.0
1070
    45
1040
0.5
1002
}
  0
LINE
  5
218D1
  8
1DIM1
 10
2063.995773145827
 20
-641.0833592899227
 30
0.0
 11
2063.995773145827
 21
-714.6833593489421
 31
0.0
1001
ACAD
1000
DSTYLE
1002
{
1070
    40
1040
3.0
1070
    45
1040
0.5
1002
}
  0
LINE
  5
218D2
  8
1DIM1
 10
1779.995773145827
 20
-711.6833593489421
 30
0.0
 11
2057.995773145827
 21
-711.6833593489421
 31
0.0
1001
ACAD
1000
DSTYLE
1002
{
1070
    40
1040
3.0
1070
    45
1040
0.5
1002
}
  0
LINE
  5
218D6
  8
1DIM
 10
2223.495773145827
 20
-670.0833593517872
 30
0.0
 11
2276.495773145827
 21
-670.0833593517872
 31
0.0
1001
ACAD
1000
DSTYLE
1002
{
1070
    45
1040
0.5
1002
}
  0
LINE
  5
218D7
  8
1DIM
 10
2223.495773314415
 20
-639.0833593489408
 30
0.0
 11
2276.495773145827
 21
-639.0833593489408
 31
0.0
1001
ACAD
1000
DSTYLE
1002
{
1070
    45
1040
0.5
1002
}
  0
LINE
  5
218D8
  8
1DIM
 10
2275.495773145827
 20
-668.0833593517872
 30
0.0
 11
2275.495773145827
 21
-641.0833593489408
 31
0.0
1001
ACAD
1000
DSTYLE
1002
{
1070
    45
1040
0.5
1002
}
  0
SOLID
  5
218DC
  8
1DIM
 10
2227.650379450228
 20
-616.7226789534749
 30
0.0
 11
2226.909444723535
 21
-618.610038707706
 31
0.0
 12
2226.998212247413
 22
-616.5843952450464
 32
0.0
 13
2226.998212247413
 23
-616.5843952450464
 33
0.0
1001
ACAD
1000
DSTYLE
1002
{
1070
    45
1040
0.5
1002
}
  0
LINE
  5
218DD
  8
1DIM
 10
2227.32429584882
 20
-616.6535370992606
 30
0.0
 11
2230.03328865665
 21
-603.8775110437906
 31
0.0
1001
ACAD
1000
DSTYLE
1002
{
1070
    45
1040
0.5
1002
}
  0
SOLID
  5
218DE
  8
1DIM
 10
2240.785797595393
 20
-616.7226789534749
 30
0.0
 11
2240.0448628687
 21
-618.610038707706
 31
0.0
 12
2240.133630392578
 22
-616.5843952450464
 32
0.0
 13
2240.133630392578
 23
-616.5843952450464
 33
0.0
1001
ACAD
1000
DSTYLE
1002
{
1070
    45
1040
0.5
1002
}
  0
LINE
  5
218DF
  8
1DIM
 10
2240.459713993985
 20
-616.6535370992606
 30
0.0
 11
2243.168706801815
 21
-603.8775110437906
 31
0.0
1001
ACAD
1000
DSTYLE
1002
{
1070
    45
1040
0.5
1002
}
  0
LINE
  5
218E0
  8
1DIM
 10
2123.98794959893
 20
-639.1982059571187
 30
0.0
 11
2123.98794959893
 21
-685.5534953764718
 31
0.0
1001
ACAD
1000
DSTYLE
1002
{
1070
    45
1040
0.5
1002
}
  0
LINE
  5
218E1
  8
1DIM
 10
2223.995773145827
 20
-673.3115329342227
 30
0.0
 11
2223.995773145827
 21
-685.5534953764718
 31
0.0
1001
ACAD
1000
DSTYLE
1002
{
1070
    45
1040
0.5
1002
}
  0
LINE
  5
218E2
  8
1DIM
 10
2125.98794959893
 20
-684.5534953764718
 30
0.0
 11
2221.995773145827
 21
-684.5534953764718
 31
0.0
1001
ACAD
1000
DSTYLE
1002
{
1070
    45
1040
0.5
1002
}
  0
LINE
  5
218E6
  8
1DIM
 10
2133.995773314415
 20
-638.2333593460958
 30
0.0
 11
2133.995773314415
 21
-676.6240774341045
 31
0.0
1001
ACAD
1000
DSTYLE
1002
{
1070
    45
1040
0.5
1002
}
  0
LINE
  5
218E7
  8
1DIM
 10
2223.995773145827
 20
-673.3115329342227
 30
0.0
 11
2223.995773145827
 21
-676.6240774341045
 31
0.0
1001
ACAD
1000
DSTYLE
1002
{
1070
    45
1040
0.5
1002
}
  0
LINE
  5
218E8
  8
1DIM
 10
2135.995773314415
 20
-675.6240774341045
 30
0.0
 11
2221.995773145827
 21
-675.6240774341045
 31
0.0
1001
ACAD
1000
DSTYLE
1002
{
1070
    45
1040
0.5
1002
}
  0
LINE
  5
218ED
  8
0
 10
1974.605041810427
 20
-654.456241562692
 30
0.0
 11
1973.1060054381
 21
-654.4562310988415
 31
0.0
  0
LINE
  5
218EE
  8
0
 10
1973.105994974311
 20
-652.9572034815913
 30
0.0
 11
1971.851755078604
 21
-652.9571947265144
 31
0.0
  0
LINE
  5
218EF
  8
0
 10
1973.105994974311
 20
-652.9572034815913
 30
0.0
 11
1973.1060054381
 21
-654.4562310988415
 31
0.0
  0
LINE
  5
218F0
  8
0
 10
1974.60503305535
 20
-655.7104814583984
 30
0.0
 11
1974.605041810427
 21
-654.456241562692
 31
0.0
  0
LINE
  5
218F1
  8
0
 10
1974.60503305535
 20
-655.7104814583984
 30
0.0
 11
1973.106014193323
 21
-655.7104919221265
 31
0.0
  0
LINE
  5
218F2
  8
0
 10
1973.106014193323
 20
-655.7104919221265
 30
0.0
 11
1973.106024657174
 21
-657.2095282947221
 31
0.0
  0
LINE
  5
218F3
  8
0
 10
1971.851735859469
 20
-655.7105006774718
 30
0.0
 11
1970.352708242219
 21
-655.7105111412613
 31
0.0
  0
LINE
  5
218F4
  8
0
 10
1971.851735859469
 20
-655.7105006774718
 30
0.0
 11
1971.851725395741
 21
-657.2095195392308
 31
0.0
  0
LINE
  5
218F5
  8
0
 10
1971.851725395741
 20
-657.2095195392308
 30
0.0
 11
1973.106024657174
 21
-657.2095282947221
 31
0.0
  0
LINE
  5
218F6
  8
0
 10
1971.851744614815
 20
-654.4562223436185
 30
0.0
 11
1970.352716997711
 21
-654.456211879829
 31
0.0
  0
LINE
  5
218F7
  8
0
 10
1970.352716997711
 20
-654.456211879829
 30
0.0
 11
1970.352708242219
 21
-655.7105111412613
 31
0.0
  0
LINE
  5
218F8
  8
0
 10
1971.851755078604
 20
-652.9571947265144
 30
0.0
 11
1971.851744614815
 21
-654.4562223436185
 31
0.0
  0
LINE
  5
218FA
  8
0
 10
1867.638330803763
 20
-654.456241562692
 30
0.0
 11
1866.139294431436
 21
-654.4562310988415
 31
0.0
  0
LINE
  5
218FB
  8
0
 10
1866.139283967647
 20
-652.9572034815913
 30
0.0
 11
1864.88504407194
 21
-652.9571947265144
 31
0.0
  0
LINE
  5
218FC
  8
0
 10
1866.139283967647
 20
-652.9572034815913
 30
0.0
 11
1866.139294431436
 21
-654.4562310988415
 31
0.0
  0
LINE
  5
218FD
  8
0
 10
1867.638322048686
 20
-655.7104814583984
 30
0.0
 11
1867.638330803763
 21
-654.456241562692
 31
0.0
  0
LINE
  5
218FE
  8
0
 10
1867.638322048686
 20
-655.7104814583984
 30
0.0
 11
1866.139303186659
 21
-655.7104919221265
 31
0.0
  0
LINE
  5
218FF
  8
0
 10
1866.139303186659
 20
-655.7104919221265
 30
0.0
 11
1866.13931365051
 21
-657.2095282947221
 31
0.0
  0
LINE
  5
21900
  8
0
 10
1864.885024852806
 20
-655.7105006774718
 30
0.0
 11
1863.385997235555
 21
-655.7105111412613
 31
0.0
  0
LINE
  5
21901
  8
0
 10
1864.885024852806
 20
-655.7105006774718
 30
0.0
 11
1864.885014389077
 21
-657.2095195392308
 31
0.0
  0
LINE
  5
21902
  8
0
 10
1864.885014389077
 20
-657.2095195392308
 30
0.0
 11
1866.13931365051
 21
-657.2095282947221
 31
0.0
  0
LINE
  5
21903
  8
0
 10
1864.885033608151
 20
-654.4562223436185
 30
0.0
 11
1863.386005991047
 21
-654.456211879829
 31
0.0
  0
LINE
  5
21904
  8
0
 10
1863.386005991047
 20
-654.456211879829
 30
0.0
 11
1863.385997235555
 21
-655.7105111412613
 31
0.0
  0
LINE
  5
21905
  8
0
 10
1864.88504407194
 20
-652.9571947265144
 30
0.0
 11
1864.885033608151
 21
-654.4562223436185
 31
0.0
  0
LINE
  5
21906
  8
0
 10
1972.490395106096
 20
-469.2686277649952
 30
0.0
 11
1970.990395106096
 21
-474.5686242748569
 31
0.0
  0
LINE
  5
21907
  8
0
 10
1970.990395106096
 20
-474.5686242748569
 30
0.0
 11
1970.990395106096
 21
-504.2686242747488
 31
0.0
  0
LINE
  5
21908
  8
0
 10
1972.490395106096
 20
-469.2686277649952
 30
0.0
 11
1973.990395106096
 21
-474.5686312552406
 31
0.0
  0
LINE
  5
21909
  8
0
 10
1968.990348570198
 20
-504.2686196210507
 30
0.0
 11
1975.990348570198
 21
-504.2686359086151
 31
0.0
  0
LINE
  5
2190A
  8
0
 10
1973.990395106096
 20
-474.5686312552406
 30
0.0
 11
1973.990395106096
 21
-504.2686312551335
 31
0.0
  0
LINE
  5
2190B
  8
0
 10
1968.990348570198
 20
-504.2686196210507
 30
0.0
 11
1968.990348570198
 21
-505.3686231112461
 31
0.0
  0
ARC
  5
2190C
  8
0
 10
1970.490348570198
 20
-505.3686231112461
 30
0.0
 40
1.5
 50
180.0
 51
269.9998666844662
  0
LINE
  5
2190D
  8
0
 10
1975.990348570198
 20
-504.2686359086151
 30
0.0
 11
1975.990348570198
 21
-505.3686324184256
 31
0.0
  0
LINE
  5
2190E
  8
0
 10
1970.490345080006
 20
-506.868623111242
 30
0.0
 11
1974.490345080006
 21
-506.8686324184216
 31
0.0
  0
ARC
  5
2190F
  8
0
 10
1974.490348570198
 20
-505.3686324184256
 30
0.0
 40
1.5
 50
269.9998666844662
 51
0.0
  0
LINE
  5
21910
  8
1CENTER
 10
1972.490348570198
 20
-467.8378328475299
 30
0.0
 11
1972.490348570198
 21
-507.9389041741417
 31
0.0
  0
LINE
  5
21911
  8
0
 10
1971.396024756203
 20
-471.3686252186731
 30
0.0
 11
1973.358359845079
 21
-470.5686297846221
 31
0.0
  0
LINE
  5
21912
  8
0
 10
1973.358359845079
 20
-470.5686297846221
 30
0.0
 11
1972.770083270036
 21
-470.25685992837
 31
0.0
  0
LINE
  5
21913
  8
0
 10
1970.490395106096
 20
-493.7686231114631
 30
0.0
 11
1974.490395106096
 21
-492.9686324186448
 31
0.0
  0
LINE
  5
21914
  8
0
 10
1970.490395106096
 20
-482.5686231114587
 30
0.0
 11
1974.490395106096
 21
-481.7686324186361
 31
0.0
  0
LINE
  5
21915
  8
0
 10
1970.490395106096
 20
-479.3686231114586
 30
0.0
 11
1974.490395106096
 21
-478.5686324186361
 31
0.0
  0
LINE
  5
21916
  8
0
 10
1974.490395106096
 20
-478.5686324186361
 30
0.0
 11
1973.990395106096
 21
-478.4686312552388
 31
0.0
  0
LINE
  5
21917
  8
0
 10
1970.990395106096
 20
-477.8686242748558
 30
0.0
 11
1970.490395106096
 21
-477.7686231114586
 31
0.0
  0
LINE
  5
21918
  8
0
 10
1974.490395106096
 20
-481.7686324186361
 30
0.0
 11
1973.990395106096
 21
-481.6686312552389
 31
0.0
  0
LINE
  5
21919
  8
0
 10
1974.490395106096
 20
-480.168632418636
 30
0.0
 11
1973.990395106096
 21
-480.0686312552389
 31
0.0
  0
LINE
  5
2191A
  8
0
 10
1970.990395106096
 20
-479.4686242748558
 30
0.0
 11
1970.490395106096
 21
-479.3686231114586
 31
0.0
  0
LINE
  5
2191B
  8
0
 10
1970.990395106096
 20
-481.0686242748557
 30
0.0
 11
1970.490395106096
 21
-480.9686231114586
 31
0.0
  0
LINE
  5
2191C
  8
0
 10
1970.490395106096
 20
-480.9686231114586
 30
0.0
 11
1974.490395106096
 21
-480.168632418636
 31
0.0
  0
LINE
  5
2191D
  8
0
 10
1973.811173949486
 20
-472.1686308382277
 30
0.0
 11
1973.259424485682
 21
-471.9858666955997
 31
0.0
  0
LINE
  5
2191E
  8
0
 10
1974.490395106096
 20
-475.368632418636
 30
0.0
 11
1973.990395106096
 21
-475.2686312552389
 31
0.0
  0
LINE
  5
2191F
  8
0
 10
1974.490395106096
 20
-476.968632418636
 30
0.0
 11
1973.990395106096
 21
-476.8686312552391
 31
0.0
  0
LINE
  5
21920
  8
0
 10
1974.263988053892
 20
-473.7686318918334
 30
0.0
 11
1973.727394318621
 21
-473.6393611942035
 31
0.0
  0
LINE
  5
21921
  8
0
 10
1971.411309703305
 20
-473.0813936774189
 30
0.0
 11
1970.943211248155
 21
-472.9686241650688
 31
0.0
  0
LINE
  5
21922
  8
0
 10
1970.990395106096
 20
-476.2686242748557
 30
0.0
 11
1970.490395106096
 21
-476.1686231114586
 31
0.0
  0
LINE
  5
21923
  8
0
 10
1970.990395106096
 20
-474.6686242748558
 30
0.0
 11
1970.490395106096
 21
-474.5686231114587
 31
0.0
  0
LINE
  5
21924
  8
0
 10
1971.853196596835
 20
-471.5200610151135
 30
0.0
 11
1971.396024756203
 21
-471.3686252186731
 31
0.0
  0
LINE
  5
21925
  8
0
 10
1970.943211248155
 20
-472.9686241650688
 30
0.0
 11
1973.811173949486
 21
-472.1686308382277
 31
0.0
  0
LINE
  5
21926
  8
0
 10
1970.490395106096
 20
-476.1686231114586
 30
0.0
 11
1974.490395106096
 21
-475.368632418636
 31
0.0
  0
LINE
  5
21927
  8
0
 10
1970.490395106096
 20
-474.5686231114587
 30
0.0
 11
1974.263988053892
 21
-473.7686318918334
 31
0.0
  0
LINE
  5
21928
  8
0
 10
1970.490395106096
 20
-477.7686231114586
 30
0.0
 11
1974.490395106096
 21
-476.968632418636
 31
0.0
  0
LINE
  5
21929
  8
0
 10
1970.490395106096
 20
-490.568623111463
 30
0.0
 11
1974.490395106096
 21
-489.7686324186448
 31
0.0
  0
LINE
  5
2192A
  8
0
 10
1974.490395106096
 20
-489.7686324186448
 30
0.0
 11
1973.990395106096
 21
-489.6686312552471
 31
0.0
  0
LINE
  5
2192B
  8
0
 10
1970.990395106096
 20
-489.0686242748563
 30
0.0
 11
1970.490395106096
 21
-488.9686231114587
 31
0.0
  0
LINE
  5
2192C
  8
0
 10
1974.490395106096
 20
-491.3686324186449
 30
0.0
 11
1973.990395106096
 21
-491.2686312552472
 31
0.0
  0
LINE
  5
2192D
  8
0
 10
1974.490395106096
 20
-492.9686324186448
 30
0.0
 11
1973.990395106096
 21
-492.8686312552471
 31
0.0
  0
LINE
  5
2192E
  8
0
 10
1970.990395106096
 20
-490.6686242748607
 30
0.0
 11
1970.490395106096
 21
-490.568623111463
 31
0.0
  0
LINE
  5
2192F
  8
0
 10
1970.990395106096
 20
-492.2686242748608
 30
0.0
 11
1970.490395106096
 21
-492.1686231114631
 31
0.0
  0
LINE
  5
21930
  8
0
 10
1970.490395106096
 20
-492.1686231114631
 30
0.0
 11
1974.490395106096
 21
-491.3686324186449
 31
0.0
  0
LINE
  5
21931
  8
0
 10
1974.490395106096
 20
-484.9686324186404
 30
0.0
 11
1973.990395106096
 21
-484.8686312552427
 31
0.0
  0
LINE
  5
21932
  8
0
 10
1974.490395106096
 20
-483.368632418636
 30
0.0
 11
1973.990395106096
 21
-483.2686312552389
 31
0.0
  0
LINE
  5
21933
  8
0
 10
1974.490395106096
 20
-488.1686324186404
 30
0.0
 11
1973.990395106096
 21
-488.0686312552427
 31
0.0
  0
LINE
  5
21934
  8
0
 10
1974.490395106096
 20
-486.5686324186405
 30
0.0
 11
1973.990395106096
 21
-486.4686312552428
 31
0.0
  0
LINE
  5
21935
  8
0
 10
1970.990395106096
 20
-482.6686242748558
 30
0.0
 11
1970.490395106096
 21
-482.5686231114587
 31
0.0
  0
LINE
  5
21936
  8
0
 10
1970.990395106096
 20
-484.2686242748564
 30
0.0
 11
1970.490395106096
 21
-484.1686231114586
 31
0.0
  0
LINE
  5
21937
  8
0
 10
1970.990395106096
 20
-487.4686242748564
 30
0.0
 11
1970.490395106096
 21
-487.3686231114588
 31
0.0
  0
LINE
  5
21938
  8
0
 10
1970.990395106096
 20
-485.8686242748563
 30
0.0
 11
1970.490395106096
 21
-485.7686231114586
 31
0.0
  0
LINE
  5
21939
  8
0
 10
1970.490395106096
 20
-485.7686231114586
 30
0.0
 11
1974.490395106096
 21
-484.9686324186404
 31
0.0
  0
LINE
  5
2193A
  8
0
 10
1970.490395106096
 20
-484.1686231114586
 30
0.0
 11
1974.490395106096
 21
-483.368632418636
 31
0.0
  0
LINE
  5
2193B
  8
0
 10
1970.490395106096
 20
-487.3686231114588
 30
0.0
 11
1974.490395106096
 21
-486.5686324186405
 31
0.0
  0
LINE
  5
2193C
  8
0
 10
1970.490395106096
 20
-488.9686231114587
 30
0.0
 11
1974.490395106096
 21
-488.1686324186404
 31
0.0
  0
LINE
  5
2193D
  8
0
 10
1970.990395106096
 20
-498.6686242748649
 30
0.0
 11
1970.490395106096
 21
-498.5686231114672
 31
0.0
  0
LINE
  5
2193E
  8
0
 10
1970.490395106096
 20
-498.5686231114672
 30
0.0
 11
1974.490395106096
 21
-497.768632418649
 31
0.0
  0
LINE
  5
2193F
  8
0
 10
1974.490395106096
 20
-497.768632418649
 30
0.0
 11
1973.990395106096
 21
-497.6686312552513
 31
0.0
  0
LINE
  5
21940
  8
0
 10
1970.990395106096
 20
-497.068624274865
 30
0.0
 11
1970.490395106096
 21
-496.9686231114673
 31
0.0
  0
LINE
  5
21941
  8
0
 10
1970.990395106096
 20
-495.4686242748651
 30
0.0
 11
1970.490395106096
 21
-495.3686231114674
 31
0.0
  0
LINE
  5
21942
  8
0
 10
1970.490395106096
 20
-495.3686231114674
 30
0.0
 11
1974.490395106096
 21
-494.5686324186491
 31
0.0
  0
LINE
  5
21943
  8
0
 10
1974.490395106096
 20
-496.1686324186491
 30
0.0
 11
1973.990395106096
 21
-496.0686312552514
 31
0.0
  0
LINE
  5
21944
  8
0
 10
1974.490395106096
 20
-494.5686324186491
 30
0.0
 11
1973.990395106096
 21
-494.4686312552515
 31
0.0
  0
LINE
  5
21945
  8
0
 10
1970.490395106096
 20
-496.9686231114673
 30
0.0
 11
1974.490395106096
 21
-496.1686324186491
 31
0.0
  0
LINE
  5
21946
  8
0
 10
1970.990395106096
 20
-493.8686242748607
 30
0.0
 11
1970.490395106096
 21
-493.7686231114631
 31
0.0
  0
LINE
  5
21947
  8
0
 10
1970.990395106096
 20
-500.2686242748648
 30
0.0
 11
1970.490395106096
 21
-500.1686231114671
 31
0.0
  0
LINE
  5
21948
  8
0
 10
1970.490395106096
 20
-500.1686231114671
 30
0.0
 11
1974.490395106096
 21
-499.3686324186489
 31
0.0
  0
LINE
  5
21949
  8
0
 10
1974.490395106096
 20
-499.3686324186489
 30
0.0
 11
1973.990395106096
 21
-499.2686312552512
 31
0.0
  0
LINE
  5
2194A
  8
0
 10
1970.990395106096
 20
-501.8686242748647
 30
0.0
 11
1970.490395106096
 21
-501.768623111467
 31
0.0
  0
LINE
  5
2194B
  8
0
 10
1970.490395106096
 20
-501.768623111467
 30
0.0
 11
1974.490395106096
 21
-500.9686324186488
 31
0.0
  0
LINE
  5
2194C
  8
0
 10
1974.490395106096
 20
-500.9686324186488
 30
0.0
 11
1973.990395106096
 21
-500.8686312552512
 31
0.0
  0
LINE
  5
2194D
  8
0
 10
1970.990395106096
 20
-503.4686242748646
 30
0.0
 11
1970.490395106096
 21
-503.3686231114669
 31
0.0
  0
LINE
  5
2194E
  8
0
 10
1970.490395106096
 20
-503.3686231114669
 30
0.0
 11
1974.490395106096
 21
-502.5686324186487
 31
0.0
  0
LINE
  5
2194F
  8
0
 10
1974.490395106096
 20
-502.5686324186487
 30
0.0
 11
1973.990395106096
 21
-502.4686312552511
 31
0.0
  0
LINE
  5
21950
  8
0
 10
1865.512177468028
 20
-474.0213268614605
 30
0.0
 11
1864.012177468028
 21
-479.3213233713221
 31
0.0
  0
LINE
  5
21951
  8
0
 10
1864.012177468028
 20
-479.3213233713221
 30
0.0
 11
1864.012177468028
 21
-509.021323371214
 31
0.0
  0
LINE
  5
21952
  8
0
 10
1865.512177468028
 20
-474.0213268614605
 30
0.0
 11
1867.012177468028
 21
-479.3213303517058
 31
0.0
  0
LINE
  5
21953
  8
0
 10
1862.01213093213
 20
-509.021318717516
 30
0.0
 11
1869.01213093213
 21
-509.0213350050803
 31
0.0
  0
LINE
  5
21954
  8
0
 10
1867.012177468028
 20
-479.3213303517058
 30
0.0
 11
1867.012177468028
 21
-509.0213303515987
 31
0.0
  0
LINE
  5
21955
  8
0
 10
1862.01213093213
 20
-509.021318717516
 30
0.0
 11
1862.01213093213
 21
-510.1213222077113
 31
0.0
  0
ARC
  5
21956
  8
0
 10
1863.51213093213
 20
-510.1213222077113
 30
0.0
 40
1.5
 50
180.0
 51
269.9998666844662
  0
LINE
  5
21957
  8
0
 10
1869.01213093213
 20
-509.0213350050803
 30
0.0
 11
1869.01213093213
 21
-510.1213315148909
 31
0.0
  0
LINE
  5
21958
  8
0
 10
1863.512127441938
 20
-511.6213222077072
 30
0.0
 11
1867.512127441938
 21
-511.6213315148868
 31
0.0
  0
ARC
  5
21959
  8
0
 10
1867.51213093213
 20
-510.1213315148909
 30
0.0
 40
1.5
 50
269.9998666844662
 51
0.0
  0
LINE
  5
2195A
  8
1CENTER
 10
1865.51213093213
 20
-472.5905319439951
 30
0.0
 11
1865.51213093213
 21
-512.691603270607
 31
0.0
  0
LINE
  5
2195B
  8
0
 10
1864.417807118135
 20
-476.1213243151383
 30
0.0
 11
1866.380142207011
 21
-475.3213288810873
 31
0.0
  0
LINE
  5
2195C
  8
0
 10
1866.380142207011
 20
-475.3213288810873
 30
0.0
 11
1865.791865631968
 21
-475.0095590248352
 31
0.0
  0
LINE
  5
2195D
  8
0
 10
1863.512177468028
 20
-498.5213222079283
 30
0.0
 11
1867.512177468028
 21
-497.72133151511
 31
0.0
  0
LINE
  5
2195E
  8
0
 10
1863.512177468028
 20
-487.3213222079239
 30
0.0
 11
1867.512177468028
 21
-486.5213315151013
 31
0.0
  0
LINE
  5
2195F
  8
0
 10
1863.512177468028
 20
-484.1213222079239
 30
0.0
 11
1867.512177468028
 21
-483.3213315151013
 31
0.0
  0
LINE
  5
21960
  8
0
 10
1867.512177468028
 20
-483.3213315151013
 30
0.0
 11
1867.012177468028
 21
-483.2213303517041
 31
0.0
  0
LINE
  5
21961
  8
0
 10
1864.012177468028
 20
-482.6213233713211
 30
0.0
 11
1863.512177468028
 21
-482.5213222079238
 31
0.0
  0
LINE
  5
21962
  8
0
 10
1867.512177468028
 20
-486.5213315151013
 30
0.0
 11
1867.012177468028
 21
-486.4213303517041
 31
0.0
  0
LINE
  5
21963
  8
0
 10
1867.512177468028
 20
-484.9213315151012
 30
0.0
 11
1867.012177468028
 21
-484.8213303517041
 31
0.0
  0
LINE
  5
21964
  8
0
 10
1864.012177468028
 20
-484.221323371321
 30
0.0
 11
1863.512177468028
 21
-484.1213222079239
 31
0.0
  0
LINE
  5
21965
  8
0
 10
1864.012177468028
 20
-485.8213233713209
 30
0.0
 11
1863.512177468028
 21
-485.7213222079238
 31
0.0
  0
LINE
  5
21966
  8
0
 10
1863.512177468028
 20
-485.7213222079238
 30
0.0
 11
1867.512177468028
 21
-484.9213315151012
 31
0.0
  0
LINE
  5
21967
  8
0
 10
1866.832956311418
 20
-476.9213299346929
 30
0.0
 11
1866.281206847614
 21
-476.7385657920649
 31
0.0
  0
LINE
  5
21968
  8
0
 10
1867.512177468028
 20
-480.1213315151012
 30
0.0
 11
1867.012177468028
 21
-480.0213303517041
 31
0.0
  0
LINE
  5
21969
  8
0
 10
1867.512177468028
 20
-481.7213315151013
 30
0.0
 11
1867.012177468028
 21
-481.6213303517043
 31
0.0
  0
LINE
  5
2196A
  8
0
 10
1867.285770415824
 20
-478.5213309882986
 30
0.0
 11
1866.749176680553
 21
-478.3920602906687
 31
0.0
  0
LINE
  5
2196B
  8
0
 10
1864.433092065237
 20
-477.8340927738841
 30
0.0
 11
1863.964993610087
 21
-477.7213232615341
 31
0.0
  0
LINE
  5
2196C
  8
0
 10
1864.012177468028
 20
-481.0213233713209
 30
0.0
 11
1863.512177468028
 21
-480.9213222079238
 31
0.0
  0
LINE
  5
2196D
  8
0
 10
1864.012177468028
 20
-479.421323371321
 30
0.0
 11
1863.512177468028
 21
-479.3213222079239
 31
0.0
  0
LINE
  5
2196E
  8
0
 10
1864.874978958766
 20
-476.2727601115787
 30
0.0
 11
1864.417807118135
 21
-476.1213243151383
 31
0.0
  0
LINE
  5
2196F
  8
0
 10
1863.964993610087
 20
-477.7213232615341
 30
0.0
 11
1866.832956311418
 21
-476.9213299346929
 31
0.0
  0
LINE
  5
21970
  8
0
 10
1863.512177468028
 20
-480.9213222079238
 30
0.0
 11
1867.512177468028
 21
-480.1213315151012
 31
0.0
  0
LINE
  5
21971
  8
0
 10
1863.512177468028
 20
-479.3213222079239
 30
0.0
 11
1867.285770415824
 21
-478.5213309882986
 31
0.0
  0
LINE
  5
21972
  8
0
 10
1863.512177468028
 20
-482.5213222079238
 30
0.0
 11
1867.512177468028
 21
-481.7213315151013
 31
0.0
  0
LINE
  5
21973
  8
0
 10
1863.512177468028
 20
-495.3213222079282
 30
0.0
 11
1867.512177468028
 21
-494.52133151511
 31
0.0
  0
LINE
  5
21974
  8
0
 10
1867.512177468028
 20
-494.52133151511
 30
0.0
 11
1867.012177468028
 21
-494.4213303517123
 31
0.0
  0
LINE
  5
21975
  8
0
 10
1864.012177468028
 20
-493.8213233713216
 30
0.0
 11
1863.512177468028
 21
-493.7213222079239
 31
0.0
  0
LINE
  5
21976
  8
0
 10
1867.512177468028
 20
-496.1213315151101
 30
0.0
 11
1867.012177468028
 21
-496.0213303517124
 31
0.0
  0
LINE
  5
21977
  8
0
 10
1867.512177468028
 20
-497.72133151511
 30
0.0
 11
1867.012177468028
 21
-497.6213303517123
 31
0.0
  0
LINE
  5
21978
  8
0
 10
1864.012177468028
 20
-495.4213233713259
 30
0.0
 11
1863.512177468028
 21
-495.3213222079282
 31
0.0
  0
LINE
  5
21979
  8
0
 10
1864.012177468028
 20
-497.021323371326
 30
0.0
 11
1863.512177468028
 21
-496.9213222079284
 31
0.0
  0
LINE
  5
2197A
  8
0
 10
1863.512177468028
 20
-496.9213222079284
 30
0.0
 11
1867.512177468028
 21
-496.1213315151101
 31
0.0
  0
LINE
  5
2197B
  8
0
 10
1867.512177468028
 20
-489.7213315151056
 30
0.0
 11
1867.012177468028
 21
-489.6213303517079
 31
0.0
  0
LINE
  5
2197C
  8
0
 10
1867.512177468028
 20
-488.1213315151012
 30
0.0
 11
1867.012177468028
 21
-488.0213303517041
 31
0.0
  0
LINE
  5
2197D
  8
0
 10
1867.512177468028
 20
-492.9213315151056
 30
0.0
 11
1867.012177468028
 21
-492.821330351708
 31
0.0
  0
LINE
  5
2197E
  8
0
 10
1867.512177468028
 20
-491.3213315151057
 30
0.0
 11
1867.012177468028
 21
-491.221330351708
 31
0.0
  0
LINE
  5
2197F
  8
0
 10
1864.012177468028
 20
-487.421323371321
 30
0.0
 11
1863.512177468028
 21
-487.3213222079239
 31
0.0
  0
LINE
  5
21980
  8
0
 10
1864.012177468028
 20
-489.0213233713216
 30
0.0
 11
1863.512177468028
 21
-488.9213222079238
 31
0.0
  0
LINE
  5
21981
  8
0
 10
1864.012177468028
 20
-492.2213233713217
 30
0.0
 11
1863.512177468028
 21
-492.121322207924
 31
0.0
  0
LINE
  5
21982
  8
0
 10
1864.012177468028
 20
-490.6213233713215
 30
0.0
 11
1863.512177468028
 21
-490.5213222079238
 31
0.0
  0
LINE
  5
21983
  8
0
 10
1863.512177468028
 20
-490.5213222079238
 30
0.0
 11
1867.512177468028
 21
-489.7213315151056
 31
0.0
  0
LINE
  5
21984
  8
0
 10
1863.512177468028
 20
-488.9213222079238
 30
0.0
 11
1867.512177468028
 21
-488.1213315151012
 31
0.0
  0
LINE
  5
21985
  8
0
 10
1863.512177468028
 20
-492.121322207924
 30
0.0
 11
1867.512177468028
 21
-491.3213315151057
 31
0.0
  0
LINE
  5
21986
  8
0
 10
1863.512177468028
 20
-493.7213222079239
 30
0.0
 11
1867.512177468028
 21
-492.9213315151056
 31
0.0
  0
LINE
  5
21987
  8
0
 10
1864.012177468028
 20
-503.4213233713301
 30
0.0
 11
1863.512177468028
 21
-503.3213222079324
 31
0.0
  0
LINE
  5
21988
  8
0
 10
1863.512177468028
 20
-503.3213222079324
 30
0.0
 11
1867.512177468028
 21
-502.5213315151142
 31
0.0
  0
LINE
  5
21989
  8
0
 10
1867.512177468028
 20
-502.5213315151142
 30
0.0
 11
1867.012177468028
 21
-502.4213303517165
 31
0.0
  0
LINE
  5
2198A
  8
0
 10
1864.012177468028
 20
-501.8213233713302
 30
0.0
 11
1863.512177468028
 21
-501.7213222079325
 31
0.0
  0
LINE
  5
2198B
  8
0
 10
1864.012177468028
 20
-500.2213233713303
 30
0.0
 11
1863.512177468028
 21
-500.1213222079326
 31
0.0
  0
LINE
  5
2198C
  8
0
 10
1863.512177468028
 20
-500.1213222079326
 30
0.0
 11
1867.512177468028
 21
-499.3213315151144
 31
0.0
  0
LINE
  5
2198D
  8
0
 10
1867.512177468028
 20
-500.9213315151143
 30
0.0
 11
1867.012177468028
 21
-500.8213303517166
 31
0.0
  0
LINE
  5
2198E
  8
0
 10
1867.512177468028
 20
-499.3213315151144
 30
0.0
 11
1867.012177468028
 21
-499.2213303517167
 31
0.0
  0
LINE
  5
2198F
  8
0
 10
1863.512177468028
 20
-501.7213222079325
 30
0.0
 11
1867.512177468028
 21
-500.9213315151143
 31
0.0
  0
LINE
  5
21990
  8
0
 10
1864.012177468028
 20
-498.621323371326
 30
0.0
 11
1863.512177468028
 21
-498.5213222079283
 31
0.0
  0
LINE
  5
21991
  8
0
 10
1864.012177468028
 20
-505.02132337133
 30
0.0
 11
1863.512177468028
 21
-504.9213222079323
 31
0.0
  0
LINE
  5
21992
  8
0
 10
1863.512177468028
 20
-504.9213222079323
 30
0.0
 11
1867.512177468028
 21
-504.1213315151141
 31
0.0
  0
LINE
  5
21993
  8
0
 10
1867.512177468028
 20
-504.1213315151141
 30
0.0
 11
1867.012177468028
 21
-504.0213303517164
 31
0.0
  0
LINE
  5
21994
  8
0
 10
1864.012177468028
 20
-506.6213233713299
 30
0.0
 11
1863.512177468028
 21
-506.5213222079323
 31
0.0
  0
LINE
  5
21995
  8
0
 10
1863.512177468028
 20
-506.5213222079323
 30
0.0
 11
1867.512177468028
 21
-505.7213315151141
 31
0.0
  0
LINE
  5
21996
  8
0
 10
1867.512177468028
 20
-505.7213315151141
 30
0.0
 11
1867.012177468028
 21
-505.6213303517164
 31
0.0
  0
LINE
  5
21997
  8
0
 10
1864.012177468028
 20
-508.2213233713298
 30
0.0
 11
1863.512177468028
 21
-508.1213222079322
 31
0.0
  0
LINE
  5
21998
  8
0
 10
1863.512177468028
 20
-508.1213222079322
 30
0.0
 11
1867.512177468028
 21
-507.321331515114
 31
0.0
  0
LINE
  5
21999
  8
0
 10
1867.512177468028
 20
-507.321331515114
 30
0.0
 11
1867.012177468028
 21
-507.2213303517163
 31
0.0
  0
LINE
  5
2199A
  8
0
  6
BYBLOCK
 10
450.5441060361766
 20
-713.0882006793304
 30
0.0
 11
444.5441060361766
 21
-711.4805055393304
 31
0.0
  0
LINE
  5
2199B
  8
0
  6
BYBLOCK
 10
444.5441060361766
 20
-711.4805055393304
 30
0.0
 11
450.5441060361766
 21
-709.8728103993303
 31
0.0
  0
LINE
  5
2199C
  8
0
  6
BYBLOCK
 10
444.5441060361766
 20
-711.4805055393304
 30
0.0
 11
450.5441060361766
 21
-711.4805055393304
 31
0.0
  0
LINE
  5
2199D
  8
0
  6
BYBLOCK
 10
545.5108170428405
 20
-709.8728103993303
 30
0.0
 11
551.5108170428405
 21
-711.4805055393304
 31
0.0
  0
LINE
  5
2199E
  8
0
  6
BYBLOCK
 10
551.5108170428405
 20
-711.4805055393304
 30
0.0
 11
545.5108170428405
 21
-713.0882006793304
 31
0.0
  0
LINE
  5
2199F
  8
0
  6
BYBLOCK
 10
551.5108170428405
 20
-711.4805055393304
 30
0.0
 11
545.5108170428405
 21
-711.4805055393304
 31
0.0
  0
TEXT
  5
219A0
  8
1DIM1
  6
CONTINUOUS
 10
481.4024615395085
 20
-709.3805055393303
 30
0.0
 40
10.5
  1
P107
1001
ACAD
1000
DSTYLE
1002
{
1070
    40
1040
3.0
1070
    45
1040
0.5
1002
}
  0
LINE
  5
219A1
  8
0
  6
BYBLOCK
 10
668.5521399953651
 20
-659.8213303512664
 30
0.0
 11
668.0162416153651
 21
-661.8213303512664
 31
0.0
  0
LINE
  5
219A2
  8
0
  6
BYBLOCK
 10
668.0162416153651
 20
-661.8213303512664
 30
0.0
 11
667.480343235365
 21
-659.8213303512664
 31
0.0
  0
LINE
  5
219A3
  8
0
  6
BYBLOCK
 10
668.0162416153651
 20
-661.8213303512664
 30
0.0
 11
668.0162416153651
 21
-659.8213303512664
 31
0.0
  0
LINE
  5
219A4
  8
0
  6
BYBLOCK
 10
667.480343235365
 20
-657.8213303512664
 30
0.0
 11
668.0162416153651
 21
-655.8213303512664
 31
0.0
  0
LINE
  5
219A5
  8
0
  6
BYBLOCK
 10
668.0162416153651
 20
-655.8213303512664
 30
0.0
 11
668.5521399953651
 21
-657.8213303512664
 31
0.0
  0
LINE
  5
219A6
  8
0
  6
BYBLOCK
 10
668.0162416153651
 20
-655.8213303512664
 30
0.0
 11
668.0162416153651
 21
-657.8213303512664
 31
0.0
  0
TEXT
  5
219A7
  8
1DIM
  6
CONTINUOUS
 10
667.316241615365
 20
-653.2046636845995
 30
0.0
 40
3.5
  1
6
 50
90.0
1001
ACAD
1000
DSTYLE
1002
{
1070
    45
1040
0.5
1002
}
  0
LINE
  5
219A8
  8
0
  6
BYBLOCK
 10
845.052139995365
 20
-672.8213303541093
 30
0.0
 11
844.516241615365
 21
-674.8213303541093
 31
0.0
  0
LINE
  5
219A9
  8
0
  6
BYBLOCK
 10
844.516241615365
 20
-674.8213303541093
 30
0.0
 11
843.9803432353649
 21
-672.8213303541093
 31
0.0
  0
LINE
  5
219AA
  8
0
  6
BYBLOCK
 10
844.516241615365
 20
-674.8213303541093
 30
0.0
 11
844.516241615365
 21
-672.8213303541093
 31
0.0
  0
LINE
  5
219AB
  8
0
  6
BYBLOCK
 10
843.9803432353649
 20
-660.8213303512664
 30
0.0
 11
844.516241615365
 21
-658.8213303512664
 31
0.0
  0
LINE
  5
219AC
  8
0
  6
BYBLOCK
 10
844.516241615365
 20
-658.8213303512664
 30
0.0
 11
845.052139995365
 21
-660.8213303512664
 31
0.0
  0
LINE
  5
219AD
  8
0
  6
BYBLOCK
 10
844.516241615365
 20
-658.8213303512664
 30
0.0
 11
844.516241615365
 21
-660.8213303512664
 31
0.0
  0
TEXT
  5
219AE
  8
1DIM
  6
CONTINUOUS
 10
843.8162416153649
 20
-669.1546636860212
 30
0.0
 40
3.5
  1
16
 50
90.0
1001
ACAD
1000
DSTYLE
1002
{
1070
    45
1040
0.5
1070
   271
1070
     0
1002
}
  0
LINE
  5
219AF
  8
0
  6
BYBLOCK
 10
359.0162416153647
 20
-733.0290254912677
 30
0.0
 11
353.0162416153647
 21
-731.4213303512677
 31
0.0
  0
LINE
  5
219B0
  8
0
  6
BYBLOCK
 10
353.0162416153647
 20
-731.4213303512677
 30
0.0
 11
359.0162416153647
 21
-729.8136352112676
 31
0.0
  0
LINE
  5
219B1
  8
0
  6
BYBLOCK
 10
353.0162416153647
 20
-731.4213303512677
 30
0.0
 11
359.0162416153647
 21
-731.4213303512677
 31
0.0
  0
LINE
  5
219B2
  8
0
  6
BYBLOCK
 10
637.0162416153646
 20
-729.8136352112676
 30
0.0
 11
643.0162416153646
 21
-731.4213303512677
 31
0.0
  0
LINE
  5
219B3
  8
0
  6
BYBLOCK
 10
643.0162416153646
 20
-731.4213303512677
 30
0.0
 11
637.0162416153646
 21
-733.0290254912677
 31
0.0
  0
LINE
  5
219B4
  8
0
  6
BYBLOCK
 10
643.0162416153646
 20
-731.4213303512677
 30
0.0
 11
637.0162416153646
 21
-731.4213303512677
 31
0.0
  0
TEXT
  5
219B5
  8
1DIM1
  6
CONTINUOUS
 10
484.670061059809
 20
-729.3213303512676
 30
0.0
 40
10.5
  1
290
1001
ACAD
1000
DSTYLE
1002
{
1070
    40
1040
3.0
1070
    45
1040
0.5
1002
}
  0
LINE
  5
219B6
  8
0
  6
BYBLOCK
 10
855.052139995365
 20
-687.8213303541128
 30
0.0
 11
854.516241615365
 21
-689.8213303541128
 31
0.0
  0
LINE
  5
219B7
  8
0
  6
BYBLOCK
 10
854.516241615365
 20
-689.8213303541128
 30
0.0
 11
853.9803432353649
 21
-687.8213303541128
 31
0.0
  0
LINE
  5
219B8
  8
0
  6
BYBLOCK
 10
854.516241615365
 20
-689.8213303541128
 30
0.0
 11
854.516241615365
 21
-687.8213303541128
 31
0.0
  0
LINE
  5
219B9
  8
0
  6
BYBLOCK
 10
853.9803432353649
 20
-660.8213303512664
 30
0.0
 11
854.516241615365
 21
-658.8213303512664
 31
0.0
  0
LINE
  5
219BA
  8
0
  6
BYBLOCK
 10
854.516241615365
 20
-658.8213303512664
 30
0.0
 11
855.052139995365
 21
-660.8213303512664
 31
0.0
  0
LINE
  5
219BB
  8
0
  6
BYBLOCK
 10
854.516241615365
 20
-658.8213303512664
 30
0.0
 11
854.516241615365
 21
-660.8213303512664
 31
0.0
  0
TEXT
  5
219BC
  8
1DIM
  6
CONTINUOUS
 10
853.8162416153649
 20
-676.654663686023
 30
0.0
 40
3.5
  1
31
 50
90.0
1001
ACAD
1000
DSTYLE
1002
{
1070
    45
1040
0.5
1002
}
  0
LINE
  5
219BD
  8
0
  6
BYBLOCK
 10
705.0084180684677
 20
-721.9572287312677
 30
0.0
 11
703.0084180684677
 21
-721.4213303512677
 31
0.0
  0
LINE
  5
219BE
  8
0
  6
BYBLOCK
 10
703.0084180684677
 20
-721.4213303512677
 30
0.0
 11
705.0084180684677
 21
-720.8854319712676
 31
0.0
  0
LINE
  5
219BF
  8
0
  6
BYBLOCK
 10
703.0084180684677
 20
-721.4213303512677
 30
0.0
 11
705.0084180684677
 21
-721.4213303512677
 31
0.0
  0
LINE
  5
219C0
  8
0
  6
BYBLOCK
 10
801.016241615365
 20
-720.8854319712676
 30
0.0
 11
803.016241615365
 21
-721.4213303512677
 31
0.0
  0
LINE
  5
219C1
  8
0
  6
BYBLOCK
 10
803.016241615365
 20
-721.4213303512677
 30
0.0
 11
801.016241615365
 21
-721.9572287312677
 31
0.0
  0
LINE
  5
219C2
  8
0
  6
BYBLOCK
 10
803.016241615365
 20
-721.4213303512677
 30
0.0
 11
801.016241615365
 21
-721.4213303512677
 31
0.0
  0
TEXT
  5
219C3
  8
1DIM
  6
CONTINUOUS
 10
749.4394131752497
 20
-720.7213303512676
 30
0.0
 40
3.5
  1
100
1001
ACAD
1000
DSTYLE
1002
{
1070
    45
1040
0.5
1002
}
  0
LINE
  5
219C4
  8
0
  6
BYBLOCK
 10
715.0162417839523
 20
-711.9572287312677
 30
0.0
 11
713.0162417839523
 21
-711.4213303512677
 31
0.0
  0
LINE
  5
219C5
  8
0
  6
BYBLOCK
 10
713.0162417839523
 20
-711.4213303512677
 30
0.0
 11
715.0162417839523
 21
-710.8854319712676
 31
0.0
  0
LINE
  5
219C6
  8
0
  6
BYBLOCK
 10
713.0162417839523
 20
-711.4213303512677
 30
0.0
 11
715.0162417839523
 21
-711.4213303512677
 31
0.0
  0
LINE
  5
219C7
  8
0
  6
BYBLOCK
 10
801.016241615365
 20
-710.8854319712676
 30
0.0
 11
803.016241615365
 21
-711.4213303512677
 31
0.0
  0
LINE
  5
219C8
  8
0
  6
BYBLOCK
 10
803.016241615365
 20
-711.4213303512677
 30
0.0
 11
801.016241615365
 21
-711.9572287312677
 31
0.0
  0
LINE
  5
219C9
  8
0
  6
BYBLOCK
 10
803.016241615365
 20
-711.4213303512677
 30
0.0
 11
801.016241615365
 21
-711.4213303512677
 31
0.0
  0
TEXT
  5
219CA
  8
1DIM
  6
CONTINUOUS
 10
755.3167046626216
 20
-710.7213303512676
 30
0.0
 40
3.5
  1
90
1001
ACAD
1000
DSTYLE
1002
{
1070
    45
1040
0.5
1002
}
  0
CIRCLE
  5
219CB
  8
0
 10
551.4993104114362
 20
-674.8213303981522
 30
0.0
 40
4.0
  0
CIRCLE
  5
219CC
  8
0
 10
444.5325994047723
 20
-674.8213303981522
 30
0.0
 40
4.0
  0
LINE
  5
219CD
  8
0
  6
BYBLOCK
 10
1871.523637566639
 20
-693.3502296770048
 30
0.0
 11
1865.523637566639
 21
-691.7425345370048
 31
0.0
  0
LINE
  5
219CE
  8
0
  6
BYBLOCK
 10
1865.523637566639
 20
-691.7425345370048
 30
0.0
 11
1871.523637566639
 21
-690.1348393970047
 31
0.0
  0
LINE
  5
219CF
  8
0
  6
BYBLOCK
 10
1865.523637566639
 20
-691.7425345370048
 30
0.0
 11
1871.523637566639
 21
-691.7425345370048
 31
0.0
  0
LINE
  5
219D0
  8
0
  6
BYBLOCK
 10
1966.490348573303
 20
-690.1348393970047
 30
0.0
 11
1972.490348573303
 21
-691.7425345370048
 31
0.0
  0
LINE
  5
219D1
  8
0
  6
BYBLOCK
 10
1972.490348573303
 20
-691.7425345370048
 30
0.0
 11
1966.490348573303
 21
-693.3502296770048
 31
0.0
  0
LINE
  5
219D2
  8
0
  6
BYBLOCK
 10
1972.490348573303
 20
-691.7425345370048
 30
0.0
 11
1966.490348573303
 21
-691.7425345370048
 31
0.0
  0
TEXT
  5
219D3
  8
1DIM1
  6
CONTINUOUS
 10
1902.381993069971
 20
-689.6425345370047
 30
0.0
 40
10.5
  1
P107
1001
ACAD
1000
DSTYLE
1002
{
1070
    40
1040
3.0
1070
    45
1040
0.5
1002
}
  0
LINE
  5
219D4
  8
0
  6
BYBLOCK
 10
2089.531671525827
 20
-640.0833593489408
 30
0.0
 11
2088.995773145827
 21
-642.0833593489408
 31
0.0
  0
LINE
  5
219D5
  8
0
  6
BYBLOCK
 10
2088.995773145827
 20
-642.0833593489408
 30
0.0
 11
2088.459874765827
 21
-640.0833593489408
 31
0.0
  0
LINE
  5
219D6
  8
0
  6
BYBLOCK
 10
2088.995773145827
 20
-642.0833593489408
 30
0.0
 11
2088.995773145827
 21
-640.0833593489408
 31
0.0
  0
LINE
  5
219D7
  8
0
  6
BYBLOCK
 10
2088.459874765827
 20
-638.0833593489408
 30
0.0
 11
2088.995773145827
 21
-636.0833593489408
 31
0.0
  0
LINE
  5
219D8
  8
0
  6
BYBLOCK
 10
2088.995773145827
 20
-636.0833593489408
 30
0.0
 11
2089.531671525827
 21
-638.0833593489408
 31
0.0
  0
LINE
  5
219D9
  8
0
  6
BYBLOCK
 10
2088.995773145827
 20
-636.0833593489408
 30
0.0
 11
2088.995773145827
 21
-638.0833593489408
 31
0.0
  0
TEXT
  5
219DA
  8
1DIM
  6
CONTINUOUS
 10
2088.295773145827
 20
-633.4666926822738
 30
0.0
 40
3.5
  1
6
 50
90.0
1001
ACAD
1000
DSTYLE
1002
{
1070
    45
1040
0.5
1002
}
  0
LINE
  5
219DB
  8
0
  6
BYBLOCK
 10
2266.031671525827
 20
-653.0833593517837
 30
0.0
 11
2265.495773145827
 21
-655.0833593517837
 31
0.0
  0
LINE
  5
219DC
  8
0
  6
BYBLOCK
 10
2265.495773145827
 20
-655.0833593517837
 30
0.0
 11
2264.959874765827
 21
-653.0833593517837
 31
0.0
  0
LINE
  5
219DD
  8
0
  6
BYBLOCK
 10
2265.495773145827
 20
-655.0833593517837
 30
0.0
 11
2265.495773145827
 21
-653.0833593517837
 31
0.0
  0
LINE
  5
219DE
  8
0
  6
BYBLOCK
 10
2264.959874765827
 20
-641.0833593489408
 30
0.0
 11
2265.495773145827
 21
-639.0833593489408
 31
0.0
  0
LINE
  5
219DF
  8
0
  6
BYBLOCK
 10
2265.495773145827
 20
-639.0833593489408
 30
0.0
 11
2266.031671525827
 21
-641.0833593489408
 31
0.0
  0
LINE
  5
219E0
  8
0
  6
BYBLOCK
 10
2265.495773145827
 20
-639.0833593489408
 30
0.0
 11
2265.495773145827
 21
-641.0833593489408
 31
0.0
  0
TEXT
  5
219E1
  8
1DIM
  6
CONTINUOUS
 10
2264.795773145827
 20
-649.4166926836956
 30
0.0
 40
3.5
  1
16
 50
90.0
1001
ACAD
1000
DSTYLE
1002
{
1070
    45
1040
0.5
1070
   271
1070
     0
1002
}
  0
LINE
  5
219E2
  8
0
  6
BYBLOCK
 10
1779.995773145827
 20
-713.2910544889421
 30
0.0
 11
1773.995773145827
 21
-711.6833593489421
 31
0.0
  0
LINE
  5
219E3
  8
0
  6
BYBLOCK
 10
1773.995773145827
 20
-711.6833593489421
 30
0.0
 11
1779.995773145827
 21
-710.075664208942
 31
0.0
  0
LINE
  5
219E4
  8
0
  6
BYBLOCK
 10
1773.995773145827
 20
-711.6833593489421
 30
0.0
 11
1779.995773145827
 21
-711.6833593489421
 31
0.0
  0
LINE
  5
219E5
  8
0
  6
BYBLOCK
 10
2057.995773145827
 20
-710.075664208942
 30
0.0
 11
2063.995773145827
 21
-711.6833593489421
 31
0.0
  0
LINE
  5
219E6
  8
0
  6
BYBLOCK
 10
2063.995773145827
 20
-711.6833593489421
 30
0.0
 11
2057.995773145827
 21
-713.2910544889421
 31
0.0
  0
LINE
  5
219E7
  8
0
  6
BYBLOCK
 10
2063.995773145827
 20
-711.6833593489421
 30
0.0
 11
2057.995773145827
 21
-711.6833593489421
 31
0.0
  0
TEXT
  5
219E8
  8
1DIM1
  6
CONTINUOUS
 10
1905.649592590272
 20
-709.583359348942
 30
0.0
 40
10.5
  1
290
1001
ACAD
1000
DSTYLE
1002
{
1070
    40
1040
3.0
1070
    45
1040
0.5
1002
}
  0
LINE
  5
219E9
  8
0
  6
BYBLOCK
 10
2276.031671525827
 20
-668.0833593517872
 30
0.0
 11
2275.495773145827
 21
-670.0833593517872
 31
0.0
  0
LINE
  5
219EA
  8
0
  6
BYBLOCK
 10
2275.495773145827
 20
-670.0833593517872
 30
0.0
 11
2274.959874765827
 21
-668.0833593517872
 31
0.0
  0
LINE
  5
219EB
  8
0
  6
BYBLOCK
 10
2275.495773145827
 20
-670.0833593517872
 30
0.0
 11
2275.495773145827
 21
-668.0833593517872
 31
0.0
  0
LINE
  5
219EC
  8
0
  6
BYBLOCK
 10
2274.959874765827
 20
-641.0833593489408
 30
0.0
 11
2275.495773145827
 21
-639.0833593489408
 31
0.0
  0
LINE
  5
219ED
  8
0
  6
BYBLOCK
 10
2275.495773145827
 20
-639.0833593489408
 30
0.0
 11
2276.031671525827
 21
-641.0833593489408
 31
0.0
  0
LINE
  5
219EE
  8
0
  6
BYBLOCK
 10
2275.495773145827
 20
-639.0833593489408
 30
0.0
 11
2275.495773145827
 21
-641.0833593489408
 31
0.0
  0
TEXT
  5
219EF
  8
1DIM
  6
CONTINUOUS
 10
2274.795773145827
 20
-656.916692683697
 30
0.0
 40
3.5
  1
31
 50
90.0
1001
ACAD
1000
DSTYLE
1002
{
1070
    45
1040
0.5
1002
}
  0
LINE
  5
219F0
  8
0
  6
BYBLOCK
 10
2125.98794959893
 20
-685.0893937564718
 30
0.0
 11
2123.98794959893
 21
-684.5534953764718
 31
0.0
  0
LINE
  5
219F1
  8
0
  6
BYBLOCK
 10
2123.98794959893
 20
-684.5534953764718
 30
0.0
 11
2125.98794959893
 21
-684.0175969964718
 31
0.0
  0
LINE
  5
219F2
  8
0
  6
BYBLOCK
 10
2123.98794959893
 20
-684.5534953764718
 30
0.0
 11
2125.98794959893
 21
-684.5534953764718
 31
0.0
  0
LINE
  5
219F3
  8
0
  6
BYBLOCK
 10
2221.995773145827
 20
-684.0175969964718
 30
0.0
 11
2223.995773145827
 21
-684.5534953764718
 31
0.0
  0
LINE
  5
219F4
  8
0
  6
BYBLOCK
 10
2223.995773145827
 20
-684.5534953764718
 30
0.0
 11
2221.995773145827
 21
-685.0893937564718
 31
0.0
  0
LINE
  5
219F5
  8
0
  6
BYBLOCK
 10
2223.995773145827
 20
-684.5534953764718
 30
0.0
 11
2221.995773145827
 21
-684.5534953764718
 31
0.0
  0
TEXT
  5
219F6
  8
1DIM
  6
CONTINUOUS
 10
2170.418944705712
 20
-683.8534953764718
 30
0.0
 40
3.5
  1
100
1001
ACAD
1000
DSTYLE
1002
{
1070
    45
1040
0.5
1002
}
  0
LINE
  5
219F7
  8
0
  6
BYBLOCK
 10
2135.995773314415
 20
-676.1599758141045
 30
0.0
 11
2133.995773314415
 21
-675.6240774341045
 31
0.0
  0
LINE
  5
219F8
  8
0
  6
BYBLOCK
 10
2133.995773314415
 20
-675.6240774341045
 30
0.0
 11
2135.995773314415
 21
-675.0881790541044
 31
0.0
  0
LINE
  5
219F9
  8
0
  6
BYBLOCK
 10
2133.995773314415
 20
-675.6240774341045
 30
0.0
 11
2135.995773314415
 21
-675.6240774341045
 31
0.0
  0
LINE
  5
219FA
  8
0
  6
BYBLOCK
 10
2221.995773145827
 20
-675.0881790541044
 30
0.0
 11
2223.995773145827
 21
-675.6240774341045
 31
0.0
  0
LINE
  5
219FB
  8
0
  6
BYBLOCK
 10
2223.995773145827
 20
-675.6240774341045
 30
0.0
 11
2221.995773145827
 21
-676.1599758141045
 31
0.0
  0
LINE
  5
219FC
  8
0
  6
BYBLOCK
 10
2223.995773145827
 20
-675.6240774341045
 30
0.0
 11
2221.995773145827
 21
-675.6240774341045
 31
0.0
  0
TEXT
  5
219FD
  8
1DIM
  6
CONTINUOUS
 10
2176.296236193084
 20
-674.9240774341044
 30
0.0
 40
3.5
  1
90
1001
ACAD
1000
DSTYLE
1002
{
1070
    45
1040
0.5
1002
}
  0
CIRCLE
  5
219FE
  8
0
 10
1972.478841941899
 20
-655.0833593958266
 30
0.0
 40
4.0
  0
CIRCLE
  5
219FF
  8
0
 10
1865.512130935235
 20
-655.0833593958266
 30
0.0
 40
4.0
  0
VIEWPORT
  5
57
 67
     1
  8
0
 10
0.0
 20
0.0
 30
0.0
 40
615.2903225806451
 41
297.0
 68
     1
 69
     1
1001
ACAD
1000
MVIEW
1002
{
1070
    16
1010
0.0
1020
0.0
1030
0.0
1010
0.0
1020
0.0
1030
1.0
1040
0.0
1040
297.0
1040
-4.171999999925362
1040
12.83903210976956
1040
50.0
1040
0.0
1040
0.0
1070
    16
1070
   100
1070
     0
1070
     1
1070
     0
1070
     0
1070
     0
1070
     0
1040
0.0
1040
0.0
1040
0.0
1040
10.0
1040
10.0
1040
10.0
1040
10.0
1070
     0
1002
{
1002
}
1002
}
  0
ENDSEC
  0
EOF
