  0
SECTION
  2
HEADER
  9
$ACADVER
  1
AC1009
  9
$DWGCODEPAGE
  3
ansi_1252
  9
$INSBASE
 10
0.0
 20
0.0
 30
0.0
  9
$EXTMIN
 10
197.7632465342745
 20
-624.7466064923137
 30
0.0
  9
$EXTMAX
 10
1322.918211118781
 20
-356.0809801757259
 30
0.0
  9
$LIMMIN
 10
0.0
 20
0.0
  9
$LIMMAX
 10
420.0
 20
297.0
  9
$ORTHOMODE
 70
     0
  9
$REGENMODE
 70
     1
  9
$FILLMODE
 70
     1
  9
$QTEXTMODE
 70
     0
  9
$MIRRTEXT
 70
     0
  9
$DRAGMODE
 70
     2
  9
$LTSCALE
 40
0.5
  9
$OSMODE
 70
 15199
  9
$ATTMODE
 70
     1
  9
$TEXTSIZE
 40
4.0
  9
$TRACEWID
 40
1.0
  9
$TEXTSTYLE
  7
STANDARD
  9
$CLAYER
  8
1TEXT
  9
$CELTYPE
  6
BYLAYER
  9
$CECOLOR
 62
   256
  9
$DIMSCALE
 40
1.0
  9
$DIMASZ
 40
2.0
  9
$DIMEXO
 40
0.0
  9
$DIMDLI
 40
7.0
  9
$DIMRND
 40
0.0
  9
$DIMDLE
 40
0.0
  9
$DIMEXE
 40
1.0
  9
$DIMTP
 40
0.0
  9
$DIMTM
 40
0.0
  9
$DIMTXT
 40
3.5
  9
$DIMCEN
 40
0.0
  9
$DIMTSZ
 40
0.0
  9
$DIMTOL
 70
     0
  9
$DIMLIM
 70
     0
  9
$DIMTIH
 70
     0
  9
$DIMTOH
 70
     0
  9
$DIMSE1
 70
     0
  9
$DIMSE2
 70
     0
  9
$DIMTAD
 70
     1
  9
$DIMZIN
 70
     8
  9
$DIMBLK
  1

  9
$DIMASO
 70
     1
  9
$DIMSHO
 70
     1
  9
$DIMPOST
  1
 
  9
$DIMAPOST
  1

  9
$DIMALT
 70
     0
  9
$DIMALTD
 70
     2
  9
$DIMALTF
 40
25.4
  9
$DIMLFAC
 40
1.0
  9
$DIMTOFL
 70
     1
  9
$DIMTVP
 40
0.0
  9
$DIMTIX
 70
     0
  9
$DIMSOXD
 70
     0
  9
$DIMSAH
 70
     1
  9
$DIMBLK1
  1
OPEN30
  9
$DIMBLK2
  1
OPEN30
  9
$DIMSTYLE
  2
NEWX10
  9
$DIMCLRD
 70
   256
  9
$DIMCLRE
 70
   256
  9
$DIMCLRT
 70
   201
  9
$DIMTFAC
 40
0.7
  9
$DIMGAP
 40
0.7
  9
$LUNITS
 70
     2
  9
$LUPREC
 70
     4
  9
$SKETCHINC
 40
1.0
  9
$FILLETRAD
 40
0.0
  9
$AUNITS
 70
     0
  9
$AUPREC
 70
     2
  9
$MENU
  1
acad
  9
$ELEVATION
 40
0.0
  9
$PELEVATION
 40
0.0
  9
$THICKNESS
 40
0.0
  9
$LIMCHECK
 70
     0
  9
$CHAMFERA
 40
10.0
  9
$CHAMFERB
 40
10.0
  9
$SKPOLY
 70
     0
  9
$TDCREATE
 40
2451318.57968625
  9
$TDUPDATE
 40
2459102.652728657
  9
$TDINDWG
 40
1.7004053009
  9
$TDUSRTIMER
 40
1.7004053009
  9
$USRTIMER
 70
     1
  9
$ANGBASE
 50
0.0
  9
$ANGDIR
 70
     0
  9
$PDMODE
 70
     0
  9
$PDSIZE
 40
0.0
  9
$PLINEWID
 40
0.0
  9
$COORDS
 70
     2
  9
$SPLFRAME
 70
     0
  9
$SPLINETYPE
 70
     6
  9
$SPLINESEGS
 70
     8
  9
$ATTDIA
 70
     0
  9
$ATTREQ
 70
     1
  9
$HANDLING
 70
     1
  9
$HANDSEED
  5
168CA
  9
$SURFTAB1
 70
     6
  9
$SURFTAB2
 70
     6
  9
$SURFTYPE
 70
     6
  9
$SURFU
 70
     6
  9
$SURFV
 70
     6
  9
$UCSNAME
  2

  9
$UCSORG
 10
0.0
 20
0.0
 30
0.0
  9
$UCSXDIR
 10
1.0
 20
0.0
 30
0.0
  9
$UCSYDIR
 10
0.0
 20
1.0
 30
0.0
  9
$PUCSNAME
  2

  9
$PUCSORG
 10
0.0
 20
0.0
 30
0.0
  9
$PUCSXDIR
 10
1.0
 20
0.0
 30
0.0
  9
$PUCSYDIR
 10
0.0
 20
1.0
 30
0.0
  9
$USERI1
 70
     0
  9
$USERI2
 70
     0
  9
$USERI3
 70
     0
  9
$USERI4
 70
     0
  9
$USERI5
 70
     0
  9
$USERR1
 40
0.0
  9
$USERR2
 40
0.0
  9
$USERR3
 40
0.0
  9
$USERR4
 40
0.0
  9
$USERR5
 40
0.0
  9
$WORLDVIEW
 70
     1
  9
$SHADEDGE
 70
     3
  9
$SHADEDIF
 70
    70
  9
$TILEMODE
 70
     1
  9
$MAXACTVP
 70
    48
  9
$PLIMCHECK
 70
     0
  9
$PEXTMIN
 10
1.000000000000000E+20
 20
1.000000000000000E+20
 30
1.000000000000000E+20
  9
$PEXTMAX
 10
-1.000000000000000E+20
 20
-1.000000000000000E+20
 30
-1.000000000000000E+20
  9
$PLIMMIN
 10
-214.1719999999253
 20
-135.6609678902304
  9
$PLIMMAX
 10
205.8280000000747
 20
161.3390321097696
  9
$UNITMODE
 70
     0
  9
$VISRETAIN
 70
     1
  9
$PLINEGEN
 70
     0
  9
$PSLTSCALE
 70
     1
  0
ENDSEC
  0
SECTION
  2
TABLES
  0
TABLE
  2
VPORT
 70
     1
  0
VPORT
  2
*ACTIVE
 70
     0
 10
0.0
 20
0.0
 11
1.0
 21
1.0
 12
760.3407288265278
 22
-490.4137933340198
 13
0.0
 23
0.0
 14
10.0
 24
10.0
 15
10.0
 25
10.0
 16
0.0
 26
0.0
 36
1.0
 17
0.0
 27
0.0
 37
0.0
 40
583.1298485184101
 41
2.07168458781362
 42
50.0
 43
0.0
 44
0.0
 50
0.0
 51
0.0
 71
    16
 72
   100
 73
     1
 74
     1
 75
     0
 76
     0
 77
     0
 78
     0
  0
ENDTAB
  0
TABLE
  2
LTYPE
 70
    13
  0
LTYPE
  2
CONTINUOUS
 70
     0
  3
Solid line
 72
    65
 73
     0
 40
0.0
  0
LTYPE
  2
HIDDEN
 70
     0
  3
Hidden __ __ __ __ __ __ __ __ __ __ __ __ __ _
 72
    65
 73
     2
 40
9.524999999999999
 49
6.35
 49
-3.175
  0
LTYPE
  2
CENTER2
 70
     0
  3
Center (.5x) ___ _ ___ _ ___ _ ___ _ ___ _ ___
 72
    65
 73
     4
 40
28.575
 49
19.05
 49
-3.175
 49
3.175
 49
-3.175
  0
LTYPE
  2
DASHED2
 70
     0
  3
Dashed (0.5x) _ _ _ _ _ _ _ _ _ _ _ _ _ _ _ _ _
 72
    65
 73
     2
 40
9.524999999999999
 49
6.35
 49
-3.175
  0
ENDTAB
  0
TABLE
  2
LAYER
 70
    53
  0
LAYER
  2
0
 70
     0
 62
     7
  6
CONTINUOUS
  0
LAYER
  2
1CENTER
 70
     0
 62
     7
  6
CENTER2
  0
LAYER
  2
1TEXT
 70
     0
 62
     7
  6
CONTINUOUS
  0
LAYER
  2
01
 70
     0
 62
     1
  6
CONTINUOUS
  0
LAYER
  2
1DIM
 70
     0
 62
     7
  6
CONTINUOUS
  0
LAYER
  2
1HATCH
 70
     0
 62
     7
  6
CONTINUOUS
  0
ENDTAB
  0
TABLE
  2
STYLE
 70
    19
  0
STYLE
  2
STANDARD
 70
     0
 40
0.0
 41
1.0
 50
0.0
 71
     0
 42
4.0
  3
txt.shx
  4
extfont.shx
  0
STYLE
  2
STANDARD06
 70
     0
 40
0.0
 41
0.6
 50
0.0
 71
     0
 42
2.0
  3
romans.shx
  4
extfont2.shx
  0
ENDTAB
  0
TABLE
  2
VIEW
 70
     0
  0
ENDTAB
  0
TABLE
  2
UCS
 70
     0
  0
ENDTAB
  0
TABLE
  2
APPID
 70
    25
  0
APPID
  2
ACAD
 70
     0
  0
APPID
  2
DRAWINGVARIABLESXDATA
 70
     0
  0
APPID
  2
CONTENTTABDATA
 70
     0
  0
APPID
  2
CONTENTCURRENTTAB
 70
     0
  0
APPID
  2
CONTENTBLOCKDESCRIPTION
 70
     0
  0
APPID
  2
CONTENTBLOCKICON
 70
     0
  0
APPID
  2
CONTENTLONGBLOCKNAME
 70
     0
  0
APPID
  2
ACAD_PSEXT
 70
     0
  0
APPID
  2
ACAD_MLEADERVER
 70
     0
  0
APPID
  2
ACAD_EXEMPT_FROM_CAD_STAND
 70
     0
  0
APPID
  2
ACAECLAYERSTANDARD
 70
     0
  0
APPID
  2
ACADANNOTATIVE
 70
     0
  0
APPID
  2
ACDBBLOCKREPETAG
 70
     0
  0
APPID
  2
ACAD_OBJECT_CHANGE_GUID
 70
     0
  0
APPID
  2
ACLAYERTOOLS
 70
     0
  0
APPID
  2
ACAD_NAV_VCDISPLAY
 70
     0
  0
APPID
  2
ACADSTRINGINFO
 70
     0
  0
APPID
  2
GRADIENTCOLOR1ACI
 70
     0
  0
APPID
  2
GRADIENTCOLOR2ACI
 70
     0
  0
APPID
  2
ACADANNOMONITORALERTICONDI
 70
     0
  0
APPID
  2
ACAD_DSTYLE_DIMRADIAL_EXTE
 70
     0
  0
APPID
  2
ACAD_DSTYLE_DIMJOGGED_JOGA
 70
     0
  0
APPID
  2
ACAD_DSTYLE_DIM_LINETYPE
 70
     0
  0
APPID
  2
ACAD_DSTYLE_DIM_EXT1_LINET
 70
     0
  0
APPID
  2
ACAD_DSTYLE_DIM_EXT2_LINET
 70
     0
  0
ENDTAB
  0
TABLE
  2
DIMSTYLE
 70
     3
  0
DIMSTYLE
  2
NEWX10
 70
     0
  3
 
  4

  5

  6
OPEN30
  7
OPEN30
 40
1.0
 41
2.0
 42
0.0
 43
7.0
 44
1.0
 45
0.0
 46
0.0
 47
0.0
 48
0.0
140
3.5
141
0.0
142
0.0
143
25.4
144
1.0
145
0.0
146
0.7
147
0.7
 71
     0
 72
     0
 73
     0
 74
     0
 75
     0
 76
     0
 77
     1
 78
     8
170
     0
171
     2
172
     1
173
     1
174
     0
175
     0
176
   256
177
   256
178
   201
  0
ENDTAB
  0
ENDSEC
  0
SECTION
  2
BLOCKS
  0
BLOCK
  8
0
  2
$MODEL_SPACE
 70
     0
 10
0.0
 20
0.0
 30
0.0
  3
$MODEL_SPACE
  1

  0
ENDBLK
  5
1A
  8
0
  0
BLOCK
 67
     1
  8
0
  2
$PAPER_SPACE
 70
     0
 10
0.0
 20
0.0
 30
0.0
  3
$PAPER_SPACE
  1

  0
ENDBLK
  5
17
 67
     1
  8
0
  0
BLOCK
  8
0
  2
_OPEN30
 70
     0
 10
0.0
 20
0.0
 30
0.0
  3
_OPEN30
  1

  0
LINE
  5
44
  8
0
  6
BYBLOCK
 62
     0
 10
-1.0
 20
0.26794919
 30
0.0
 11
0.0
 21
0.0
 31
0.0
  0
LINE
  5
45
  8
0
  6
BYBLOCK
 62
     0
 10
0.0
 20
0.0
 30
0.0
 11
-1.0
 21
-0.26794919
 31
0.0
  0
LINE
  5
46
  8
0
  6
BYBLOCK
 62
     0
 10
0.0
 20
0.0
 30
0.0
 11
-1.0
 21
0.0
 31
0.0
  0
ENDBLK
  5
47
  8
0
  0
BLOCK
  8
0
  2
A3WAKUKAWAJUN2017_HYOUDAI_
 70
     0
 10
0.0
 20
0.0
 30
0.0
  3
A3WAKUKAWAJUN2017_HYOUDAI_
  1

  0
LINE
  5
1057F
  8
0
 10
13.26299999998673
 20
-0.0001000000000317
 30
0.0
 11
9.236999999990758
 21
8.999899999990987
 31
0.0
1001
ACAD
1000
ASC_BOUNDS
1002
{
1070
    19
1005
105C0
1002
}
  0
LINE
  5
10580
  8
0
 10
5.657999999994331
 20
0.9999999999989768
 30
0.0
 11
9.236999999990758
 21
8.999999999991019
 31
0.0
1001
ACAD
1000
ASC_BOUNDS
1002
{
1070
    19
1005
105C0
1002
}
  0
LINE
  5
10581
  8
0
 10
18.59199999998134
 20
-0.2368999999997641
 30
0.0
 11
16.46099999998353
 21
5.432899999994561
 31
0.0
1001
ACAD
1000
ASC_BOUNDS
1002
{
1070
    19
1005
105C1
1002
}
  0
LINE
  5
10582
  8
0
 10
18.59199999998134
 20
-0.2368999999997641
 30
0.0
 11
22.38199999997767
 21
8.763099999991255
 31
0.0
1001
ACAD
1000
ASC_BOUNDS
1002
{
1070
    19
1005
105C1
1002
}
  0
LINE
  5
10583
  8
0
 10
14.32899999998563
 20
-0.2368999999997641
 30
0.0
 11
16.46099999998353
 21
5.432899999994561
 31
0.0
1001
ACAD
1000
ASC_BOUNDS
1002
{
1070
    19
1005
105C1
1002
}
  0
LINE
  5
10584
  8
0
 10
14.32899999998563
 20
-0.2368999999997641
 30
0.0
 11
10.53899999998941
 21
8.763099999991255
 31
0.0
1001
ACAD
1000
ASC_BOUNDS
1002
{
1070
    19
1005
105C1
1002
}
  0
LINE
  5
10585
  8
0
 10
19.53899999998043
 20
-0.0001000000000317
 30
0.0
 11
23.56599999997638
 21
8.999899999990987
 31
0.0
1001
ACAD
1000
ASC_BOUNDS
1002
{
1070
    19
1005
105C2
1002
}
  0
LINE
  5
10586
  8
0
 10
26.97358892824991
 20
1.383099999991202
 30
0.0
 11
23.56599999997638
 21
8.999899999990987
 31
0.0
1001
ACAD
1000
ASC_BOUNDS
1002
{
1070
    19
1005
105C2
1002
}
  0
LINE
  5
10587
  8
0
 10
5.657999999994331
 20
0.9999999999989768
 30
0.0
 11
3.181999999996833
 21
4.668599999995308
 31
0.0
1001
ACAD
1000
ASC_BOUNDS
1002
{
1070
    19
1005
105C0
1002
}
  0
LINE
  5
10588
  8
0
 10
4.617999999995391
 20
-0.0001000000000317
 30
0.0
 11
1.420999999998571
 21
4.736799999995242
 31
0.0
1001
ACAD
1000
ASC_BOUNDS
1002
{
1070
    19
1005
105C0
1002
}
  0
LINE
  5
10589
  8
0
 10
1.420999999998571
 20
8.763099999991255
 30
0.0
 11
1.420999999998571
 21
0.0
 31
0.0
1001
ACAD
1000
ASC_BOUNDS
1002
{
1070
    19
1005
105C5
1002
}
  0
LINE
  5
1058A
  8
0
 10
0.0
 20
8.763099999991255
 30
0.0
 11
0.0
 21
0.0
 31
0.0
1001
ACAD
1000
ASC_BOUNDS
1002
{
1070
    19
1005
105C5
1002
}
  0
LINE
  5
1058B
  8
0
 10
6.766999999993232
 20
-0.0001000000000317
 30
0.0
 11
7.826999999992154
 21
2.368399999997621
 31
0.0
1001
ACAD
1000
ASC_BOUNDS
1002
{
1070
    19
1005
105C0
1002
}
  0
LINE
  5
1058C
  8
0
 10
0.0
 20
0.0
 30
0.0
 11
1.420999999998571
 21
0.0
 31
0.0
1001
ACAD
1000
ASC_BOUNDS
1002
{
1070
    19
1005
105C5
1002
}
  0
LINE
  5
1058D
  8
0
 10
4.617999999995391
 20
0.0
 30
0.0
 11
6.766999999993232
 21
0.0
 31
0.0
1001
ACAD
1000
ASC_BOUNDS
1002
{
1070
    19
1005
105C0
1002
}
  0
LINE
  5
1058E
  8
0
 10
11.70599999998831
 20
-0.0001000000000317
 30
0.0
 11
10.64699999998936
 21
2.368399999997621
 31
0.0
1001
ACAD
1000
ASC_BOUNDS
1002
{
1070
    19
1005
105C0
1002
}
  0
LINE
  5
1058F
  8
0
 10
7.826999999992154
 20
2.368399999997621
 30
0.0
 11
10.64699999998936
 21
2.368399999997621
 31
0.0
1001
ACAD
1000
ASC_BOUNDS
1002
{
1070
    19
1005
105C0
1002
}
  0
LINE
  5
10590
  8
0
 10
11.70599999998831
 20
0.0
 30
0.0
 11
13.26299999998673
 21
0.0
 31
0.0
1001
ACAD
1000
ASC_BOUNDS
1002
{
1070
    19
1005
105C0
1002
}
  0
LINE
  5
10591
  8
0
 10
22.15599999997789
 20
2.368399999997621
 30
0.0
 11
24.97599999997499
 21
2.368399999997621
 31
0.0
1001
ACAD
1000
ASC_BOUNDS
1002
{
1070
    19
1005
105C2
1002
}
  0
LINE
  5
10592
  8
0
 10
19.53899999998043
 20
0.0
 30
0.0
 11
21.09599999997886
 21
0.0
 31
0.0
1001
ACAD
1000
ASC_BOUNDS
1002
{
1070
    19
1005
105C2
1002
}
  0
LINE
  5
10593
  8
0
 10
21.09599999997886
 20
-0.0001000000000317
 30
0.0
 11
22.15599999997789
 21
2.368399999997621
 31
0.0
1001
ACAD
1000
ASC_BOUNDS
1002
{
1070
    19
1005
105C2
1002
}
  0
LINE
  5
10594
  8
0
 10
26.02015566812236
 20
0.0330999999912365
 30
0.0
 11
24.97599999997499
 21
2.368399999997621
 31
0.0
1001
ACAD
1000
ASC_BOUNDS
1002
{
1070
    19
1005
105C2
1002
}
  0
LINE
  5
10595
  8
0
 10
14.32399999998563
 20
3.315799999996671
 30
0.0
 11
16.46099999998353
 21
8.999899999990987
 31
0.0
1001
ACAD
1000
ASC_BOUNDS
1002
{
1070
    19
1005
105C1
1002
}
  0
LINE
  5
10596
  8
0
 10
6.432999999993513
 20
8.763099999991255
 30
0.0
 11
3.181999999996833
 21
4.668599999995308
 31
0.0
1001
ACAD
1000
ASC_BOUNDS
1002
{
1070
    19
1005
105C0
1002
}
  0
LINE
  5
10597
  8
0
 10
4.617999999995391
 20
8.763099999991255
 30
0.0
 11
1.420999999998571
 21
4.736799999995242
 31
0.0
1001
ACAD
1000
ASC_BOUNDS
1002
{
1070
    19
1005
105C0
1002
}
  0
LINE
  5
10598
  8
0
 10
0.0
 20
8.763099999991255
 30
0.0
 11
1.420999999998571
 21
8.763099999991255
 31
0.0
1001
ACAD
1000
ASC_BOUNDS
1002
{
1070
    19
1005
105C5
1002
}
  0
LINE
  5
10599
  8
0
 10
4.617999999995391
 20
8.763099999991255
 30
0.0
 11
6.432999999993513
 21
8.763099999991255
 31
0.0
1001
ACAD
1000
ASC_BOUNDS
1002
{
1070
    19
1005
105C0
1002
}
  0
LINE
  5
1059A
  8
0
 10
14.32399999998563
 20
3.315799999996671
 30
0.0
 11
12.02999999998792
 21
8.763099999991255
 31
0.0
1001
ACAD
1000
ASC_BOUNDS
1002
{
1070
    19
1005
105C1
1002
}
  0
LINE
  5
1059B
  8
0
 10
10.06399999998996
 20
3.670999999996297
 30
0.0
 11
9.236999999990758
 21
5.5200999999945
 31
0.0
1001
ACAD
1000
ASC_BOUNDS
1002
{
1070
    19
1005
105C0
1002
}
  0
LINE
  5
1059C
  8
0
 10
8.409999999991555
 20
3.670999999996297
 30
0.0
 11
9.236999999990758
 21
5.5200999999945
 31
0.0
1001
ACAD
1000
ASC_BOUNDS
1002
{
1070
    19
1005
105C0
1002
}
  0
LINE
  5
1059D
  8
0
 10
8.409999999991555
 20
3.670999999996297
 30
0.0
 11
10.06399999998996
 21
3.670999999996297
 31
0.0
1001
ACAD
1000
ASC_BOUNDS
1002
{
1070
    19
1005
105C0
1002
}
  0
LINE
  5
1059E
  8
0
 10
10.53899999998941
 20
8.763099999991255
 30
0.0
 11
12.02999999998792
 21
8.763099999991255
 31
0.0
1001
ACAD
1000
ASC_BOUNDS
1002
{
1070
    19
1005
105C1
1002
}
  0
LINE
  5
1059F
  8
0
 10
22.7389999999773
 20
3.670999999996297
 30
0.0
 11
23.56599999997638
 21
5.5200999999945
 31
0.0
1001
ACAD
1000
ASC_BOUNDS
1002
{
1070
    19
1005
105C2
1002
}
  0
LINE
  5
105A0
  8
0
 10
22.7389999999773
 20
3.670999999996297
 30
0.0
 11
24.39299999997559
 21
3.670999999996297
 31
0.0
1001
ACAD
1000
ASC_BOUNDS
1002
{
1070
    19
1005
105C2
1002
}
  0
LINE
  5
105A1
  8
0
 10
18.59799999998143
 20
3.315799999996671
 30
0.0
 11
20.89099999997916
 21
8.763099999991255
 31
0.0
1001
ACAD
1000
ASC_BOUNDS
1002
{
1070
    19
1005
105C1
1002
}
  0
LINE
  5
105A2
  8
0
 10
18.59799999998143
 20
3.315799999996671
 30
0.0
 11
16.46099999998353
 21
8.999899999990987
 31
0.0
1001
ACAD
1000
ASC_BOUNDS
1002
{
1070
    19
1005
105C1
1002
}
  0
LINE
  5
105A3
  8
0
 10
20.89099999997916
 20
8.763099999991255
 30
0.0
 11
22.38199999997767
 21
8.763099999991255
 31
0.0
1001
ACAD
1000
ASC_BOUNDS
1002
{
1070
    19
1005
105C1
1002
}
  0
LINE
  5
105A4
  8
0
 10
24.39299999997559
 20
3.670999999996297
 30
0.0
 11
23.56599999997638
 21
5.5200999999945
 31
0.0
1001
ACAD
1000
ASC_BOUNDS
1002
{
1070
    19
1005
105C2
1002
}
  0
LINE
  5
105A5
  8
0
 10
44.99999999995498
 20
-0.2368999999997641
 30
0.0
 11
40.02599999995994
 21
5.341799999994635
 31
0.0
1001
ACAD
1000
ASC_BOUNDS
1002
{
1070
    19
1005
105C4
1002
}
  0
LINE
  5
105A6
  8
0
 10
40.02599999995994
 20
5.341799999994635
 30
0.0
 11
40.02599999995994
 21
0.0
 31
0.0
1001
ACAD
1000
ASC_BOUNDS
1002
{
1070
    19
1005
105C4
1002
}
  0
LINE
  5
105A7
  8
0
 10
38.60499999996136
 20
8.999999999991019
 30
0.0
 11
38.60499999996136
 21
0.0
 31
0.0
1001
ACAD
1000
ASC_BOUNDS
1002
{
1070
    19
1005
105C4
1002
}
  0
LINE
  5
105A8
  8
0
 10
44.99999999995498
 20
8.763099999991255
 30
0.0
 11
44.99999999995498
 21
-0.2368999999997641
 31
0.0
1001
ACAD
1000
ASC_BOUNDS
1002
{
1070
    19
1005
105C4
1002
}
  0
LINE
  5
105A9
  8
0
 10
38.60499999996136
 20
0.0
 30
0.0
 11
40.02599999995994
 21
0.0
 31
0.0
1001
ACAD
1000
ASC_BOUNDS
1002
{
1070
    19
1005
105C4
1002
}
  0
LINE
  5
105AA
  8
0
 10
43.57899999995641
 20
3.421199999996588
 30
0.0
 11
38.60499999996136
 21
8.999899999990987
 31
0.0
1001
ACAD
1000
ASC_BOUNDS
1002
{
1070
    19
1005
105C4
1002
}
  0
LINE
  5
105AB
  8
0
 10
43.57899999995641
 20
8.763099999991255
 30
0.0
 11
43.57899999995641
 21
3.421199999996588
 31
0.0
1001
ACAD
1000
ASC_BOUNDS
1002
{
1070
    19
1005
105C4
1002
}
  0
LINE
  5
105AC
  8
0
 10
43.57899999995641
 20
8.763099999991255
 30
0.0
 11
44.99999999995498
 21
8.763099999991255
 31
0.0
1001
ACAD
1000
ASC_BOUNDS
1002
{
1070
    19
1005
105C4
1002
}
  0
LINE
  5
105AD
  8
0
 10
37.67199999996831
 20
8.763099999991255
 30
0.0
 11
36.23199999996837
 21
8.763099999991255
 31
0.0
  0
LINE
  5
105AE
  8
0
 10
31.64199999996833
 20
8.763099999991255
 30
0.0
 11
31.64199999996833
 21
2.481619422925121
 31
0.0
  0
LINE
  5
105AF
  8
0
 10
37.67199999996831
 20
8.763099999991255
 30
0.0
 11
37.67199999996831
 21
2.481619422925121
 31
0.0
  0
LINE
  5
105B0
  8
0
 10
36.23199999996837
 20
8.763099999991255
 30
0.0
 11
36.23199999996837
 21
2.481619422925064
 31
0.0
  0
LINE
  5
105B1
  8
0
 10
33.08199999996839
 20
8.763099999991255
 30
0.0
 11
33.08199999996839
 21
2.481619422925121
 31
0.0
  0
ARC
  5
105B2
  8
0
 10
34.65699999996832
 20
3.183099999991214
 30
0.0
 40
3.420000000000007
 50
240.0000000000255
 51
299.9999999999766
  0
ARC
  5
105B3
  8
0
 10
34.65699999996832
 20
3.183099999991214
 30
0.0
 40
1.97999999999999
 50
240.000000000026
 51
299.9999999999703
  0
LINE
  5
105B4
  8
0
 10
33.08199999996828
 20
8.763099999991255
 30
0.0
 11
31.64199999996833
 21
8.763099999991255
 31
0.0
  0
ARC
  5
105B5
  8
0
 10
35.06199999996829
 20
2.481619422925064
 30
0.0
 40
1.17
 50
299.9999999999699
 51
0.0
  0
ARC
  5
105B6
  8
0
 10
34.25199999996835
 20
2.481619422925121
 30
0.0
 40
1.17
 50
180.0
 51
240.0000000000238
  0
ARC
  5
105B7
  8
0
 10
35.06199999996841
 20
2.481619422925121
 30
0.0
 40
2.61
 50
299.9999999999756
 51
0.0
  0
ARC
  5
105B8
  8
0
 10
34.25199999996835
 20
2.481619422925121
 30
0.0
 40
2.61
 50
180.0
 51
240.0000000000244
  0
LINE
  5
105B9
  8
0
 10
29.30199999996933
 20
8.763099999991255
 30
0.0
 11
30.74199999996927
 21
8.763099999991255
 31
0.0
1001
ACAD
1000
ASC_BOUNDS
1002
{
1070
    19
1005
105C2
1002
}
  0
LINE
  5
105BA
  8
0
 10
30.74199999996927
 20
8.763099999991255
 30
0.0
 11
30.74199999996927
 21
2.373099999991211
 31
0.0
1001
ACAD
1000
ASC_BOUNDS
1002
{
1070
    19
1005
105C2
1002
}
  0
LINE
  5
105BB
  8
0
 10
26.02015566812236
 20
0.0330999999912365
 30
0.0
 11
28.40199999996923
 21
0.0330999999912365
 31
0.0
1001
ACAD
1000
ASC_BOUNDS
1002
{
1070
    19
1005
105C2
1002
}
  0
LINE
  5
105BC
  8
0
 10
29.30199999996933
 20
8.763099999991255
 30
0.0
 11
29.30199999996933
 21
2.283099999991236
 31
0.0
1001
ACAD
1000
ASC_BOUNDS
1002
{
1070
    19
1005
105C2
1002
}
  0
LINE
  5
105BD
  8
0
 10
26.97358892824991
 20
1.383099999991202
 30
0.0
 11
28.40199999996923
 21
1.383099999991202
 31
0.0
1001
ACAD
1000
ASC_BOUNDS
1002
{
1070
    19
1005
105C2
1002
}
  0
ARC
  5
105BE
  8
0
 10
28.40199999996923
 20
2.283099999991236
 30
0.0
 40
0.9
 50
270.0
 51
0.0
1001
ACAD
1000
ASC_BOUNDS
1002
{
1070
    19
1005
105C2
1002
}
  0
ARC
  5
105BF
  8
0
 10
28.40199999996923
 20
2.373099999991211
 30
0.0
 40
2.34
 50
270.0
 51
0.0
1001
ACAD
1000
ASC_BOUNDS
1002
{
1070
    19
1005
105C2
1002
}
  0
INSERT
  5
105C0
  8
0
  2
*X53
 10
0.0
 20
0.0
 30
0.0
1001
ACAD
1000
HATCH
1002
{
1070
    19
1000
ANSI37
1040
0.15
1040
0.0
1000
ASC_BOUNDS
1070
     2
1070
     2
1070
    12
1005
1057F
1005
10580
1005
10587
1005
10596
1005
10599
1005
10597
1005
10588
1005
1058D
1005
1058B
1005
1058F
1005
1058E
1005
10590
1070
     2
1070
     3
1005
1059B
1005
1059D
1005
1059C
1000
ASC_SEEDPOINT
1011
3.614004224891801
1021
2.996669441146025
1031
0.0
1021
2.996669441146025
1031
0.0
1000
R14_HATCH_DATA
1000
105C0
1011
1.0
1021
0.0
1031
0.0
1021
0.0
1031
0.0
1011
0.0
1021
1.0
1031
0.0
1021
1.0
1031
0.0
1011
0.0
1021
0.0
1031
1.0
1021
0.0
1031
1.0
1040
0.0
1010
0.0
1020
0.0
1030
1.0
1000
ANSI37
1070
     0
1070
     1
1071
        2
1071
        7
1070
     0
1070
     1
1071
       17
1040
13.26299999998673
1040
-0.0001000000000317
1040
9.236999999990758
1040
8.999899999990987
1040
9.236999999990758
1040
8.999999999991019
1040
5.657999999994331
1040
0.9999999999989768
1040
3.181999999996833
1040
4.668599999995308
1040
6.432999999993513
1040
8.763099999991255
1040
4.617999999995391
1040
8.763099999991255
1040
1.420999999998571
1040
4.736799999995242
1040
4.617999999995391
1040
-0.0001000000000317
1040
4.617999999995391
1040
0.0
1040
6.766999999993232
1040
0.0
1040
6.766999999993232
1040
-0.0001000000000317
1040
7.826999999992154
1040
2.368399999997621
1040
10.64699999998936
1040
2.368399999997621
1040
11.70599999998831
1040
-0.0001000000000317
1040
11.70599999998831
1040
0.0
1040
13.26299999998673
1040
0.0
1071
       12
1005
1057F
1005
10580
1005
10587
1005
10596
1005
10599
1005
10597
1005
10588
1005
1058D
1005
1058B
1005
1058F
1005
1058E
1005
10590
1071
       22
1070
     0
1070
     1
1071
        3
1040
9.236999999990758
1040
5.5200999999945
1040
10.06399999998996
1040
3.670999999996297
1040
8.409999999991555
1040
3.670999999996297
1071
        3
1005
1059B
1005
1059D
1005
1059C
1070
     0
1070
     1
1040
0.0
1040
0.15
1070
     0
1070
     2
1040
0.7853981633974483
1040
49.29960901727088
1040
-10.17736998311392
1040
-0.3367596045400932
1040
0.3367596045400932
1070
     0
1040
2.356194490192345
1040
49.29960901727088
1040
-10.17736998311392
1040
-0.3367596045400932
1040
-0.3367596045400932
1070
     0
1040
0.0110235143455945
1071
        2
1040
3.614004224891801
1040
2.996669441146025
1040
0.0
1040
3.614004224891801
1040
2.996669441146025
1040
0.0
1002
}
  0
INSERT
  5
105C1
  8
0
  2
*X54
 10
0.0
 20
0.0
 30
0.0
1001
ACAD
1000
HATCH
1002
{
1070
    19
1000
ANSI37
1040
0.15
1040
0.0
1000
ASC_BOUNDS
1070
     1
1070
     2
1070
    10
1005
10581
1005
10582
1005
105A3
1005
105A1
1005
105A2
1005
10595
1005
1059A
1005
1059E
1005
10584
1005
10583
1000
ASC_SEEDPOINT
1011
14.73245321214324
1021
2.798246178283421
1031
0.0
1021
2.798246178283421
1031
0.0
1000
R14_HATCH_DATA
1000
105C1
1011
1.0
1021
0.0
1031
0.0
1021
0.0
1031
0.0
1011
0.0
1021
1.0
1031
0.0
1021
1.0
1031
0.0
1011
0.0
1021
0.0
1031
1.0
1021
0.0
1031
1.0
1040
0.0
1010
0.0
1020
0.0
1030
1.0
1000
ANSI37
1070
     0
1070
     1
1071
        1
1071
        7
1070
     0
1070
     1
1071
       10
1040
16.46099999998353
1040
5.432899999994561
1040
18.59199999998134
1040
-0.2368999999997641
1040
22.38199999997767
1040
8.763099999991255
1040
20.89099999997916
1040
8.763099999991255
1040
18.59799999998143
1040
3.315799999996671
1040
16.46099999998353
1040
8.999899999990987
1040
14.32399999998563
1040
3.315799999996671
1040
12.02999999998792
1040
8.763099999991255
1040
10.53899999998941
1040
8.763099999991255
1040
14.32899999998563
1040
-0.2368999999997641
1071
       10
1005
10581
1005
10582
1005
105A3
1005
105A1
1005
105A2
1005
10595
1005
1059A
1005
1059E
1005
10584
1005
10583
1070
     0
1070
     1
1040
0.0
1040
0.15
1070
     0
1070
     2
1040
0.7853981633974483
1040
49.29960901727088
1040
-10.17736998311392
1040
-0.3367596045400932
1040
0.3367596045400932
1070
     0
1040
2.356194490192345
1040
49.29960901727088
1040
-10.17736998311392
1040
-0.3367596045400932
1040
-0.3367596045400932
1070
     0
1040
0.0110235143455945
1071
        1
1040
14.73245321214324
1040
2.798246178283421
1040
0.0
1002
}
  0
INSERT
  5
105C2
  8
0
  2
*X55
 10
0.0
 20
0.0
 30
0.0
1001
ACAD
1000
HATCH
1002
{
1070
    19
1000
ANSI37
1040
0.15
1040
0.0
1000
ASC_BOUNDS
1070
     2
1070
     2
1070
    13
1005
10585
1005
10592
1005
10593
1005
10591
1005
10594
1005
105BB
1005
105BF
1005
105BA
1005
105B9
1005
105BC
1005
105BE
1005
105BD
1005
10586
1070
     2
1070
     3
1005
1059F
1005
105A4
1005
105A0
1000
ASC_SEEDPOINT
1011
21.97929957367762
1021
3.294304244259308
1031
0.0
1021
3.294304244259308
1031
0.0
1000
R14_HATCH_DATA
1000
105C2
1011
1.0
1021
0.0
1031
0.0
1021
0.0
1031
0.0
1011
0.0
1021
1.0
1031
0.0
1021
1.0
1031
0.0
1011
0.0
1021
0.0
1031
1.0
1021
0.0
1031
1.0
1040
0.0
1010
0.0
1020
0.0
1030
1.0
1000
ANSI37
1070
     0
1070
     1
1071
        2
1071
        7
1070
     1
1070
     1
1071
       15
1040
23.56599999997638
1040
8.999899999990987
1040
0.0
1040
19.53899999998043
1040
-0.0001000000000317
1040
0.0
1040
19.53899999998043
1040
0.0
1040
0.0
1040
21.09599999997886
1040
0.0
1040
0.0
1040
21.09599999997886
1040
-0.0001000000000317
1040
0.0
1040
22.15599999997789
1040
2.368399999997621
1040
0.0
1040
24.97599999997499
1040
2.368399999997621
1040
0.0
1040
26.02015566812236
1040
0.0330999999912365
1040
0.0
1040
28.40199999996923
1040
0.0330999999912365
1040
0.414213562373095
1040
30.74199999996923
1040
2.373099999991211
1040
0.0
1040
30.74199999996927
1040
8.763099999991255
1040
0.0
1040
29.30199999996933
1040
8.763099999991255
1040
0.0
1040
29.30199999996933
1040
2.283099999991236
1040
-0.414213562373095
1040
28.40199999996923
1040
1.383099999991237
1040
0.0
1040
26.97358892824991
1040
1.383099999991202
1040
0.0
1071
       13
1005
10585
1005
10592
1005
10593
1005
10591
1005
10594
1005
105BB
1005
105BF
1005
105BA
1005
105B9
1005
105BC
1005
105BE
1005
105BD
1005
10586
1071
       22
1070
     0
1070
     1
1071
        3
1040
22.7389999999773
1040
3.670999999996297
1040
23.56599999997638
1040
5.5200999999945
1040
24.39299999997559
1040
3.670999999996297
1071
        3
1005
1059F
1005
105A4
1005
105A0
1070
     0
1070
     1
1040
0.0
1040
0.15
1070
     0
1070
     2
1040
0.7853981633974483
1040
49.29960901727088
1040
-10.17736998311392
1040
-0.3367596045400932
1040
0.3367596045400932
1070
     0
1040
2.356194490192345
1040
49.29960901727088
1040
-10.17736998311392
1040
-0.3367596045400932
1040
-0.3367596045400932
1070
     0
1040
0.0110235143455945
1071
        2
1040
21.97929957367762
1040
3.294304244259308
1040
0.0
1040
21.97929957367762
1040
3.294304244259308
1040
0.0
1002
}
  0
INSERT
  5
105C3
  8
0
  2
*X56
 10
0.0
 20
0.0
 30
0.0
1001
ACAD
1000
HATCH
1002
{
1070
    19
1000
ANSI37
1040
0.15
1040
0.0
1000
R14_HATCH_DATA
1000
105C3
1011
1.0
1021
0.0
1031
0.0
1021
0.0
1031
0.0
1011
0.0
1021
1.0
1031
0.0
1021
1.0
1031
0.0
1011
0.0
1021
0.0
1031
1.0
1021
0.0
1031
1.0
1040
0.0
1010
0.0
1020
0.0
1030
1.0
1000
ANSI37
1070
     0
1070
     1
1071
        1
1071
        7
1070
     1
1070
     1
1071
       12
1040
31.64199999996833
1040
2.481619422925121
1040
0.2679491924310942
1040
32.94699999997067
1040
0.2212931190493919
1040
0.2679491924301353
1040
36.36699999995983
1040
0.2212931190459813
1040
0.2679491924321411
1040
37.67199999996831
1040
2.481619422928361
1040
0.0
1040
37.67199999996831
1040
8.763099999991255
1040
0.0
1040
36.23199999996837
1040
8.763099999991255
1040
0.0
1040
36.23199999996837
1040
2.481619422925064
1040
-0.2679491924310291
1040
35.64699999996708
1040
1.468369700498386
1040
-0.267949192430519
1040
33.66699999997093
1040
1.468369700497703
1040
-0.267949192431809
1040
33.08199999996839
1040
2.481619422926997
1040
0.0
1040
33.08199999996839
1040
8.763099999991255
1040
0.0
1040
31.64199999996833
1040
8.763099999991255
1040
0.0
1071
        0
1070
     0
1070
     1
1040
0.0
1040
0.15
1070
     0
1070
     2
1040
0.7853981633974483
1040
49.29960901727088
1040
-10.17736998311392
1040
-0.3367596045400932
1040
0.3367596045400932
1070
     0
1040
2.356194490192345
1040
49.29960901727088
1040
-10.17736998311392
1040
-0.3367596045400932
1040
-0.3367596045400932
1070
     0
1040
0.0110235143455945
1071
        1
1040
32.30357378967278
1040
3.988785755459219
1040
0.0
1002
}
  0
INSERT
  5
105C4
  8
0
  2
*X57
 10
0.0
 20
0.0
 30
0.0
1001
ACAD
1000
HATCH
1002
{
1070
    19
1000
ANSI37
1040
0.15
1040
0.0
1000
ASC_BOUNDS
1070
     1
1070
     2
1070
     8
1005
105A5
1005
105A8
1005
105AC
1005
105AB
1005
105AA
1005
105A7
1005
105A9
1005
105A6
1000
ASC_SEEDPOINT
1011
39.74896370716704
1021
4.484843821435049
1031
0.0
1021
4.484843821435049
1031
0.0
1000
R14_HATCH_DATA
1000
105C4
1011
1.0
1021
0.0
1031
0.0
1021
0.0
1031
0.0
1011
0.0
1021
1.0
1031
0.0
1021
1.0
1031
0.0
1011
0.0
1021
0.0
1031
1.0
1021
0.0
1031
1.0
1040
0.0
1010
0.0
1020
0.0
1030
1.0
1000
ANSI37
1070
     0
1070
     1
1071
        1
1071
        7
1070
     0
1070
     1
1071
        9
1040
40.02599999995994
1040
5.341799999994635
1040
44.99999999995498
1040
-0.2368999999997641
1040
44.99999999995498
1040
8.763099999991255
1040
43.57899999995641
1040
8.763099999991255
1040
43.57899999995641
1040
3.421199999996588
1040
38.60499999996136
1040
8.999899999990987
1040
38.60499999996136
1040
8.999999999991019
1040
38.60499999996136
1040
0.0
1040
40.02599999995994
1040
0.0
1071
        8
1005
105A5
1005
105A8
1005
105AC
1005
105AB
1005
105AA
1005
105A7
1005
105A9
1005
105A6
1070
     0
1070
     1
1040
0.0
1040
0.15
1070
     0
1070
     2
1040
0.7853981633974483
1040
49.29960901727088
1040
-10.17736998311392
1040
-0.3367596045400932
1040
0.3367596045400932
1070
     0
1040
2.356194490192345
1040
49.29960901727088
1040
-10.17736998311392
1040
-0.3367596045400932
1040
-0.3367596045400932
1070
     0
1040
0.0110235143455945
1071
        1
1040
39.74896370716704
1040
4.484843821435049
1040
0.0
1002
}
  0
INSERT
  5
105C5
  8
0
  2
*X58
 10
0.0
 20
0.0
 30
0.0
1001
ACAD
1000
HATCH
1002
{
1070
    19
1000
ANSI37
1040
0.15
1040
0.0
1000
ASC_BOUNDS
1070
     1
1070
     2
1070
     4
1005
10589
1005
10598
1005
1058A
1005
1058C
1000
ASC_SEEDPOINT
1011
1.079051535452663
1021
4.148538732891836
1031
0.0
1021
4.148538732891836
1031
0.0
1000
R14_HATCH_DATA
1000
105C5
1011
1.0
1021
0.0
1031
0.0
1021
0.0
1031
0.0
1011
0.0
1021
1.0
1031
0.0
1021
1.0
1031
0.0
1011
0.0
1021
0.0
1031
1.0
1021
0.0
1031
1.0
1040
0.0
1010
0.0
1020
0.0
1030
1.0
1000
ANSI37
1070
     0
1070
     1
1071
        1
1071
        7
1070
     0
1070
     1
1071
        4
1040
1.420999999998571
1040
0.0
1040
1.420999999998571
1040
8.763099999991255
1040
0.0
1040
8.763099999991255
1040
0.0
1040
0.0
1071
        4
1005
10589
1005
10598
1005
1058A
1005
1058C
1070
     0
1070
     1
1040
0.0
1040
0.15
1070
     0
1070
     2
1040
0.7853981633974483
1040
49.29960901727088
1040
-10.17736998311392
1040
-0.3367596045400932
1040
0.3367596045400932
1070
     0
1040
2.356194490192345
1040
49.29960901727088
1040
-10.17736998311392
1040
-0.3367596045400932
1040
-0.3367596045400932
1070
     0
1040
0.0053004257112761
1071
        1
1040
1.079051535452663
1040
4.148538732891836
1040
0.0
1002
}
  0
ENDBLK
  5
10C7D
  8
0
  0
BLOCK
  8
0
  2
NO3CIRCLE
 70
     2
 10
0.0
 20
0.0
 30
0.0
  3
NO3CIRCLE
  1

  0
CIRCLE
  5
13C6E
  8
0
  6
BYBLOCK
 62
     0
 10
0.0
 20
0.0
 30
0.0
 40
4.2
  0
ATTDEF
  5
13C6F
  8
1TEXT
 10
-3.428571428571427
 20
-2.0
 30
0.0
 40
4.0
  1
000
 41
0.6
  7
STANDARD06
 72
     4
 11
0.0
 21
0.0
 31
0.0
  3
NO3
  2
NO3
 70
     0
  0
ENDBLK
  5
13C70
  8
0
  0
BLOCK
  8
0
  2
*X53
 70
     1
 10
0.0
 20
0.0
 30
0.0
  3
*X53
  1

  0
LINE
  5
16731
  8
0
  6
CONTINUOUS
 10
3.418023043697893
 20
7.251849696850613
 30
0.0
 11
4.929273346838536
 21
8.763099999991255
 31
0.0
  0
LINE
  5
16732
  8
0
  6
CONTINUOUS
 10
1.483656411257782
 20
4.643963855330318
 30
0.0
 11
5.60279255591872
 21
8.763099999991255
 31
0.0
  0
LINE
  5
16733
  8
0
  6
CONTINUOUS
 10
1.755053947328235
 20
4.241842182320584
 30
0.0
 11
6.276311764998907
 21
8.763099999991255
 31
0.0
  0
LINE
  5
16734
  8
0
  6
CONTINUOUS
 10
2.026451483398688
 20
3.839720509310849
 30
0.0
 11
4.441040904851878
 21
6.254309930764039
 31
0.0
  0
LINE
  5
16735
  8
0
  6
CONTINUOUS
 10
2.297849019469139
 20
3.437598836301114
 30
0.0
 11
3.321765168359338
 21
4.461514985191313
 31
0.0
  0
LINE
  5
16736
  8
0
  6
CONTINUOUS
 10
2.569246555539591
 20
3.03547716329138
 30
0.0
 11
3.593163397972743
 21
4.059394005724531
 31
0.0
  0
LINE
  5
16737
  8
0
  6
CONTINUOUS
 10
2.840644091610043
 20
2.633355490281646
 30
0.0
 11
3.864561627586149
 21
3.657273026257751
 31
0.0
  0
LINE
  5
16738
  8
0
  6
CONTINUOUS
 10
3.112041627680496
 20
2.231233817271911
 30
0.0
 11
4.135959857199554
 21
3.25515204679097
 31
0.0
  0
LINE
  5
16739
  8
0
  6
CONTINUOUS
 10
3.383439163750948
 20
1.829112144262177
 30
0.0
 11
4.40735808681296
 21
2.853031067324189
 31
0.0
  0
LINE
  5
1673A
  8
0
  6
CONTINUOUS
 10
3.654836699821399
 20
1.426990471252442
 30
0.0
 11
4.678756316426365
 21
2.450910087857407
 31
0.0
  0
LINE
  5
1673B
  8
0
  6
CONTINUOUS
 10
3.926234235891853
 20
1.024868798242709
 30
0.0
 11
4.95015454603977
 21
2.048789108390626
 31
0.0
  0
LINE
  5
1673C
  8
0
  6
CONTINUOUS
 10
4.197631771962304
 20
0.6227471252329737
 30
0.0
 11
5.221552775653176
 21
1.646668128923846
 31
0.0
  0
LINE
  5
1673D
  8
0
  6
CONTINUOUS
 10
8.715877546767851
 20
7.835069736359266
 30
0.0
 11
9.435953450375058
 21
8.555145639966472
 31
0.0
  0
LINE
  5
1673E
  8
0
  6
CONTINUOUS
 10
8.170620868422267
 20
6.616293848933497
 30
0.0
 11
9.644120833743461
 21
8.08979381425469
 31
0.0
  0
LINE
  5
1673F
  8
0
  6
CONTINUOUS
 10
7.625364190076684
 20
5.397517961507727
 30
0.0
 11
9.852288217111864
 21
7.624441988542907
 31
0.0
  0
LINE
  5
16740
  8
0
  6
CONTINUOUS
 10
7.080107511731101
 20
4.178742074081957
 30
0.0
 11
10.06045560048027
 21
7.159090162831124
 31
0.0
  0
LINE
  5
16741
  8
0
  6
CONTINUOUS
 10
6.534850833385518
 20
2.959966186656187
 30
0.0
 11
10.26862298384867
 21
6.693738337119342
 31
0.0
  0
LINE
  5
16742
  8
0
  6
CONTINUOUS
 10
4.469029308032756
 20
0.2206254522232385
 30
0.0
 11
5.492951005266582
 21
1.244547149457064
 31
0.0
  0
LINE
  5
16743
  8
0
  6
CONTINUOUS
 10
5.989594155039935
 20
1.741190299230417
 30
0.0
 11
8.806950407233131
 21
4.558546551423613
 31
0.0
  0
LINE
  5
16744
  8
0
  6
CONTINUOUS
 10
9.401251593263643
 20
5.152847737454126
 30
0.0
 11
10.47679036721708
 21
6.228386511407559
 31
0.0
  0
LINE
  5
16745
  8
0
  6
CONTINUOUS
 10
4.921837203428691
 20
-0.0000858614610131
 30
0.0
 11
8.592923064886001
 21
3.670999999996297
 31
0.0
  0
LINE
  5
16746
  8
0
  6
CONTINUOUS
 10
9.609390446785305
 20
4.6874673818956
 30
0.0
 11
10.68495775058548
 21
5.763034685695775
 31
0.0
  0
LINE
  5
16747
  8
0
  6
CONTINUOUS
 10
5.595387755019432
 20
-0.0000545189504582
 30
0.0
 11
7.716137258923768
 21
2.120694984953879
 31
0.0
  0
LINE
  5
16748
  8
0
  6
CONTINUOUS
 10
6.268938306610172
 20
-0.000023176439905
 30
0.0
 11
7.170485805526503
 21
0.9015243224764267
 31
0.0
  0
LINE
  5
16749
  8
0
  6
CONTINUOUS
 10
7.963842273967511
 20
2.368399999997621
 30
0.0
 11
9.266442273966188
 21
3.670999999996297
 31
0.0
  0
LINE
  5
1674A
  8
0
  6
CONTINUOUS
 10
8.637361483047696
 20
2.368399999997621
 30
0.0
 11
9.939961483046375
 21
3.670999999996297
 31
0.0
  0
LINE
  5
1674B
  8
0
  6
CONTINUOUS
 10
9.817529300306965
 20
4.222087026337075
 30
0.0
 11
10.89312513395388
 21
5.297682859983993
 31
0.0
  0
LINE
  5
1674C
  8
0
  6
CONTINUOUS
 10
10.02566815382863
 20
3.756706670778549
 30
0.0
 11
11.10129251732229
 21
4.832331034272211
 31
0.0
  0
LINE
  5
1674D
  8
0
  6
CONTINUOUS
 10
9.310880692127883
 20
2.368399999997621
 30
0.0
 11
11.30945990069069
 21
4.366979208560428
 31
0.0
  0
LINE
  5
1674E
  8
0
  6
CONTINUOUS
 10
9.98439990120807
 20
2.36839999999762
 30
0.0
 11
11.5176272840591
 21
3.901627382848645
 31
0.0
  0
LINE
  5
1674F
  8
0
  6
CONTINUOUS
 10
10.65037369446246
 20
2.36085458417182
 30
0.0
 11
11.7257946674275
 21
3.436275557136862
 31
0.0
  0
LINE
  5
16750
  8
0
  6
CONTINUOUS
 10
10.85847197087848
 20
1.895433651507656
 30
0.0
 11
11.9339620507959
 21
2.97092373142508
 31
0.0
  0
LINE
  5
16751
  8
0
  6
CONTINUOUS
 10
11.0665702472945
 20
1.430012718843491
 30
0.0
 11
12.14212943416431
 21
2.505571905713296
 31
0.0
  0
LINE
  5
16752
  8
0
  6
CONTINUOUS
 10
11.27466852371052
 20
0.9645917861793256
 30
0.0
 11
12.35029681753271
 21
2.040220080001513
 31
0.0
  0
LINE
  5
16753
  8
0
  6
CONTINUOUS
 10
11.48276680012654
 20
0.4991708535151611
 30
0.0
 11
12.55846420090111
 21
1.57486825428973
 31
0.0
  0
LINE
  5
16754
  8
0
  6
CONTINUOUS
 10
11.69086507654257
 20
0.0337499208509957
 30
0.0
 11
12.76663158426952
 21
1.109516428577947
 31
0.0
  0
LINE
  5
16755
  8
0
  6
CONTINUOUS
 10
12.33057447873954
 20
-0.0000598860322123
 30
0.0
 11
12.97479896763792
 21
0.6441646028661663
 31
0.0
  0
LINE
  5
16756
  8
0
  6
CONTINUOUS
 10
13.00413694809395
 20
-0.0000166257579952
 30
0.0
 11
13.18296635100632
 21
0.1788127771543824
 31
0.0
  0
LINE
  5
16757
  8
0
  6
CONTINUOUS
 10
4.772852165289667
 20
-0.000092794222212
 30
0.0
 11
4.296495091028902
 21
0.4762642800385528
 31
0.0
  0
LINE
  5
16758
  8
0
  6
CONTINUOUS
 10
5.446340034776103
 20
-0.0000614546284616
 30
0.0
 11
2.898195908335625
 21
2.548082671812017
 31
0.0
  0
LINE
  5
16759
  8
0
  6
CONTINUOUS
 10
6.119827904262539
 20
-0.0000301150347113
 30
0.0
 11
1.499896725642348
 21
4.61990106358548
 31
0.0
  0
LINE
  5
1675A
  8
0
  6
CONTINUOUS
 10
6.775136745476159
 20
0.0181802528318542
 30
0.0
 11
5.699826040202669
 21
1.093490958105344
 31
0.0
  0
LINE
  5
1675B
  8
0
  6
CONTINUOUS
 10
6.983376846288489
 20
0.4834593610997118
 30
0.0
 11
5.908008617934405
 21
1.558827589453796
 31
0.0
  0
LINE
  5
1675C
  8
0
  6
CONTINUOUS
 10
5.377063484962296
 20
1.416253513345719
 30
0.0
 11
1.702276957014131
 21
5.091040041293883
 31
0.0
  0
LINE
  5
1675D
  8
0
  6
CONTINUOUS
 10
3.978745891735324
 20
3.488090315652877
 30
0.0
 11
2.000373521109399
 21
5.466462686278803
 31
0.0
  0
LINE
  5
1675E
  8
0
  6
CONTINUOUS
 10
7.191616947100819
 20
0.948738469367568
 30
0.0
 11
6.11619119566614
 21
2.024164220802247
 31
0.0
  0
LINE
  5
1675F
  8
0
  6
CONTINUOUS
 10
7.399857047913149
 20
1.414017577635424
 30
0.0
 11
6.324373773397875
 21
2.489500852150698
 31
0.0
  0
LINE
  5
16760
  8
0
  6
CONTINUOUS
 10
7.608097148725479
 20
1.879296685903281
 30
0.0
 11
6.53255635112961
 21
2.95483748349915
 31
0.0
  0
LINE
  5
16761
  8
0
  6
CONTINUOUS
 10
7.816337249537808
 20
2.344575794171138
 30
0.0
 11
6.740738928861345
 21
3.420174114847601
 31
0.0
  0
LINE
  5
16762
  8
0
  6
CONTINUOUS
 10
3.310241080789734
 20
4.830114335678653
 30
0.0
 11
2.298470085204666
 21
5.84188533126372
 31
0.0
  0
LINE
  5
16763
  8
0
  6
CONTINUOUS
 10
3.60832983563551
 20
5.205544789913063
 30
0.0
 11
2.596566649299935
 21
6.217307976248638
 31
0.0
  0
LINE
  5
16764
  8
0
  6
CONTINUOUS
 10
3.906418590481286
 20
5.580975244147473
 30
0.0
 11
2.894663213395203
 21
6.592730621233557
 31
0.0
  0
LINE
  5
16765
  8
0
  6
CONTINUOUS
 10
4.204507345327062
 20
5.956405698381884
 30
0.0
 11
3.192759777490472
 21
6.968153266218474
 31
0.0
  0
LINE
  5
16766
  8
0
  6
CONTINUOUS
 10
8.466032252791512
 20
2.368399999997621
 30
0.0
 11
6.948921506593081
 21
3.885510746196053
 31
0.0
  0
LINE
  5
16767
  8
0
  6
CONTINUOUS
 10
9.139551461871699
 20
2.36839999999762
 30
0.0
 11
7.157104084324816
 21
4.350847377544504
 31
0.0
  0
LINE
  5
16768
  8
0
  6
CONTINUOUS
 10
4.502596100172839
 20
6.331836152616295
 30
0.0
 11
3.49085634158574
 21
7.343575911203393
 31
0.0
  0
LINE
  5
16769
  8
0
  6
CONTINUOUS
 10
4.800684855018615
 20
6.707266606850705
 30
0.0
 11
3.788952905681008
 21
7.718998556188312
 31
0.0
  0
LINE
  5
1676A
  8
0
  6
CONTINUOUS
 10
12.18154012887317
 20
-0.0000694579236642
 30
0.0
 11
11.32140332908496
 21
0.8600673418645499
 31
0.0
  0
LINE
  5
1676B
  8
0
  6
CONTINUOUS
 10
12.85501608323566
 20
-0.0000262032059659
 30
0.0
 11
10.77672456435345
 21
2.078265315676246
 31
0.0
  0
LINE
  5
1676C
  8
0
  6
CONTINUOUS
 10
9.813070670951886
 20
2.36839999999762
 30
0.0
 11
8.51047067095321
 21
3.670999999996297
 31
0.0
  0
LINE
  5
1676D
  8
0
  6
CONTINUOUS
 10
10.48658988003207
 20
2.36839999999762
 30
0.0
 11
9.183989880033396
 21
3.670999999996297
 31
0.0
  0
LINE
  5
1676E
  8
0
  6
CONTINUOUS
 10
8.441048632286794
 20
3.740422038662712
 30
0.0
 11
7.365286662056551
 21
4.816184008892956
 31
0.0
  0
LINE
  5
1676F
  8
0
  6
CONTINUOUS
 10
8.649187485808454
 20
4.205802394221237
 30
0.0
 11
7.573469239788285
 21
5.281520640241407
 31
0.0
  0
LINE
  5
16770
  8
0
  6
CONTINUOUS
 10
5.098773609864391
 20
7.082697061085115
 30
0.0
 11
4.087049469776277
 21
8.09442120117323
 31
0.0
  0
LINE
  5
16771
  8
0
  6
CONTINUOUS
 10
5.396862364710167
 20
7.458127515319526
 30
0.0
 11
4.385146033871544
 21
8.469843846158149
 31
0.0
  0
LINE
  5
16772
  8
0
  6
CONTINUOUS
 10
13.04801363231285
 20
0.4804954567970334
 30
0.0
 11
9.85750908911358
 21
3.670999999996297
 31
0.0
  0
LINE
  5
16773
  8
0
  6
CONTINUOUS
 10
8.857326339330116
 20
4.671182749779763
 30
0.0
 11
7.781651817520021
 21
5.746857271589858
 31
0.0
  0
LINE
  5
16774
  8
0
  6
CONTINUOUS
 10
5.694951119555943
 20
7.833557969553937
 30
0.0
 11
4.765409089118624
 21
8.763099999991255
 31
0.0
  0
LINE
  5
16775
  8
0
  6
CONTINUOUS
 10
12.50286117236978
 20
1.699167125820288
 30
0.0
 11
9.68611877250287
 21
4.515909525687196
 31
0.0
  0
LINE
  5
16776
  8
0
  6
CONTINUOUS
 10
9.065465192851777
 20
5.136563105338288
 30
0.0
 11
7.989834395251757
 21
6.21219390293831
 31
0.0
  0
LINE
  5
16777
  8
0
  6
CONTINUOUS
 10
5.993039874401719
 20
8.208988423788346
 30
0.0
 11
5.43892829819881
 21
8.763099999991255
 31
0.0
  0
LINE
  5
16778
  8
0
  6
CONTINUOUS
 10
11.95770871242671
 20
2.917838794843543
 30
0.0
 11
8.19801697298349
 21
6.677530534286761
 31
0.0
  0
LINE
  5
16779
  8
0
  6
CONTINUOUS
 10
6.291128629247495
 20
8.584418878022756
 30
0.0
 11
6.112447507278997
 21
8.763099999991255
 31
0.0
  0
LINE
  5
1677A
  8
0
  6
CONTINUOUS
 10
11.41255625248364
 20
4.136510463866797
 30
0.0
 11
8.406199550715227
 21
7.142867165635211
 31
0.0
  0
LINE
  5
1677B
  8
0
  6
CONTINUOUS
 10
10.86740379254057
 20
5.355182132890051
 30
0.0
 11
8.614382128446962
 21
7.608203796983664
 31
0.0
  0
LINE
  5
1677C
  8
0
  6
CONTINUOUS
 10
10.3222513325975
 20
6.573853801913305
 30
0.0
 11
8.822564706178696
 21
8.073540428332114
 31
0.0
  0
LINE
  5
1677D
  8
0
  6
CONTINUOUS
 10
9.777098872654436
 20
7.792525470936562
 30
0.0
 11
9.030747283910433
 21
8.538877059680566
 31
0.0
  0
ENDBLK
  5
168BF
  8
0
  0
BLOCK
  8
0
  2
*X54
 70
     1
 10
0.0
 20
0.0
 30
0.0
  3
*X54
  1

  0
LINE
  5
1677F
  8
0
  6
CONTINUOUS
 10
10.67292308101235
 20
8.445076852443387
 30
0.0
 11
10.99094622856022
 21
8.763099999991255
 31
0.0
  0
LINE
  5
16780
  8
0
  6
CONTINUOUS
 10
10.87250383178748
 20
7.971138394138331
 30
0.0
 11
11.6644654376404
 21
8.763099999991255
 31
0.0
  0
LINE
  5
16781
  8
0
  6
CONTINUOUS
 10
11.07208458256261
 20
7.497199935833273
 30
0.0
 11
12.12126590876355
 21
8.546381262034211
 31
0.0
  0
LINE
  5
16782
  8
0
  6
CONTINUOUS
 10
11.27166533333774
 20
7.023261477528216
 30
0.0
 11
12.32085164573666
 21
8.072447789927136
 31
0.0
  0
LINE
  5
16783
  8
0
  6
CONTINUOUS
 10
11.47124608411287
 20
6.549323019223158
 30
0.0
 11
12.52043738270977
 21
7.59851431782006
 31
0.0
  0
LINE
  5
16784
  8
0
  6
CONTINUOUS
 10
11.670826834888
 20
6.075384560918101
 30
0.0
 11
12.72002311968288
 21
7.124580845712984
 31
0.0
  0
LINE
  5
16785
  8
0
  6
CONTINUOUS
 10
11.87040758566313
 20
5.601446102613043
 30
0.0
 11
12.91960885665599
 21
6.650647373605907
 31
0.0
  0
LINE
  5
16786
  8
0
  6
CONTINUOUS
 10
12.06998833643825
 20
5.127507644307986
 30
0.0
 11
13.1191945936291
 21
6.176713901498832
 31
0.0
  0
LINE
  5
16787
  8
0
  6
CONTINUOUS
 10
12.26956908721338
 20
4.65356918600293
 30
0.0
 11
13.31878033060221
 21
5.702780429391757
 31
0.0
  0
LINE
  5
16788
  8
0
  6
CONTINUOUS
 10
12.46914983798851
 20
4.179630727697873
 30
0.0
 11
13.51836606757532
 21
5.228846957284683
 31
0.0
  0
LINE
  5
16789
  8
0
  6
CONTINUOUS
 10
12.66873058876364
 20
3.705692269392816
 30
0.0
 11
13.71795180454843
 21
4.754913485177607
 31
0.0
  0
LINE
  5
1678A
  8
0
  6
CONTINUOUS
 10
12.86831133953877
 20
3.231753811087759
 30
0.0
 11
13.91753754152154
 21
4.280980013070531
 31
0.0
  0
LINE
  5
1678B
  8
0
  6
CONTINUOUS
 10
13.0678920903139
 20
2.757815352782702
 30
0.0
 11
14.11712327849465
 21
3.807046540963456
 31
0.0
  0
LINE
  5
1678C
  8
0
  6
CONTINUOUS
 10
13.26747284108903
 20
2.283876894477644
 30
0.0
 11
14.31670901546777
 21
3.333113068856379
 31
0.0
  0
LINE
  5
1678D
  8
0
  6
CONTINUOUS
 10
16.36767838827179
 20
8.751678487061342
 30
0.0
 11
16.50332410898388
 21
8.887324207773432
 31
0.0
  0
LINE
  5
1678E
  8
0
  6
CONTINUOUS
 10
15.96190732182191
 20
7.67238821153127
 30
0.0
 11
16.68735328004734
 21
8.397834169756699
 31
0.0
  0
LINE
  5
1678F
  8
0
  6
CONTINUOUS
 10
15.55613625537202
 20
6.593097936001196
 30
0.0
 11
16.87138245111079
 21
7.908344131739965
 31
0.0
  0
LINE
  5
16790
  8
0
  6
CONTINUOUS
 10
15.15036518892213
 20
5.513807660471122
 30
0.0
 11
17.05541162217424
 21
7.418854093723231
 31
0.0
  0
LINE
  5
16791
  8
0
  6
CONTINUOUS
 10
14.74459412247225
 20
4.434517384941048
 30
0.0
 11
17.2394407932377
 21
6.929364055706499
 31
0.0
  0
LINE
  5
16792
  8
0
  6
CONTINUOUS
 10
14.33882305602236
 20
3.355227109410975
 30
0.0
 11
17.42346996430115
 21
6.439874017689766
 31
0.0
  0
LINE
  5
16793
  8
0
  6
CONTINUOUS
 10
13.46705359186416
 20
1.809938436172586
 30
0.0
 11
16.0819338255367
 21
4.424818669845129
 31
0.0
  0
LINE
  5
16794
  8
0
  6
CONTINUOUS
 10
16.63283254238972
 20
4.975717386698149
 30
0.0
 11
17.60749913536461
 21
5.950383979673033
 31
0.0
  0
LINE
  5
16795
  8
0
  6
CONTINUOUS
 10
13.66663434263929
 20
1.335999977867529
 30
0.0
 11
15.67604797733754
 21
3.345413612565779
 31
0.0
  0
LINE
  5
16796
  8
0
  6
CONTINUOUS
 10
13.86621509341442
 20
0.8620615195624723
 30
0.0
 11
15.27016212913838
 21
2.26600855528643
 31
0.0
  0
LINE
  5
16797
  8
0
  6
CONTINUOUS
 10
16.81682257348267
 20
4.486188208710908
 30
0.0
 11
17.79152830642806
 21
5.460893941656299
 31
0.0
  0
LINE
  5
16798
  8
0
  6
CONTINUOUS
 10
17.00081260457561
 20
3.996659030723667
 30
0.0
 11
17.97555747749151
 21
4.971403903639565
 31
0.0
  0
LINE
  5
16799
  8
0
  6
CONTINUOUS
 10
20.74362343514722
 20
8.412989070375462
 30
0.0
 11
21.09373436476302
 21
8.763099999991256
 31
0.0
  0
LINE
  5
1679A
  8
0
  6
CONTINUOUS
 10
20.25401257174777
 20
7.249858997895826
 30
0.0
 11
21.7672535738432
 21
8.763099999991255
 31
0.0
  0
LINE
  5
1679B
  8
0
  6
CONTINUOUS
 10
14.06579584418955
 20
0.3881230612574149
 30
0.0
 11
14.86427628093921
 21
1.186603498007082
 31
0.0
  0
LINE
  5
1679C
  8
0
  6
CONTINUOUS
 10
14.26537659496467
 20
-0.0858153970476412
 30
0.0
 11
14.45839043274005
 21
0.1071984407277329
 31
0.0
  0
LINE
  5
1679D
  8
0
  6
CONTINUOUS
 10
17.18480263566856
 20
3.507129852736426
 30
0.0
 11
18.15958664855496
 21
4.481913865622833
 31
0.0
  0
LINE
  5
1679E
  8
0
  6
CONTINUOUS
 10
17.3687926667615
 20
3.017600674749186
 30
0.0
 11
18.34361581961842
 21
3.9924238276061
 31
0.0
  0
LINE
  5
1679F
  8
0
  6
CONTINUOUS
 10
19.76440170834832
 20
6.086728925416191
 30
0.0
 11
22.33924590259489
 21
8.661573119662755
 31
0.0
  0
LINE
  5
167A0
  8
0
  6
CONTINUOUS
 10
19.27479084494887
 20
4.923598852936555
 30
0.0
 11
21.84929622842713
 21
7.498104236414807
 31
0.0
  0
LINE
  5
167A1
  8
0
  6
CONTINUOUS
 10
17.55278269785445
 20
2.528071496761945
 30
0.0
 11
18.52764499068187
 21
3.502933789589366
 31
0.0
  0
LINE
  5
167A2
  8
0
  6
CONTINUOUS
 10
18.78517998154942
 20
3.760468780456919
 30
0.0
 11
21.35934655425936
 21
6.33463535316686
 31
0.0
  0
LINE
  5
167A3
  8
0
  6
CONTINUOUS
 10
17.73677272894739
 20
2.038542318774704
 30
0.0
 11
20.8693968800916
 21
5.171166469918914
 31
0.0
  0
LINE
  5
167A4
  8
0
  6
CONTINUOUS
 10
17.92076276004034
 20
1.549013140787464
 30
0.0
 11
20.37944720592384
 21
4.007697586670968
 31
0.0
  0
LINE
  5
167A5
  8
0
  6
CONTINUOUS
 10
18.10475279113329
 20
1.059483962800223
 30
0.0
 11
19.88949753175608
 21
2.84422870342302
 31
0.0
  0
LINE
  5
167A6
  8
0
  6
CONTINUOUS
 10
18.28874282222623
 20
0.5699547848129822
 30
0.0
 11
19.39954785758832
 21
1.680759820175074
 31
0.0
  0
LINE
  5
167A7
  8
0
  6
CONTINUOUS
 10
18.47273285331918
 20
0.0804256068257416
 30
0.0
 11
18.90959818342056
 21
0.517290936927127
 31
0.0
  0
LINE
  5
167A8
  8
0
  6
CONTINUOUS
 10
14.3590401358224
 20
-0.1570118376323384
 30
0.0
 11
14.24903296539946
 21
-0.0470046672093929
 31
0.0
  0
LINE
  5
167A9
  8
0
  6
CONTINUOUS
 10
14.54309291258661
 20
0.332454594683643
 30
0.0
 11
13.75908329123172
 21
1.116464216038529
 31
0.0
  0
LINE
  5
167AA
  8
0
  6
CONTINUOUS
 10
14.72714568935081
 20
0.8219210269996244
 30
0.0
 11
13.26913361706399
 21
2.27993309928645
 31
0.0
  0
LINE
  5
167AB
  8
0
  6
CONTINUOUS
 10
14.91119846611502
 20
1.311387459315606
 30
0.0
 11
12.77918394289625
 21
3.443401982534371
 31
0.0
  0
LINE
  5
167AC
  8
0
  6
CONTINUOUS
 10
15.09525124287922
 20
1.800853891631587
 30
0.0
 11
12.28923426872852
 21
4.606870865782293
 31
0.0
  0
LINE
  5
167AD
  8
0
  6
CONTINUOUS
 10
15.27930401964343
 20
2.290320323947569
 30
0.0
 11
11.79928459456078
 21
5.770339749030213
 31
0.0
  0
LINE
  5
167AE
  8
0
  6
CONTINUOUS
 10
15.46335679640763
 20
2.77978675626355
 30
0.0
 11
14.48885470994921
 21
3.754288842721972
 31
0.0
  0
LINE
  5
167AF
  8
0
  6
CONTINUOUS
 10
13.88507249233704
 20
4.358071060334137
 30
0.0
 11
11.30933492039305
 21
6.933808632278135
 31
0.0
  0
LINE
  5
167B0
  8
0
  6
CONTINUOUS
 10
18.75840522805855
 20
0.1582575336928151
 30
0.0
 11
18.25383727664818
 21
0.6628254851031863
 31
0.0
  0
LINE
  5
167B1
  8
0
  6
CONTINUOUS
 10
15.64740957317184
 20
3.269253188579531
 30
0.0
 11
14.67288388101266
 21
4.243778880738705
 31
0.0
  0
LINE
  5
167B2
  8
0
  6
CONTINUOUS
 10
13.39509276772158
 20
5.521569994029786
 30
0.0
 11
10.81938524622531
 21
8.097277515526056
 31
0.0
  0
LINE
  5
167B3
  8
0
  6
CONTINUOUS
 10
18.95798597883369
 20
0.6321959919978686
 30
0.0
 11
17.84825644852853
 21
1.741925522303024
 31
0.0
  0
LINE
  5
167B4
  8
0
  6
CONTINUOUS
 10
19.15756672960882
 20
1.106134450302922
 30
0.0
 11
17.44267562040888
 21
2.821025559502861
 31
0.0
  0
LINE
  5
167B5
  8
0
  6
CONTINUOUS
 10
15.83146234993604
 20
3.758719620895513
 30
0.0
 11
14.85691305207612
 21
4.733268918755439
 31
0.0
  0
LINE
  5
167B6
  8
0
  6
CONTINUOUS
 10
16.01551512670025
 20
4.248186053211494
 30
0.0
 11
15.04094222313957
 21
5.222758956772172
 31
0.0
  0
LINE
  5
167B7
  8
0
  6
CONTINUOUS
 10
12.90511304310612
 20
6.685068927725435
 30
0.0
 11
10.8270819708403
 21
8.763099999991255
 31
0.0
  0
LINE
  5
167B8
  8
0
  6
CONTINUOUS
 10
12.41513331849066
 20
7.848567861421083
 30
0.0
 11
11.50060117992049
 21
8.763099999991255
 31
0.0
  0
LINE
  5
167B9
  8
0
  6
CONTINUOUS
 10
19.35714748038395
 20
1.580072908607975
 30
0.0
 11
17.03709479228923
 21
3.900125596702697
 31
0.0
  0
LINE
  5
167BA
  8
0
  6
CONTINUOUS
 10
19.55672823115909
 20
2.054011366913028
 30
0.0
 11
16.63151396416958
 21
4.979225633902534
 31
0.0
  0
LINE
  5
167BB
  8
0
  6
CONTINUOUS
 10
16.19956790346445
 20
4.737652485527476
 30
0.0
 11
15.22497139420302
 21
5.712248994788904
 31
0.0
  0
LINE
  5
167BC
  8
0
  6
CONTINUOUS
 10
16.38362068022866
 20
5.227118917843457
 30
0.0
 11
15.40900056526648
 21
6.201739032805637
 31
0.0
  0
LINE
  5
167BD
  8
0
  6
CONTINUOUS
 10
19.75630898193422
 20
2.527949825218081
 30
0.0
 11
18.70774536448286
 21
3.576513442669441
 31
0.0
  0
LINE
  5
167BE
  8
0
  6
CONTINUOUS
 10
19.95588973270936
 20
3.001888283523134
 30
0.0
 11
18.90726987211446
 21
4.050508144118028
 31
0.0
  0
LINE
  5
167BF
  8
0
  6
CONTINUOUS
 10
20.15547048348449
 20
3.475826741828186
 30
0.0
 11
19.10679437974606
 21
4.524502845566614
 31
0.0
  0
LINE
  5
167C0
  8
0
  6
CONTINUOUS
 10
20.35505123425962
 20
3.94976520013324
 30
0.0
 11
19.30631888737766
 21
4.998497547015201
 31
0.0
  0
LINE
  5
167C1
  8
0
  6
CONTINUOUS
 10
20.55463198503475
 20
4.423703658438292
 30
0.0
 11
19.50584339500926
 21
5.472492248463787
 31
0.0
  0
LINE
  5
167C2
  8
0
  6
CONTINUOUS
 10
18.37481191085755
 20
3.909446896294752
 30
0.0
 11
15.59302973632993
 21
6.691229070822371
 31
0.0
  0
LINE
  5
167C3
  8
0
  6
CONTINUOUS
 10
17.96904084440766
 20
4.988737171824825
 30
0.0
 11
15.77705890739338
 21
7.180719108839104
 31
0.0
  0
LINE
  5
167C4
  8
0
  6
CONTINUOUS
 10
17.56326977795777
 20
6.068027447354899
 30
0.0
 11
15.96108807845684
 21
7.670209146855838
 31
0.0
  0
LINE
  5
167C5
  8
0
  6
CONTINUOUS
 10
17.15749871150789
 20
7.147317722884972
 30
0.0
 11
16.14511724952029
 21
8.15969918487257
 31
0.0
  0
LINE
  5
167C6
  8
0
  6
CONTINUOUS
 10
16.751727645058
 20
8.226607998415046
 30
0.0
 11
16.32914642058374
 21
8.649189222889303
 31
0.0
  0
LINE
  5
167C7
  8
0
  6
CONTINUOUS
 10
20.75421273580989
 20
4.897642116743345
 30
0.0
 11
19.70536790264086
 21
5.946486949912374
 31
0.0
  0
LINE
  5
167C8
  8
0
  6
CONTINUOUS
 10
20.95379348658502
 20
5.371580575048398
 30
0.0
 11
19.90489241027246
 21
6.42048165136096
 31
0.0
  0
LINE
  5
167C9
  8
0
  6
CONTINUOUS
 10
21.15337423736015
 20
5.845519033353452
 30
0.0
 11
20.10441691790406
 21
6.894476352809547
 31
0.0
  0
LINE
  5
167CA
  8
0
  6
CONTINUOUS
 10
21.35295498813529
 20
6.319457491658505
 30
0.0
 11
20.30394142553566
 21
7.368471054258134
 31
0.0
  0
LINE
  5
167CB
  8
0
  6
CONTINUOUS
 10
21.55253573891042
 20
6.793395949963558
 30
0.0
 11
20.50346593316726
 21
7.842465755706721
 31
0.0
  0
LINE
  5
167CC
  8
0
  6
CONTINUOUS
 10
21.75211648968556
 20
7.267334408268612
 30
0.0
 11
20.70299044079886
 21
8.316460457155308
 31
0.0
  0
LINE
  5
167CD
  8
0
  6
CONTINUOUS
 10
21.95169724046069
 20
7.741272866573663
 30
0.0
 11
20.9298701070431
 21
8.763099999991256
 31
0.0
  0
LINE
  5
167CE
  8
0
  6
CONTINUOUS
 10
22.15127799123582
 20
8.215211324878716
 30
0.0
 11
21.60338931612328
 21
8.763099999991256
 31
0.0
  0
LINE
  5
167CF
  8
0
  6
CONTINUOUS
 10
22.35085874201096
 20
8.689149783183769
 30
0.0
 11
22.27690852520347
 21
8.763099999991255
 31
0.0
  0
ENDBLK
  5
168C1
  8
0
  0
BLOCK
  8
0
  2
*X55
 70
     1
 10
0.0
 20
0.0
 30
0.0
  3
*X55
  1

  0
LINE
  5
167D1
  8
0
  6
CONTINUOUS
 10
23.19462913593892
 20
8.169917934846424
 30
0.0
 11
23.70775465517246
 21
8.683043454079957
 31
0.0
  0
LINE
  5
167D2
  8
0
  6
CONTINUOUS
 10
22.64923161835078
 20
6.951001208178088
 30
0.0
 11
23.9159364069932
 21
8.217705996820516
 31
0.0
  0
LINE
  5
167D3
  8
0
  6
CONTINUOUS
 10
22.10383410076263
 20
5.732084481509751
 30
0.0
 11
24.12411815881395
 21
7.752368539561078
 31
0.0
  0
LINE
  5
167D4
  8
0
  6
CONTINUOUS
 10
21.55843658317447
 20
4.513167754841414
 30
0.0
 11
24.3322999106347
 21
7.287031082301639
 31
0.0
  0
LINE
  5
167D5
  8
0
  6
CONTINUOUS
 10
21.01303906558632
 20
3.294251028173077
 30
0.0
 11
24.54048166245544
 21
6.821693625042199
 31
0.0
  0
LINE
  5
167D6
  8
0
  6
CONTINUOUS
 10
20.46764154799817
 20
2.075334301504738
 30
0.0
 11
23.28571549467848
 21
4.89340824818505
 31
0.0
  0
LINE
  5
167D7
  8
0
  6
CONTINUOUS
 10
19.92224403041002
 20
0.8564175748364002
 30
0.0
 11
22.74075865492779
 21
3.674932199354171
 31
0.0
  0
LINE
  5
167D8
  8
0
  6
CONTINUOUS
 10
23.67305085490148
 20
5.280743608408048
 30
0.0
 11
24.74866341427619
 21
6.356356167782759
 31
0.0
  0
LINE
  5
167D9
  8
0
  6
CONTINUOUS
 10
23.88118970842314
 20
4.815363252849522
 30
0.0
 11
24.95684516609694
 21
5.89101871052332
 31
0.0
  0
LINE
  5
167DA
  8
0
  6
CONTINUOUS
 10
19.73925852647308
 20
-0.0000871381807288
 30
0.0
 11
23.4103456646501
 21
3.670999999996297
 31
0.0
  0
LINE
  5
167DB
  8
0
  6
CONTINUOUS
 10
24.0893285619448
 20
4.349982897290997
 30
0.0
 11
25.16502691791769
 21
5.42568125326388
 31
0.0
  0
LINE
  5
167DC
  8
0
  6
CONTINUOUS
 10
20.41282099582748
 20
-0.0000438779065108
 30
0.0
 11
21.64944178675636
 21
1.236576913022366
 31
0.0
  0
LINE
  5
167DD
  8
0
  6
CONTINUOUS
 10
22.78126487373161
 20
2.36839999999762
 30
0.0
 11
24.08386487373029
 21
3.670999999996297
 31
0.0
  0
LINE
  5
167DE
  8
0
  6
CONTINUOUS
 10
24.29746741546646
 20
3.884602541732471
 30
0.0
 11
25.37320866973843
 21
4.960343796004441
 31
0.0
  0
LINE
  5
167DF
  8
0
  6
CONTINUOUS
 10
21.08638346518189
 20
-0.0000006176322938
 30
0.0
 11
21.10379033335899
 21
0.0174062505448083
 31
0.0
  0
LINE
  5
167E0
  8
0
  6
CONTINUOUS
 10
23.4547840828118
 20
2.36839999999762
 30
0.0
 11
25.58139042155918
 21
4.495006338745002
 31
0.0
  0
LINE
  5
167E1
  8
0
  6
CONTINUOUS
 10
29.30199999996933
 20
8.215615917155148
 30
0.0
 11
29.84948408280543
 21
8.763099999991255
 31
0.0
  0
LINE
  5
167E2
  8
0
  6
CONTINUOUS
 10
24.12830329189199
 20
2.36839999999762
 30
0.0
 11
25.78957217337993
 21
4.029668881485562
 31
0.0
  0
LINE
  5
167E3
  8
0
  6
CONTINUOUS
 10
29.30199999996933
 20
7.54209670807496
 30
0.0
 11
30.52300329188562
 21
8.763099999991255
 31
0.0
  0
LINE
  5
167E4
  8
0
  6
CONTINUOUS
 10
24.80182250097217
 20
2.36839999999762
 30
0.0
 11
25.99775392520067
 21
3.564331424226122
 31
0.0
  0
LINE
  5
167E5
  8
0
  6
CONTINUOUS
 10
29.30199999996933
 20
6.868577498994774
 30
0.0
 11
30.74199999996926
 21
8.308577498994712
 31
0.0
  0
LINE
  5
167E6
  8
0
  6
CONTINUOUS
 10
25.13028238392013
 20
2.023340673865392
 30
0.0
 11
26.20593567702142
 21
3.098993966966683
 31
0.0
  0
LINE
  5
167E7
  8
0
  6
CONTINUOUS
 10
25.33838066033617
 20
1.557919741201244
 30
0.0
 11
26.41411742884217
 21
2.633656509707244
 31
0.0
  0
LINE
  5
167E8
  8
0
  6
CONTINUOUS
 10
25.54647893675221
 20
1.092498808537098
 30
0.0
 11
26.62229918066291
 21
2.168319052447804
 31
0.0
  0
LINE
  5
167E9
  8
0
  6
CONTINUOUS
 10
25.75457721316825
 20
0.62707787587295
 30
0.0
 11
26.83048093248366
 21
1.702981595188365
 31
0.0
  0
LINE
  5
167EA
  8
0
  6
CONTINUOUS
 10
29.30199999996933
 20
6.195058289914587
 30
0.0
 11
30.74199999996926
 21
7.635058289914522
 31
0.0
  0
LINE
  5
167EB
  8
0
  6
CONTINUOUS
 10
29.30199999996933
 20
5.521539080834401
 30
0.0
 11
30.74199999996926
 21
6.961539080834331
 31
0.0
  0
LINE
  5
167EC
  8
0
  6
CONTINUOUS
 10
29.30199999996933
 20
4.848019871754214
 30
0.0
 11
30.74199999996925
 21
6.288019871754143
 31
0.0
  0
LINE
  5
167ED
  8
0
  6
CONTINUOUS
 10
29.30199999996933
 20
4.174500662674028
 30
0.0
 11
30.74199999996925
 21
5.614500662673953
 31
0.0
  0
LINE
  5
167EE
  8
0
  6
CONTINUOUS
 10
25.96267548958429
 20
0.1616569432088024
 30
0.0
 11
27.18411854636669
 21
1.383099999991207
 31
0.0
  0
LINE
  5
167EF
  8
0
  6
CONTINUOUS
 10
29.30199999996933
 20
3.500981453593841
 30
0.0
 11
30.74199999996925
 21
4.940981453593762
 31
0.0
  0
LINE
  5
167F0
  8
0
  6
CONTINUOUS
 10
26.50763775544691
 20
0.0330999999912356
 30
0.0
 11
27.85763775544689
 21
1.383099999991223
 31
0.0
  0
LINE
  5
167F1
  8
0
  6
CONTINUOUS
 10
29.30199999996933
 20
2.827462244513656
 30
0.0
 11
30.74199999996925
 21
4.267462244513574
 31
0.0
  0
LINE
  5
167F2
  8
0
  6
CONTINUOUS
 10
27.18115696452709
 20
0.0330999999912356
 30
0.0
 11
28.55073879889363
 21
1.402681834357775
 31
0.0
  0
LINE
  5
167F3
  8
0
  6
CONTINUOUS
 10
29.28241816560272
 20
2.134361201066866
 30
0.0
 11
30.74199999996924
 21
3.593943035433383
 31
0.0
  0
LINE
  5
167F4
  8
0
  6
CONTINUOUS
 10
27.85467617360728
 20
0.0330999999912356
 30
0.0
 11
30.74199999996924
 21
2.920423826353195
 31
0.0
  0
LINE
  5
167F5
  8
0
  6
CONTINUOUS
 10
28.53897559587887
 20
0.0438802131826428
 30
0.0
 11
30.73121978677781
 21
2.236124404081585
 31
0.0
  0
LINE
  5
167F6
  8
0
  6
CONTINUOUS
 10
29.45140055588722
 20
0.2827859641107988
 30
0.0
 11
30.49231403584965
 21
1.323699444073236
 31
0.0
  0
LINE
  5
167F7
  8
0
  6
CONTINUOUS
 10
19.59027867740337
 20
-0.0000967065718083
 30
0.0
 11
19.55485265190471
 21
0.035329318926844
 31
0.0
  0
LINE
  5
167F8
  8
0
  6
CONTINUOUS
 10
20.26375463176586
 20
-0.0000534518541091
 30
0.0
 11
19.76305575737534
 21
0.5006454225364014
 31
0.0
  0
LINE
  5
167F9
  8
0
  6
CONTINUOUS
 10
20.93723058612834
 20
-0.0000101971364099
 30
0.0
 11
19.97125886284597
 21
0.965961526145958
 31
0.0
  0
LINE
  5
167FA
  8
0
  6
CONTINUOUS
 10
21.25514828313686
 20
0.355591314935257
 30
0.0
 11
20.1794619683166
 21
1.431277629755512
 31
0.0
  0
LINE
  5
167FB
  8
0
  6
CONTINUOUS
 10
21.46338838394921
 20
0.8208704232030986
 30
0.0
 11
20.38766507378723
 21
1.896593733365069
 31
0.0
  0
LINE
  5
167FC
  8
0
  6
CONTINUOUS
 10
21.67162848476155
 20
1.28614953147094
 30
0.0
 11
20.59586817925786
 21
2.361909836974626
 31
0.0
  0
LINE
  5
167FD
  8
0
  6
CONTINUOUS
 10
21.8798685855739
 20
1.751428639738782
 30
0.0
 11
20.80407128472849
 21
2.827225940584183
 31
0.0
  0
LINE
  5
167FE
  8
0
  6
CONTINUOUS
 10
22.08810868638624
 20
2.216707748006623
 30
0.0
 11
21.01227439019912
 21
3.292542044193739
 31
0.0
  0
LINE
  5
167FF
  8
0
  6
CONTINUOUS
 10
22.60993564347543
 20
2.36839999999762
 30
0.0
 11
21.22047749566975
 21
3.757858147803296
 31
0.0
  0
LINE
  5
16800
  8
0
  6
CONTINUOUS
 10
23.28345485255561
 20
2.36839999999762
 30
0.0
 11
21.42868060114038
 21
4.223174251412853
 31
0.0
  0
LINE
  5
16801
  8
0
  6
CONTINUOUS
 10
26.29227406164219
 20
0.0330999999912356
 30
0.0
 11
25.80009199592872
 21
0.5252820657046957
 31
0.0
  0
LINE
  5
16802
  8
0
  6
CONTINUOUS
 10
23.9569740616358
 20
2.36839999999762
 30
0.0
 11
21.63688370661101
 21
4.688490355022409
 31
0.0
  0
LINE
  5
16803
  8
0
  6
CONTINUOUS
 10
26.96579327072237
 20
0.0330999999912356
 30
0.0
 11
25.2554132311971
 21
1.743480039516508
 31
0.0
  0
LINE
  5
16804
  8
0
  6
CONTINUOUS
 10
24.63049327071599
 20
2.36839999999762
 30
0.0
 11
23.32789327071731
 21
3.670999999996297
 31
0.0
  0
LINE
  5
16805
  8
0
  6
CONTINUOUS
 10
22.92098674744635
 20
4.077906523267254
 30
0.0
 11
21.84508681208164
 21
5.153806458631966
 31
0.0
  0
LINE
  5
16806
  8
0
  6
CONTINUOUS
 10
27.63931247980256
 20
0.0330999999912356
 30
0.0
 11
24.0014124797975
 21
3.670999999996297
 31
0.0
  0
LINE
  5
16807
  8
0
  6
CONTINUOUS
 10
23.129125600968
 20
4.5432868788258
 30
0.0
 11
22.05328991755227
 21
5.619122562241522
 31
0.0
  0
LINE
  5
16808
  8
0
  6
CONTINUOUS
 10
28.31283168888275
 20
0.0330999999912356
 30
0.0
 11
24.16488385994816
 21
4.181047828925828
 31
0.0
  0
LINE
  5
16809
  8
0
  6
CONTINUOUS
 10
23.33726445448964
 20
5.008667234384345
 30
0.0
 11
22.2614930230229
 21
6.084438665851079
 31
0.0
  0
LINE
  5
1680A
  8
0
  6
CONTINUOUS
 10
28.92085740005492
 20
0.0985934978992438
 30
0.0
 11
27.63635089796295
 21
1.383099999991217
 31
0.0
  0
LINE
  5
1680B
  8
0
  6
CONTINUOUS
 10
26.43704649509776
 20
2.582404402856405
 30
0.0
 11
23.61992702019732
 21
5.399523877756844
 31
0.0
  0
LINE
  5
1680C
  8
0
  6
CONTINUOUS
 10
23.54540330801128
 20
5.47404758994289
 30
0.0
 11
22.46969612849353
 21
6.549754769460635
 31
0.0
  0
LINE
  5
1680D
  8
0
  6
CONTINUOUS
 10
29.42225615078443
 20
0.2707139562499279
 30
0.0
 11
28.30987010704312
 21
1.383099999991234
 31
0.0
  0
LINE
  5
1680E
  8
0
  6
CONTINUOUS
 10
25.89179548232307
 20
3.801174624711282
 30
0.0
 11
22.67789923396416
 21
7.015070873070191
 31
0.0
  0
LINE
  5
1680F
  8
0
  6
CONTINUOUS
 10
29.83624534690007
 20
0.5302439692144705
 30
0.0
 11
28.85811781497101
 21
1.508371501143527
 31
0.0
  0
LINE
  5
16810
  8
0
  6
CONTINUOUS
 10
25.34654446954838
 20
5.01994484656616
 30
0.0
 11
22.88610233943479
 21
7.480386976679748
 31
0.0
  0
LINE
  5
16811
  8
0
  6
CONTINUOUS
 10
30.17865975401872
 20
0.8613487711760022
 30
0.0
 11
29.18888744090175
 21
1.851121084292977
 31
0.0
  0
LINE
  5
16812
  8
0
  6
CONTINUOUS
 10
24.80129345677369
 20
6.238715068421037
 30
0.0
 11
23.09430544490542
 21
7.945703080289305
 31
0.0
  0
LINE
  5
16813
  8
0
  6
CONTINUOUS
 10
30.45496647202376
 20
1.258561262251155
 30
0.0
 11
29.30199999996933
 21
2.411527734305588
 31
0.0
  0
LINE
  5
16814
  8
0
  6
CONTINUOUS
 10
24.256042443999
 20
7.457485290275915
 30
0.0
 11
23.30250855037605
 21
8.411019183898862
 31
0.0
  0
LINE
  5
16815
  8
0
  6
CONTINUOUS
 10
30.64868582078271
 20
1.738361122572387
 30
0.0
 11
29.30199999996933
 21
3.085046943385775
 31
0.0
  0
LINE
  5
16816
  8
0
  6
CONTINUOUS
 10
23.71079143122431
 20
8.676255512130794
 30
0.0
 11
23.51071165584668
 21
8.876335287508416
 31
0.0
  0
LINE
  5
16817
  8
0
  6
CONTINUOUS
 10
30.73802122914428
 20
2.322544923291007
 30
0.0
 11
29.30199999996933
 21
3.758566152465961
 31
0.0
  0
LINE
  5
16818
  8
0
  6
CONTINUOUS
 10
30.74199999996924
 20
2.992085361546236
 30
0.0
 11
29.30199999996933
 21
4.432085361546148
 31
0.0
  0
LINE
  5
16819
  8
0
  6
CONTINUOUS
 10
30.74199999996924
 20
3.665604570626419
 30
0.0
 11
29.30199999996933
 21
5.105604570626333
 31
0.0
  0
LINE
  5
1681A
  8
0
  6
CONTINUOUS
 10
30.74199999996925
 20
4.339123779706602
 30
0.0
 11
29.30199999996933
 21
5.77912377970652
 31
0.0
  0
LINE
  5
1681B
  8
0
  6
CONTINUOUS
 10
30.74199999996925
 20
5.012642988786785
 30
0.0
 11
29.30199999996933
 21
6.452642988786707
 31
0.0
  0
LINE
  5
1681C
  8
0
  6
CONTINUOUS
 10
30.74199999996925
 20
5.68616219786697
 30
0.0
 11
29.30199999996933
 21
7.126162197866894
 31
0.0
  0
LINE
  5
1681D
  8
0
  6
CONTINUOUS
 10
30.74199999996925
 20
6.359681406947153
 30
0.0
 11
29.30199999996933
 21
7.799681406947081
 31
0.0
  0
LINE
  5
1681E
  8
0
  6
CONTINUOUS
 10
30.74199999996926
 20
7.033200616027337
 30
0.0
 11
29.30199999996933
 21
8.473200616027269
 31
0.0
  0
LINE
  5
1681F
  8
0
  6
CONTINUOUS
 10
30.74199999996926
 20
7.706719825107518
 30
0.0
 11
29.68561982508552
 21
8.763099999991255
 31
0.0
  0
LINE
  5
16820
  8
0
  6
CONTINUOUS
 10
30.74199999996926
 20
8.380239034187703
 30
0.0
 11
30.35913903416571
 21
8.763099999991255
 31
0.0
  0
ENDBLK
  5
168C3
  8
0
  0
BLOCK
  8
0
  2
*X56
 70
     1
 10
0.0
 20
0.0
 30
0.0
  3
*X56
  1

  0
LINE
  5
16822
  8
0
  6
CONTINUOUS
 10
31.64199999996833
 20
8.535058289913598
 30
0.0
 11
31.87004171004599
 21
8.763099999991255
 31
0.0
  0
LINE
  5
16823
  8
0
  6
CONTINUOUS
 10
31.64199999996833
 20
7.861539080833412
 30
0.0
 11
32.54356091912618
 21
8.763099999991255
 31
0.0
  0
LINE
  5
16824
  8
0
  6
CONTINUOUS
 10
31.64199999996833
 20
7.188019871753226
 30
0.0
 11
33.08199999996839
 21
8.628019871753281
 31
0.0
  0
LINE
  5
16825
  8
0
  6
CONTINUOUS
 10
31.64199999996833
 20
6.51450066267304
 30
0.0
 11
33.08199999996839
 21
7.954500662673095
 31
0.0
  0
LINE
  5
16826
  8
0
  6
CONTINUOUS
 10
31.64199999996833
 20
5.840981453592853
 30
0.0
 11
33.08199999996839
 21
7.280981453592908
 31
0.0
  0
LINE
  5
16827
  8
0
  6
CONTINUOUS
 10
31.64199999996833
 20
5.167462244512667
 30
0.0
 11
33.08199999996839
 21
6.607462244512721
 31
0.0
  0
LINE
  5
16828
  8
0
  6
CONTINUOUS
 10
31.64199999996833
 20
4.493943035432481
 30
0.0
 11
33.08199999996839
 21
5.933943035432535
 31
0.0
  0
LINE
  5
16829
  8
0
  6
CONTINUOUS
 10
31.64199999996833
 20
3.820423826352293
 30
0.0
 11
33.08199999996839
 21
5.260423826352348
 31
0.0
  0
LINE
  5
1682A
  8
0
  6
CONTINUOUS
 10
31.64199999996833
 20
3.146904617272106
 30
0.0
 11
33.08199999996839
 21
4.586904617272161
 31
0.0
  0
LINE
  5
1682B
  8
0
  6
CONTINUOUS
 10
36.23199999996837
 20
8.410423826352325
 30
0.0
 11
36.5846761736073
 21
8.763099999991255
 31
0.0
  0
LINE
  5
1682C
  8
0
  6
CONTINUOUS
 10
36.23199999996837
 20
7.73690461727214
 30
0.0
 11
37.25819538268748
 21
8.763099999991255
 31
0.0
  0
LINE
  5
1682D
  8
0
  6
CONTINUOUS
 10
31.64257403601376
 20
2.473959444237348
 30
0.0
 11
33.08199999996839
 21
3.913385408191974
 31
0.0
  0
LINE
  5
1682E
  8
0
  6
CONTINUOUS
 10
36.23199999996837
 20
7.063385408191953
 30
0.0
 11
37.67199999996831
 21
8.503385408191894
 31
0.0
  0
LINE
  5
1682F
  8
0
  6
CONTINUOUS
 10
31.72013636841932
 20
1.87800256756272
 30
0.0
 11
33.08199999996839
 21
3.239866199111788
 31
0.0
  0
LINE
  5
16830
  8
0
  6
CONTINUOUS
 10
36.23199999996837
 20
6.389866199111767
 30
0.0
 11
37.67199999996831
 21
7.829866199111708
 31
0.0
  0
LINE
  5
16831
  8
0
  6
CONTINUOUS
 10
31.89042734314753
 20
1.374774333210744
 30
0.0
 11
33.08199999996839
 21
2.566346990031601
 31
0.0
  0
LINE
  5
16832
  8
0
  6
CONTINUOUS
 10
36.23199999996837
 20
5.71634699003158
 30
0.0
 11
37.67199999996831
 21
7.156346990031521
 31
0.0
  0
LINE
  5
16833
  8
0
  6
CONTINUOUS
 10
32.14210568064475
 20
0.952933461627778
 30
0.0
 11
33.18745552475986
 21
1.998283305742888
 31
0.0
  0
LINE
  5
16834
  8
0
  6
CONTINUOUS
 10
36.23199999996837
 20
5.042827780951393
 30
0.0
 11
37.67199999996831
 21
6.482827780951334
 31
0.0
  0
LINE
  5
16835
  8
0
  6
CONTINUOUS
 10
32.45820639400955
 20
0.5955149659123915
 30
0.0
 11
33.47242681921943
 21
1.60973539112227
 31
0.0
  0
LINE
  5
16836
  8
0
  6
CONTINUOUS
 10
36.23199999996837
 20
4.369308571871207
 30
0.0
 11
37.67199999996831
 21
5.809308571871147
 31
0.0
  0
LINE
  5
16837
  8
0
  6
CONTINUOUS
 10
32.83432456621412
 20
0.2981139290367771
 30
0.0
 11
33.89722476612215
 21
1.361014128944803
 31
0.0
  0
LINE
  5
16838
  8
0
  6
CONTINUOUS
 10
36.23199999996837
 20
3.69578936279102
 30
0.0
 11
37.67199999996831
 21
5.135789362790962
 31
0.0
  0
LINE
  5
16839
  8
0
  6
CONTINUOUS
 10
33.2711633111245
 20
0.0614334648669672
 30
0.0
 11
34.43247338014423
 21
1.222743533886696
 31
0.0
  0
LINE
  5
1683A
  8
0
  6
CONTINUOUS
 10
36.23199999996837
 20
3.022270153710834
 30
0.0
 11
37.67199999996831
 21
4.462270153710775
 31
0.0
  0
LINE
  5
1683B
  8
0
  6
CONTINUOUS
 10
33.76515245874577
 20
-0.1180965965919523
 30
0.0
 11
35.1587445516215
 21
1.27549549628378
 31
0.0
  0
LINE
  5
1683C
  8
0
  6
CONTINUOUS
 10
36.21639478609585
 20
2.333145730758136
 30
0.0
 11
37.67199999996831
 21
3.788750944630588
 31
0.0
  0
LINE
  5
1683D
  8
0
  6
CONTINUOUS
 10
34.34060583368432
 20
-0.2161624307335863
 30
0.0
 11
37.67199999996831
 21
3.115231735550401
 31
0.0
  0
LINE
  5
1683E
  8
0
  6
CONTINUOUS
 10
35.01698193613905
 20
-0.2133055373590427
 30
0.0
 11
37.66876712070525
 21
2.438479647207154
 31
0.0
  0
LINE
  5
1683F
  8
0
  6
CONTINUOUS
 10
35.90743367693304
 20
0.0036269943547609
 30
0.0
 11
37.51723902192366
 21
1.613432339345381
 31
0.0
  0
LINE
  5
16840
  8
0
  6
CONTINUOUS
 10
32.55309425579761
 20
0.5074718966376706
 30
0.0
 11
32.27784730925847
 21
0.7827188431768102
 31
0.0
  0
LINE
  5
16841
  8
0
  6
CONTINUOUS
 10
33.87496468909684
 20
-0.1408793275813673
 30
0.0
 11
31.67993083278052
 21
2.054154528734943
 31
0.0
  0
LINE
  5
16842
  8
0
  6
CONTINUOUS
 10
34.64362813207632
 20
-0.2360235614806649
 30
0.0
 11
31.64199999996833
 21
2.765604570627322
 31
0.0
  0
LINE
  5
16843
  8
0
  6
CONTINUOUS
 10
35.25801106796118
 20
-0.1768872882853429
 30
0.0
 11
31.64199999996833
 21
3.439123779707508
 31
0.0
  0
LINE
  5
16844
  8
0
  6
CONTINUOUS
 10
35.79065650332146
 20
-0.0360135145654361
 30
0.0
 11
34.54143210838231
 21
1.213210880373721
 31
0.0
  0
LINE
  5
16845
  8
0
  6
CONTINUOUS
 10
33.08199999996839
 20
2.67264298878764
 30
0.0
 11
31.64199999996833
 21
4.112642988787695
 31
0.0
  0
LINE
  5
16846
  8
0
  6
CONTINUOUS
 10
36.25975597779143
 20
0.1684062200447833
 30
0.0
 11
35.15395110240023
 21
1.274211095435983
 31
0.0
  0
LINE
  5
16847
  8
0
  6
CONTINUOUS
 10
33.08199999996839
 20
3.346162197867826
 30
0.0
 11
31.64199999996833
 21
4.786162197867881
 31
0.0
  0
LINE
  5
16848
  8
0
  6
CONTINUOUS
 10
36.67226329638774
 20
0.4294181105286579
 30
0.0
 11
35.63766478748767
 21
1.464016619428737
 31
0.0
  0
LINE
  5
16849
  8
0
  6
CONTINUOUS
 10
33.08199999996839
 20
4.019681406948012
 30
0.0
 11
31.64199999996833
 21
5.459681406948068
 31
0.0
  0
LINE
  5
1684A
  8
0
  6
CONTINUOUS
 10
37.01677749710036
 20
0.7584231188962329
 30
0.0
 11
35.99563422741351
 21
1.779566388583076
 31
0.0
  0
LINE
  5
1684B
  8
0
  6
CONTINUOUS
 10
33.08199999996839
 20
4.693200616028199
 30
0.0
 11
31.64199999996833
 21
6.133200616028255
 31
0.0
  0
LINE
  5
1684C
  8
0
  6
CONTINUOUS
 10
37.29859977568887
 20
1.1501200493879
 30
0.0
 11
36.20680593341555
 21
2.241913891661226
 31
0.0
  0
LINE
  5
1684D
  8
0
  6
CONTINUOUS
 10
33.08199999996839
 20
5.366719825108386
 30
0.0
 11
31.64199999996833
 21
6.80671982510844
 31
0.0
  0
LINE
  5
1684E
  8
0
  6
CONTINUOUS
 10
37.5148623517228
 20
1.607376682434161
 30
0.0
 11
36.23199999996837
 21
2.890239034188594
 31
0.0
  0
LINE
  5
1684F
  8
0
  6
CONTINUOUS
 10
33.08199999996839
 20
6.040239034188573
 30
0.0
 11
31.64199999996833
 21
7.480239034188627
 31
0.0
  0
LINE
  5
16850
  8
0
  6
CONTINUOUS
 10
37.64705163358367
 20
2.148706609653477
 30
0.0
 11
36.23199999996837
 21
3.56375824326878
 31
0.0
  0
LINE
  5
16851
  8
0
  6
CONTINUOUS
 10
33.08199999996839
 20
6.713758243268758
 30
0.0
 11
31.64199999996833
 21
8.153758243268815
 31
0.0
  0
LINE
  5
16852
  8
0
  6
CONTINUOUS
 10
37.67199999996831
 20
2.797277452349026
 30
0.0
 11
36.23199999996837
 21
4.237277452348967
 31
0.0
  0
LINE
  5
16853
  8
0
  6
CONTINUOUS
 10
37.67199999996831
 20
3.470796661429213
 30
0.0
 11
36.23199999996837
 21
4.910796661429154
 31
0.0
  0
LINE
  5
16854
  8
0
  6
CONTINUOUS
 10
37.67199999996831
 20
4.144315870509399
 30
0.0
 11
36.23199999996837
 21
5.58431587050934
 31
0.0
  0
LINE
  5
16855
  8
0
  6
CONTINUOUS
 10
33.08199999996839
 20
7.387277452348945
 30
0.0
 11
31.70617745232608
 21
8.763099999991255
 31
0.0
  0
LINE
  5
16856
  8
0
  6
CONTINUOUS
 10
33.08199999996839
 20
8.060796661429132
 30
0.0
 11
32.37969666140626
 21
8.763099999991255
 31
0.0
  0
LINE
  5
16857
  8
0
  6
CONTINUOUS
 10
33.08199999996839
 20
8.734315870509318
 30
0.0
 11
33.05321587048645
 21
8.763099999991255
 31
0.0
  0
LINE
  5
16858
  8
0
  6
CONTINUOUS
 10
37.67199999996831
 20
4.817835079589585
 30
0.0
 11
36.23199999996837
 21
6.257835079589526
 31
0.0
  0
LINE
  5
16859
  8
0
  6
CONTINUOUS
 10
37.67199999996831
 20
5.491354288669771
 30
0.0
 11
36.23199999996837
 21
6.931354288669713
 31
0.0
  0
LINE
  5
1685A
  8
0
  6
CONTINUOUS
 10
37.67199999996831
 20
6.164873497749958
 30
0.0
 11
36.23199999996837
 21
7.6048734977499
 31
0.0
  0
LINE
  5
1685B
  8
0
  6
CONTINUOUS
 10
37.67199999996831
 20
6.838392706830144
 30
0.0
 11
36.23199999996837
 21
8.278392706830086
 31
0.0
  0
LINE
  5
1685C
  8
0
  6
CONTINUOUS
 10
37.67199999996831
 20
7.511911915910332
 30
0.0
 11
36.42081191588738
 21
8.763099999991255
 31
0.0
  0
LINE
  5
1685D
  8
0
  6
CONTINUOUS
 10
37.67199999996831
 20
8.185431124990519
 30
0.0
 11
37.09433112496757
 21
8.763099999991255
 31
0.0
  0
ENDBLK
  5
168C5
  8
0
  0
BLOCK
  8
0
  2
*X57
 70
     1
 10
0.0
 20
0.0
 30
0.0
  3
*X57
  1

  0
LINE
  5
1685F
  8
0
  6
CONTINUOUS
 10
38.60499999996136
 20
8.762866199104765
 30
0.0
 11
38.71672554182345
 21
8.874591740966855
 31
0.0
  0
LINE
  5
16860
  8
0
  6
CONTINUOUS
 10
38.60499999996136
 20
8.089346990024577
 30
0.0
 11
39.03418785440363
 21
8.518534844466847
 31
0.0
  0
LINE
  5
16861
  8
0
  6
CONTINUOUS
 10
38.60499999996136
 20
7.41582778094439
 30
0.0
 11
39.35165016698382
 21
8.16247794796684
 31
0.0
  0
LINE
  5
16862
  8
0
  6
CONTINUOUS
 10
38.60499999996136
 20
6.742308571864204
 30
0.0
 11
39.66911247956399
 21
7.806421051466834
 31
0.0
  0
LINE
  5
16863
  8
0
  6
CONTINUOUS
 10
38.60499999996136
 20
6.068789362784018
 30
0.0
 11
39.98657479214418
 21
7.450364154966827
 31
0.0
  0
LINE
  5
16864
  8
0
  6
CONTINUOUS
 10
38.60499999996136
 20
5.395270153703832
 30
0.0
 11
40.30403710472435
 21
7.09430725846682
 31
0.0
  0
LINE
  5
16865
  8
0
  6
CONTINUOUS
 10
38.60499999996136
 20
4.721750944623645
 30
0.0
 11
40.62149941730453
 21
6.738250361966813
 31
0.0
  0
LINE
  5
16866
  8
0
  6
CONTINUOUS
 10
38.60499999996136
 20
4.048231735543458
 30
0.0
 11
40.93896172988471
 21
6.382193465466806
 31
0.0
  0
LINE
  5
16867
  8
0
  6
CONTINUOUS
 10
38.60499999996136
 20
3.374712526463272
 30
0.0
 11
40.02599999995994
 21
4.795712526461843
 31
0.0
  0
LINE
  5
16868
  8
0
  6
CONTINUOUS
 10
38.60499999996136
 20
2.701193317383085
 30
0.0
 11
40.02599999995994
 21
4.122193317381657
 31
0.0
  0
LINE
  5
16869
  8
0
  6
CONTINUOUS
 10
40.28339754687704
 20
5.053110073378947
 30
0.0
 11
41.25642404246489
 21
6.026136568966799
 31
0.0
  0
LINE
  5
1686A
  8
0
  6
CONTINUOUS
 10
40.60085985945722
 20
4.697053176878939
 30
0.0
 11
41.57388635504507
 21
5.670079672466793
 31
0.0
  0
LINE
  5
1686B
  8
0
  6
CONTINUOUS
 10
43.57899999995641
 20
8.348712526458318
 30
0.0
 11
43.99338747348935
 21
8.763099999991255
 31
0.0
  0
LINE
  5
1686C
  8
0
  6
CONTINUOUS
 10
43.57899999995641
 20
7.675193317378131
 30
0.0
 11
44.66690668256953
 21
8.763099999991255
 31
0.0
  0
LINE
  5
1686D
  8
0
  6
CONTINUOUS
 10
38.60499999996136
 20
2.027674108302898
 30
0.0
 11
40.02599999995994
 21
3.44867410830147
 31
0.0
  0
LINE
  5
1686E
  8
0
  6
CONTINUOUS
 10
38.60499999996136
 20
1.354154899222712
 30
0.0
 11
40.02599999995994
 21
2.775154899221284
 31
0.0
  0
LINE
  5
1686F
  8
0
  6
CONTINUOUS
 10
38.60499999996136
 20
0.6806356901425255
 30
0.0
 11
40.02599999995994
 21
2.101635690141098
 31
0.0
  0
LINE
  5
16870
  8
0
  6
CONTINUOUS
 10
38.60499999996136
 20
0.0071164810623383
 30
0.0
 11
40.02599999995994
 21
1.428116481060911
 31
0.0
  0
LINE
  5
16871
  8
0
  6
CONTINUOUS
 10
40.9183221720374
 20
4.340996280378933
 30
0.0
 11
41.89134866762525
 21
5.314022775966786
 31
0.0
  0
LINE
  5
16872
  8
0
  6
CONTINUOUS
 10
41.23578448461758
 20
3.984939383878926
 30
0.0
 11
42.20881098020543
 21
4.957965879466778
 31
0.0
  0
LINE
  5
16873
  8
0
  6
CONTINUOUS
 10
41.55324679719776
 20
3.628882487378919
 30
0.0
 11
42.52627329278561
 21
4.601908982966772
 31
0.0
  0
LINE
  5
16874
  8
0
  6
CONTINUOUS
 10
41.87070910977793
 20
3.272825590878912
 30
0.0
 11
42.84373560536579
 21
4.245852086466765
 31
0.0
  0
LINE
  5
16875
  8
0
  6
CONTINUOUS
 10
43.57899999995641
 20
7.001674108297943
 30
0.0
 11
44.99999999995498
 21
8.422674108296516
 31
0.0
  0
LINE
  5
16876
  8
0
  6
CONTINUOUS
 10
43.57899999995641
 20
6.328154899217758
 30
0.0
 11
44.99999999995498
 21
7.749154899216329
 31
0.0
  0
LINE
  5
16877
  8
0
  6
CONTINUOUS
 10
43.57899999995641
 20
5.654635690137571
 30
0.0
 11
44.99999999995498
 21
7.075635690136142
 31
0.0
  0
LINE
  5
16878
  8
0
  6
CONTINUOUS
 10
43.57899999995641
 20
4.981116481057384
 30
0.0
 11
44.99999999995498
 21
6.402116481055955
 31
0.0
  0
LINE
  5
16879
  8
0
  6
CONTINUOUS
 10
39.27140272797921
 20
-0.0000000000000009
 30
0.0
 11
40.02599999995994
 21
0.7545972719807246
 31
0.0
  0
LINE
  5
1687A
  8
0
  6
CONTINUOUS
 10
39.9449219370594
 20
-0.0000000000000009
 30
0.0
 11
40.02599999995994
 21
0.0810780629005379
 31
0.0
  0
LINE
  5
1687B
  8
0
  6
CONTINUOUS
 10
42.18817142235812
 20
2.916768694378905
 30
0.0
 11
43.16119791794597
 21
3.889795189966758
 31
0.0
  0
LINE
  5
1687C
  8
0
  6
CONTINUOUS
 10
42.50563373493829
 20
2.560711797878898
 30
0.0
 11
43.47866023052615
 21
3.533738293466751
 31
0.0
  0
LINE
  5
1687D
  8
0
  6
CONTINUOUS
 10
43.57899999995641
 20
4.307597271977198
 30
0.0
 11
44.99999999995498
 21
5.728597271975769
 31
0.0
  0
LINE
  5
1687E
  8
0
  6
CONTINUOUS
 10
43.57899999995641
 20
3.634078062897011
 30
0.0
 11
44.99999999995498
 21
5.055078062895582
 31
0.0
  0
LINE
  5
1687F
  8
0
  6
CONTINUOUS
 10
42.82309604751848
 20
2.204654901378891
 30
0.0
 11
44.99999999995498
 21
4.381558853815395
 31
0.0
  0
LINE
  5
16880
  8
0
  6
CONTINUOUS
 10
43.14055836009865
 20
1.848598004878885
 30
0.0
 11
44.99999999995498
 21
3.70803964473521
 31
0.0
  0
LINE
  5
16881
  8
0
  6
CONTINUOUS
 10
43.45802067267883
 20
1.492541108378878
 30
0.0
 11
44.99999999995498
 21
3.034520435655023
 31
0.0
  0
LINE
  5
16882
  8
0
  6
CONTINUOUS
 10
43.77548298525902
 20
1.136484211878871
 30
0.0
 11
44.99999999995498
 21
2.361001226574837
 31
0.0
  0
LINE
  5
16883
  8
0
  6
CONTINUOUS
 10
44.09294529783919
 20
0.7804273153788639
 30
0.0
 11
44.99999999995498
 21
1.687482017494649
 31
0.0
  0
LINE
  5
16884
  8
0
  6
CONTINUOUS
 10
44.41040761041938
 20
0.4243704188788566
 30
0.0
 11
44.99999999995498
 21
1.013962808414463
 31
0.0
  0
LINE
  5
16885
  8
0
  6
CONTINUOUS
 10
44.72786992299955
 20
0.0683135223788494
 30
0.0
 11
44.99999999995498
 21
0.340443599334276
 31
0.0
  0
LINE
  5
16886
  8
0
  6
CONTINUOUS
 10
39.12223903415696
 20
-0.0000000000000009
 30
0.0
 11
38.60499999996136
 21
0.5172390341955961
 31
0.0
  0
LINE
  5
16887
  8
0
  6
CONTINUOUS
 10
39.79575824323715
 20
-0.0000000000000009
 30
0.0
 11
38.60499999996136
 21
1.190758243275783
 31
0.0
  0
LINE
  5
16888
  8
0
  6
CONTINUOUS
 10
40.02599999995994
 20
0.443277452357397
 30
0.0
 11
38.60499999996136
 21
1.864277452355969
 31
0.0
  0
LINE
  5
16889
  8
0
  6
CONTINUOUS
 10
40.02599999995994
 20
1.116796661437583
 30
0.0
 11
38.60499999996136
 21
2.537796661436155
 31
0.0
  0
LINE
  5
1688A
  8
0
  6
CONTINUOUS
 10
40.02599999995994
 20
1.79031587051777
 30
0.0
 11
38.60499999996136
 21
3.211315870516341
 31
0.0
  0
LINE
  5
1688B
  8
0
  6
CONTINUOUS
 10
40.02599999995994
 20
2.463835079597956
 30
0.0
 11
38.60499999996136
 21
3.884835079596527
 31
0.0
  0
LINE
  5
1688C
  8
0
  6
CONTINUOUS
 10
40.02599999995994
 20
3.137354288678143
 30
0.0
 11
38.60499999996136
 21
4.558354288676714
 31
0.0
  0
LINE
  5
1688D
  8
0
  6
CONTINUOUS
 10
40.02599999995994
 20
3.810873497758329
 30
0.0
 11
38.60499999996136
 21
5.2318734977569
 31
0.0
  0
LINE
  5
1688E
  8
0
  6
CONTINUOUS
 10
40.02599999995994
 20
4.484392706838515
 30
0.0
 11
38.60499999996136
 21
5.905392706837086
 31
0.0
  0
LINE
  5
1688F
  8
0
  6
CONTINUOUS
 10
44.99999999995498
 20
0.183911915923658
 30
0.0
 11
41.53858364506288
 21
3.64532827081576
 31
0.0
  0
LINE
  5
16890
  8
0
  6
CONTINUOUS
 10
40.02599999995994
 20
5.157911915918703
 30
0.0
 11
38.60499999996136
 21
6.578911915917274
 31
0.0
  0
LINE
  5
16891
  8
0
  6
CONTINUOUS
 10
44.99999999995498
 20
0.8574311250038447
 30
0.0
 11
38.60499999996136
 21
7.25243112499746
 31
0.0
  0
LINE
  5
16892
  8
0
  6
CONTINUOUS
 10
44.99999999995498
 20
1.530950334084031
 30
0.0
 11
38.60499999996136
 21
7.925950334077647
 31
0.0
  0
LINE
  5
16893
  8
0
  6
CONTINUOUS
 10
44.99999999995498
 20
2.204469543164218
 30
0.0
 11
43.57899999995641
 21
3.625469543162789
 31
0.0
  0
LINE
  5
16894
  8
0
  6
CONTINUOUS
 10
41.89876730984767
 20
5.305702233271528
 30
0.0
 11
38.60499999996136
 21
8.599469543157834
 31
0.0
  0
LINE
  5
16895
  8
0
  6
CONTINUOUS
 10
44.99999999995498
 20
2.877988752244405
 30
0.0
 11
43.57899999995641
 21
4.298988752242975
 31
0.0
  0
LINE
  5
16896
  8
0
  6
CONTINUOUS
 10
44.99999999995498
 20
3.551507961324591
 30
0.0
 11
43.57899999995641
 21
4.972507961323163
 31
0.0
  0
LINE
  5
16897
  8
0
  6
CONTINUOUS
 10
44.99999999995498
 20
4.225027170404777
 30
0.0
 11
43.57899999995641
 21
5.646027170403348
 31
0.0
  0
LINE
  5
16898
  8
0
  6
CONTINUOUS
 10
44.99999999995498
 20
4.898546379484964
 30
0.0
 11
43.57899999995641
 21
6.319546379483535
 31
0.0
  0
LINE
  5
16899
  8
0
  6
CONTINUOUS
 10
44.99999999995498
 20
5.572065588565151
 30
0.0
 11
43.57899999995641
 21
6.993065588563722
 31
0.0
  0
LINE
  5
1689A
  8
0
  6
CONTINUOUS
 10
44.99999999995498
 20
6.245584797645336
 30
0.0
 11
43.57899999995641
 21
7.666584797643908
 31
0.0
  0
LINE
  5
1689B
  8
0
  6
CONTINUOUS
 10
44.99999999995498
 20
6.919104006725522
 30
0.0
 11
43.57899999995641
 21
8.340104006724093
 31
0.0
  0
LINE
  5
1689C
  8
0
  6
CONTINUOUS
 10
44.99999999995498
 20
7.592623215805709
 30
0.0
 11
43.82952321576943
 21
8.763099999991255
 31
0.0
  0
LINE
  5
1689D
  8
0
  6
CONTINUOUS
 10
44.99999999995498
 20
8.266142424885896
 30
0.0
 11
44.50304242484962
 21
8.763099999991255
 31
0.0
  0
ENDBLK
  5
168C7
  8
0
  0
BLOCK
  8
0
  2
*X58
 70
     1
 10
0.0
 20
0.0
 30
0.0
  3
*X58
  1

  0
LINE
  5
1689F
  8
0
  6
CONTINUOUS
 10
0.0
 20
8.548461116714023
 30
0.0
 11
0.2146388832772324
 21
8.763099999991255
 31
0.0
  0
LINE
  5
168A0
  8
0
  6
CONTINUOUS
 10
-0.0000000000000002
 20
7.874941907633837
 30
0.0
 11
0.8881580923574184
 21
8.763099999991255
 31
0.0
  0
LINE
  5
168A1
  8
0
  6
CONTINUOUS
 10
0.0
 20
7.20142269855365
 30
0.0
 11
1.420999999998572
 21
8.622422698552223
 31
0.0
  0
LINE
  5
168A2
  8
0
  6
CONTINUOUS
 10
-0.0000000000000001
 20
6.527903489473465
 30
0.0
 11
1.420999999998571
 21
7.948903489472036
 31
0.0
  0
LINE
  5
168A3
  8
0
  6
CONTINUOUS
 10
-0.0000000000000002
 20
5.854384280393278
 30
0.0
 11
1.420999999998571
 21
7.275384280391849
 31
0.0
  0
LINE
  5
168A4
  8
0
  6
CONTINUOUS
 10
-0.0000000000000002
 20
5.180865071313091
 30
0.0
 11
1.420999999998571
 21
6.601865071311663
 31
0.0
  0
LINE
  5
168A5
  8
0
  6
CONTINUOUS
 10
0.0
 20
4.507345862232905
 30
0.0
 11
1.420999999998571
 21
5.928345862231477
 31
0.0
  0
LINE
  5
168A6
  8
0
  6
CONTINUOUS
 10
-0.0000000000000003
 20
3.833826653152718
 30
0.0
 11
1.420999999998571
 21
5.25482665315129
 31
0.0
  0
LINE
  5
168A7
  8
0
  6
CONTINUOUS
 10
-0.0000000000000002
 20
3.160307444072532
 30
0.0
 11
1.420999999998571
 21
4.581307444071103
 31
0.0
  0
LINE
  5
168A8
  8
0
  6
CONTINUOUS
 10
-0.0000000000000001
 20
2.486788234992345
 30
0.0
 11
1.420999999998571
 21
3.907788234990917
 31
0.0
  0
LINE
  5
168A9
  8
0
  6
CONTINUOUS
 10
-0.0000000000000006
 20
1.813269025912159
 30
0.0
 11
1.420999999998571
 21
3.234269025910731
 31
0.0
  0
LINE
  5
168AA
  8
0
  6
CONTINUOUS
 10
0.0
 20
1.139749816831973
 30
0.0
 11
1.420999999998571
 21
2.560749816830544
 31
0.0
  0
LINE
  5
168AB
  8
0
  6
CONTINUOUS
 10
0.0000000000000002
 20
0.466230607751787
 30
0.0
 11
1.420999999998571
 21
1.887230607750358
 31
0.0
  0
LINE
  5
168AC
  8
0
  6
CONTINUOUS
 10
0.2072886013284003
 20
-0.0000000000000009
 30
0.0
 11
1.420999999998571
 21
1.213711398670171
 31
0.0
  0
LINE
  5
168AD
  8
0
  6
CONTINUOUS
 10
0.8808078104085864
 20
-0.0000000000000009
 30
0.0
 11
1.420999999998571
 21
0.5401921895899839
 31
0.0
  0
LINE
  5
168AE
  8
0
  6
CONTINUOUS
 10
0.0581249075061505
 20
-0.0000000000000009
 30
0.0
 11
-0.0000000000000002
 21
0.0581249075061496
 31
0.0
  0
LINE
  5
168AF
  8
0
  6
CONTINUOUS
 10
0.7316441165863372
 20
-0.0000000000000009
 30
0.0
 11
-0.0000000000000002
 21
0.7316441165863363
 31
0.0
  0
LINE
  5
168B0
  8
0
  6
CONTINUOUS
 10
1.405163325666523
 20
-0.0000000000000009
 30
0.0
 11
-0.0000000000000002
 21
1.405163325666523
 31
0.0
  0
LINE
  5
168B1
  8
0
  6
CONTINUOUS
 10
1.420999999998572
 20
0.6576825347481381
 30
0.0
 11
-0.0000000000000001
 21
2.07868253474671
 31
0.0
  0
LINE
  5
168B2
  8
0
  6
CONTINUOUS
 10
1.420999999998571
 20
1.331201743828324
 30
0.0
 11
-0.0000000000000001
 21
2.752201743826896
 31
0.0
  0
LINE
  5
168B3
  8
0
  6
CONTINUOUS
 10
1.420999999998571
 20
2.004720952908511
 30
0.0
 11
-0.0000000000000002
 21
3.425720952907082
 31
0.0
  0
LINE
  5
168B4
  8
0
  6
CONTINUOUS
 10
1.420999999998571
 20
2.678240161988697
 30
0.0
 11
-0.0000000000000001
 21
4.099240161987269
 31
0.0
  0
LINE
  5
168B5
  8
0
  6
CONTINUOUS
 10
1.420999999998572
 20
3.351759371068884
 30
0.0
 11
0.0
 21
4.772759371067455
 31
0.0
  0
LINE
  5
168B6
  8
0
  6
CONTINUOUS
 10
1.420999999998571
 20
4.02527858014907
 30
0.0
 11
-0.0000000000000003
 21
5.446278580147642
 31
0.0
  0
LINE
  5
168B7
  8
0
  6
CONTINUOUS
 10
1.420999999998571
 20
4.698797789229257
 30
0.0
 11
0.0
 21
6.119797789227828
 31
0.0
  0
LINE
  5
168B8
  8
0
  6
CONTINUOUS
 10
1.420999999998571
 20
5.372316998309444
 30
0.0
 11
-0.0000000000000001
 21
6.793316998308015
 31
0.0
  0
LINE
  5
168B9
  8
0
  6
CONTINUOUS
 10
1.420999999998572
 20
6.045836207389629
 30
0.0
 11
-0.0000000000000004
 21
7.466836207388202
 31
0.0
  0
LINE
  5
168BA
  8
0
  6
CONTINUOUS
 10
1.420999999998571
 20
6.719355416469816
 30
0.0
 11
0.0
 21
8.140355416468388
 31
0.0
  0
LINE
  5
168BB
  8
0
  6
CONTINUOUS
 10
1.420999999998571
 20
7.392874625550003
 30
0.0
 11
0.0507746255573185
 21
8.763099999991255
 31
0.0
  0
LINE
  5
168BC
  8
0
  6
CONTINUOUS
 10
1.420999999998571
 20
8.06639383463019
 30
0.0
 11
0.7242938346375052
 21
8.763099999991255
 31
0.0
  0
LINE
  5
168BD
  8
0
  6
CONTINUOUS
 10
1.420999999998571
 20
8.739913043710375
 30
0.0
 11
1.397813043717691
 21
8.763099999991255
 31
0.0
  0
ENDBLK
  5
168C9
  8
0
  0
ENDSEC
  0
SECTION
  2
ENTITIES
  0
ARC
  5
15612
  8
01
 10
200.6832153844532
 20
-527.500362297066
 30
0.0
 40
1.000552974760424
 50
234.9378721609881
 51
235.0148699412473
  0
ARC
  5
15613
  8
01
 10
200.6829217738962
 20
-527.5007768647308
 30
0.0
 40
1.00004503522032
 50
235.6721536229392
 51
270.0000543479375
  0
ARC
  5
15614
  8
01
 10
478.1065713304818
 20
-527.5007422424867
 30
0.0
 40
1.000079657512244
 50
270.000559409309
 51
304.3272335936618
  0
LINE
  5
15615
  8
01
 10
336.4600457076006
 20
-528.5008219001236
 30
0.0
 11
336.3947519086487
 21
-528.5008219001236
 31
0.0
  0
LINE
  5
15616
  8
01
 10
337.3732675335814
 20
-528.5008219001245
 30
0.0
 11
336.4724682185554
 21
-528.5008219001236
 31
0.0
  0
LINE
  5
15617
  8
01
 10
342.3170359010182
 20
-528.5008219001318
 30
0.0
 11
341.4163298655865
 21
-528.5008219001309
 31
0.0
  0
LINE
  5
15618
  8
01
 10
478.6809956129066
 20
-516.6825050985797
 30
0.0
 11
478.7537124664514
 21
-516.7348971219387
 31
0.0
  0
LINE
  5
15619
  8
01
 10
478.7537124664514
 20
-516.7348971219387
 30
0.0
 11
478.8252841726965
 21
-516.7891089489192
 31
0.0
  0
LINE
  5
1561A
  8
01
 10
478.8252841726965
 20
-516.7891089489192
 30
0.0
 11
478.8957107316412
 21
-516.845111693751
 31
0.0
  0
LINE
  5
1561B
  8
01
 10
478.8957107316412
 20
-516.845111693751
 30
0.0
 11
478.9649921432861
 21
-516.9028764706597
 31
0.0
  0
LINE
  5
1561C
  8
01
 10
478.9649921432861
 20
-516.9028764706597
 30
0.0
 11
479.0331284076308
 21
-516.9623743938762
 31
0.0
  0
LINE
  5
1561D
  8
01
 10
479.0331284076308
 20
-516.9623743938762
 30
0.0
 11
479.1001195246758
 21
-517.0235765776267
 31
0.0
  0
LINE
  5
1561E
  8
01
 10
479.1001195246758
 20
-517.0235765776267
 30
0.0
 11
479.1659654944206
 21
-517.0864541361404
 31
0.0
  0
LINE
  5
1561F
  8
01
 10
479.1659654944206
 20
-517.0864541361404
 30
0.0
 11
479.2306663168654
 21
-517.1509781836446
 31
0.0
  0
LINE
  5
15620
  8
01
 10
479.2306663168654
 20
-517.1509781836446
 30
0.0
 11
479.2942219920103
 21
-517.2171198343692
 31
0.0
  0
LINE
  5
15621
  8
01
 10
479.2942219920103
 20
-517.2171198343692
 30
0.0
 11
479.3566325198553
 21
-517.2848502025406
 31
0.0
  0
LINE
  5
15622
  8
01
 10
479.3566325198553
 20
-517.2848502025406
 30
0.0
 11
479.4178979004002
 21
-517.3541404023888
 31
0.0
  0
LINE
  5
15623
  8
01
 10
479.4178979004002
 20
-517.3541404023888
 30
0.0
 11
479.478018133645
 21
-517.4249615481401
 31
0.0
  0
LINE
  5
15624
  8
01
 10
479.478018133645
 20
-517.4249615481401
 30
0.0
 11
479.5369932195902
 21
-517.4972847540237
 31
0.0
  0
LINE
  5
15625
  8
01
 10
479.5369932195902
 20
-517.4972847540237
 30
0.0
 11
479.5948231582349
 21
-517.5710811342685
 31
0.0
  0
LINE
  5
15626
  8
01
 10
479.5948231582349
 20
-517.5710811342685
 30
0.0
 11
479.65150794958
 21
-517.646321803102
 31
0.0
  0
LINE
  5
15627
  8
01
 10
479.65150794958
 20
-517.646321803102
 30
0.0
 11
479.707047593625
 21
-517.7229778747521
 31
0.0
  0
LINE
  5
15628
  8
01
 10
479.707047593625
 20
-517.7229778747521
 30
0.0
 11
479.7614420903699
 21
-517.8010204634472
 31
0.0
  0
LINE
  5
15629
  8
01
 10
479.7614420903699
 20
-517.8010204634472
 30
0.0
 11
479.8146914398151
 21
-517.8804206834163
 31
0.0
  0
LINE
  5
1562A
  8
01
 10
479.8146914398151
 20
-517.8804206834163
 30
0.0
 11
479.9177546968053
 21
-518.0431784740874
 31
0.0
  0
LINE
  5
1562B
  8
01
 10
479.9177546968053
 20
-518.0431784740874
 30
0.0
 11
480.0162373645958
 21
-518.2110201605908
 31
0.0
  0
LINE
  5
1562C
  8
01
 10
480.0162373645958
 20
-518.2110201605908
 30
0.0
 11
480.1101394431862
 21
-518.3837146567519
 31
0.0
  0
LINE
  5
1562D
  8
01
 10
480.1101394431862
 20
-518.3837146567519
 30
0.0
 11
480.1994609325768
 21
-518.5610308763978
 31
0.0
  0
LINE
  5
1562E
  8
01
 10
480.1994609325768
 20
-518.5610308763978
 30
0.0
 11
480.2842018327678
 21
-518.7427377333531
 31
0.0
  0
LINE
  5
1562F
  8
01
 10
480.2842018327678
 20
-518.7427377333531
 30
0.0
 11
480.3643621437589
 21
-518.9286041414432
 31
0.0
  0
LINE
  5
15630
  8
01
 10
480.3643621437589
 20
-518.9286041414432
 30
0.0
 11
480.4399418655501
 21
-519.1183990144962
 31
0.0
  0
LINE
  5
15631
  8
01
 10
480.4399418655501
 20
-519.1183990144962
 30
0.0
 11
480.5109409981417
 21
-519.3118912663356
 31
0.0
  0
LINE
  5
15632
  8
01
 10
480.5109409981417
 20
-519.3118912663356
 30
0.0
 11
480.5773595415333
 21
-519.5088498107878
 31
0.0
  0
LINE
  5
15633
  8
01
 10
480.5773595415333
 20
-519.5088498107878
 30
0.0
 11
480.6391974957253
 21
-519.709043561679
 31
0.0
  0
LINE
  5
15634
  8
01
 10
480.6391974957253
 20
-519.709043561679
 30
0.0
 11
480.6964548607177
 21
-519.9122414328356
 31
0.0
  0
LINE
  5
15635
  8
01
 10
480.6964548607177
 20
-519.9122414328356
 30
0.0
 11
480.7491316365104
 21
-520.1182123380811
 31
0.0
  0
LINE
  5
15636
  8
01
 10
480.7491316365104
 20
-520.1182123380811
 30
0.0
 11
480.7972278231034
 21
-520.3267251912437
 31
0.0
  0
LINE
  5
15637
  8
01
 10
480.7972278231034
 20
-520.3267251912437
 30
0.0
 11
480.8407434204964
 21
-520.5375489061487
 31
0.0
  0
LINE
  5
15638
  8
01
 10
480.8407434204964
 20
-520.5375489061487
 30
0.0
 11
480.8796784286901
 21
-520.7504523966206
 31
0.0
  0
LINE
  5
15639
  8
01
 10
480.8796784286901
 20
-520.7504523966206
 30
0.0
 11
480.914032847684
 21
-520.9652045764867
 31
0.0
  0
LINE
  5
1563A
  8
01
 10
480.914032847684
 20
-520.9652045764867
 30
0.0
 11
480.9438066774785
 21
-521.1815743595723
 31
0.0
  0
LINE
  5
1563B
  8
01
 10
480.9438066774785
 20
-521.1815743595723
 30
0.0
 11
480.968999918073
 21
-521.3993306597029
 31
0.0
  0
LINE
  5
1563C
  8
01
 10
480.968999918073
 20
-521.3993306597029
 30
0.0
 11
480.9896125694684
 21
-521.6182423907046
 31
0.0
  0
LINE
  5
1563D
  8
01
 10
480.9896125694684
 20
-521.6182423907046
 30
0.0
 11
481.0056446316639
 21
-521.838078466403
 31
0.0
  0
LINE
  5
1563E
  8
01
 10
481.0056446316639
 20
-521.838078466403
 30
0.0
 11
481.0170961046599
 21
-522.0586078006243
 31
0.0
  0
LINE
  5
1563F
  8
01
 10
481.0170961046599
 20
-522.0586078006243
 30
0.0
 11
481.0239669884566
 21
-522.2795993071929
 31
0.0
  0
LINE
  5
15640
  8
01
 10
481.0239669884566
 20
-522.2795993071929
 30
0.0
 11
481.0262572830534
 21
-522.5008218999371
 31
0.0
  0
LINE
  5
15641
  8
01
 10
481.0262572830534
 20
-522.5008218999371
 30
0.0
 11
481.0239669884525
 21
-522.7220444926058
 31
0.0
  0
LINE
  5
15642
  8
01
 10
481.0239669884525
 20
-522.7220444926058
 30
0.0
 11
481.0170961046549
 21
-522.9430359991
 31
0.0
  0
LINE
  5
15643
  8
01
 10
481.0170961046549
 20
-522.9430359991
 30
0.0
 11
481.0056446316612
 21
-523.1635653332467
 31
0.0
  0
LINE
  5
15644
  8
01
 10
481.0056446316612
 20
-523.1635653332467
 30
0.0
 11
480.9896125694711
 21
-523.3834014088714
 31
0.0
  0
LINE
  5
15645
  8
01
 10
480.9896125694711
 20
-523.3834014088714
 30
0.0
 11
480.9689999180848
 21
-523.6023131398003
 31
0.0
  0
LINE
  5
15646
  8
01
 10
480.9689999180848
 20
-523.6023131398003
 30
0.0
 11
480.9438066775019
 21
-523.8200694398599
 31
0.0
  0
LINE
  5
15647
  8
01
 10
480.9438066775019
 20
-523.8200694398599
 30
0.0
 11
480.9140328477229
 21
-524.0364392228755
 31
0.0
  0
LINE
  5
15648
  8
01
 10
480.9140328477229
 20
-524.0364392228755
 30
0.0
 11
480.8796784287476
 21
-524.2511914026734
 31
0.0
  0
LINE
  5
15649
  8
01
 10
480.8796784287476
 20
-524.2511914026734
 30
0.0
 11
480.840743420576
 21
-524.4640948930789
 31
0.0
  0
LINE
  5
1564A
  8
01
 10
480.840743420576
 20
-524.4640948930789
 30
0.0
 11
480.797227823208
 21
-524.6749186079194
 31
0.0
  0
LINE
  5
1564B
  8
01
 10
480.797227823208
 20
-524.6749186079194
 30
0.0
 11
480.7491316366441
 21
-524.8834314610201
 31
0.0
  0
LINE
  5
1564C
  8
01
 10
480.7491316366441
 20
-524.8834314610201
 30
0.0
 11
480.6964548608837
 21
-525.0894023662074
 31
0.0
  0
LINE
  5
1564D
  8
01
 10
480.6964548608837
 20
-525.0894023662074
 30
0.0
 11
480.6391974959272
 21
-525.2926002373067
 31
0.0
  0
LINE
  5
1564E
  8
01
 10
480.6391974959272
 20
-525.2926002373067
 30
0.0
 11
480.5773595417745
 21
-525.4927939881452
 31
0.0
  0
LINE
  5
1564F
  8
01
 10
480.5773595417745
 20
-525.4927939881452
 30
0.0
 11
480.5109409984254
 21
-525.6897525325473
 31
0.0
  0
LINE
  5
15650
  8
01
 10
480.5109409984254
 20
-525.6897525325473
 30
0.0
 11
480.4399418658807
 21
-525.8832447843404
 31
0.0
  0
LINE
  5
15651
  8
01
 10
480.4399418658807
 20
-525.8832447843404
 30
0.0
 11
480.3643621441395
 21
-526.0730396573506
 31
0.0
  0
LINE
  5
15652
  8
01
 10
480.3643621441395
 20
-526.0730396573506
 30
0.0
 11
480.2842018332021
 21
-526.2589060654025
 31
0.0
  0
LINE
  5
15653
  8
01
 10
480.2842018332021
 20
-526.2589060654025
 30
0.0
 11
480.1994609330686
 21
-526.4406129223232
 31
0.0
  0
LINE
  5
15654
  8
01
 10
480.1994609330686
 20
-526.4406129223232
 30
0.0
 11
480.1101394437392
 21
-526.6179291419392
 31
0.0
  0
LINE
  5
15655
  8
01
 10
480.1101394437392
 20
-526.6179291419392
 30
0.0
 11
480.0162373652136
 21
-526.7906236380757
 31
0.0
  0
LINE
  5
15656
  8
01
 10
480.0162373652136
 20
-526.7906236380757
 30
0.0
 11
479.917754697492
 21
-526.958465324559
 31
0.0
  0
LINE
  5
15657
  8
01
 10
479.917754697492
 20
-526.958465324559
 30
0.0
 11
479.8146914405743
 21
-527.1212231152147
 31
0.0
  0
LINE
  5
15658
  8
01
 10
479.8146914405743
 20
-527.1212231152147
 30
0.0
 11
479.7614420911668
 21
-527.2006233351783
 31
0.0
  0
LINE
  5
15659
  8
01
 10
479.7614420911668
 20
-527.2006233351783
 30
0.0
 11
479.7070475944606
 21
-527.2786659238698
 31
0.0
  0
LINE
  5
1565A
  8
01
 10
479.7070475944606
 20
-527.2786659238698
 30
0.0
 11
479.6515079504552
 21
-527.3553219955172
 31
0.0
  0
LINE
  5
1565B
  8
01
 10
479.6515079504552
 20
-527.3553219955172
 30
0.0
 11
479.5948231591508
 21
-527.4305626643497
 31
0.0
  0
LINE
  5
1565C
  8
01
 10
479.5948231591508
 20
-527.4305626643497
 30
0.0
 11
479.5369932205474
 21
-527.5043590445946
 31
0.0
  0
LINE
  5
1565D
  8
01
 10
479.5369932205474
 20
-527.5043590445946
 30
0.0
 11
479.4780181346453
 21
-527.57668225048
 31
0.0
  0
LINE
  5
1565E
  8
01
 10
479.4780181346453
 20
-527.57668225048
 30
0.0
 11
479.4178979014439
 21
-527.6475033962349
 31
0.0
  0
LINE
  5
1565F
  8
01
 10
479.4178979014439
 20
-527.6475033962349
 30
0.0
 11
479.3566325209433
 21
-527.7167935960877
 31
0.0
  0
LINE
  5
15660
  8
01
 10
479.3566325209433
 20
-527.7167935960877
 30
0.0
 11
479.294221993144
 21
-527.7845239642663
 31
0.0
  0
LINE
  5
15661
  8
01
 10
479.294221993144
 20
-527.7845239642663
 30
0.0
 11
479.2306663180459
 21
-527.8506656149982
 31
0.0
  0
LINE
  5
15662
  8
01
 10
479.2306663180459
 20
-527.8506656149982
 30
0.0
 11
479.1659654956486
 21
-527.9151896625124
 31
0.0
  0
LINE
  5
15663
  8
01
 10
479.1659654956486
 20
-527.9151896625124
 30
0.0
 11
479.1001195259521
 21
-527.9780672210379
 31
0.0
  0
LINE
  5
15664
  8
01
 10
479.1001195259521
 20
-527.9780672210379
 30
0.0
 11
479.0331284089568
 21
-528.0392694048021
 31
0.0
  0
LINE
  5
15665
  8
01
 10
479.0331284089568
 20
-528.0392694048021
 30
0.0
 11
478.9649921446628
 21
-528.0987673280322
 31
0.0
  0
LINE
  5
15666
  8
01
 10
478.9649921446628
 20
-528.0987673280322
 30
0.0
 11
478.8957107330696
 21
-528.1565321049591
 31
0.0
  0
LINE
  5
15667
  8
01
 10
478.8957107330696
 20
-528.1565321049591
 30
0.0
 11
478.8252841741771
 21
-528.2125348498082
 31
0.0
  0
LINE
  5
15668
  8
01
 10
478.8252841741771
 20
-528.2125348498082
 30
0.0
 11
478.7537124679861
 21
-528.2667466768096
 31
0.0
  0
LINE
  5
15669
  8
01
 10
478.7537124679861
 20
-528.2667466768096
 30
0.0
 11
478.6809956144959
 21
-528.3191387001914
 31
0.0
  0
ARC
  5
1566A
  8
01
 10
200.6830020972418
 20
-517.5011265226437
 30
0.0
 40
1.000304625842348
 50
90.00454645458451
 51
124.3232549254921
  0
ARC
  5
1566B
  8
01
 10
200.6826451425334
 20
-517.500469521209
 30
0.0
 40
0.9995607600749724
 50
125.0096266101569
 51
125.0621138199352
  0
LINE
  5
1566C
  8
01
 10
200.1085082029551
 20
-528.3191387002778
 30
0.0
 11
200.0357913494611
 21
-528.2667466768978
 31
0.0
  0
LINE
  5
1566D
  8
01
 10
200.0357913494611
 20
-528.2667466768978
 30
0.0
 11
199.964219643266
 21
-528.2125348498982
 31
0.0
  0
LINE
  5
1566E
  8
01
 10
199.964219643266
 20
-528.2125348498982
 30
0.0
 11
199.8937930843699
 21
-528.1565321050491
 31
0.0
  0
LINE
  5
1566F
  8
01
 10
199.8937930843699
 20
-528.1565321050491
 30
0.0
 11
199.824511672773
 21
-528.098767328125
 31
0.0
  0
LINE
  5
15670
  8
01
 10
199.824511672773
 20
-528.098767328125
 30
0.0
 11
199.7563754084749
 21
-528.0392694048949
 31
0.0
  0
LINE
  5
15671
  8
01
 10
199.7563754084749
 20
-528.0392694048949
 30
0.0
 11
199.689384291476
 21
-527.9780672211316
 31
0.0
  0
LINE
  5
15672
  8
01
 10
199.689384291476
 20
-527.9780672211316
 30
0.0
 11
199.6235383217763
 21
-527.915189662607
 31
0.0
  0
LINE
  5
15673
  8
01
 10
199.6235383217763
 20
-527.915189662607
 30
0.0
 11
199.5588374993754
 21
-527.8506656150937
 31
0.0
  0
LINE
  5
15674
  8
01
 10
199.5588374993754
 20
-527.8506656150937
 30
0.0
 11
199.4952818242737
 21
-527.7845239643618
 31
0.0
  0
LINE
  5
15675
  8
01
 10
199.4952818242737
 20
-527.7845239643618
 30
0.0
 11
199.4328712964709
 21
-527.7167935961832
 31
0.0
  0
LINE
  5
15676
  8
01
 10
199.4328712964709
 20
-527.7167935961832
 30
0.0
 11
199.3716059159672
 21
-527.6475033963313
 31
0.0
  0
LINE
  5
15677
  8
01
 10
199.3716059159672
 20
-527.6475033963313
 30
0.0
 11
199.3114856827626
 21
-527.5766822505764
 31
0.0
  0
LINE
  5
15678
  8
01
 10
199.3114856827626
 20
-527.5766822505764
 30
0.0
 11
199.2525105968571
 21
-527.5043590446901
 31
0.0
  0
LINE
  5
15679
  8
01
 10
199.2525105968571
 20
-527.5043590446901
 30
0.0
 11
199.1946806582507
 21
-527.4305626644452
 31
0.0
  0
LINE
  5
1567A
  8
01
 10
199.1946806582507
 20
-527.4305626644452
 30
0.0
 11
199.1379958669431
 21
-527.3553219956127
 31
0.0
  0
LINE
  5
1567B
  8
01
 10
199.1379958669431
 20
-527.3553219956127
 30
0.0
 11
199.082456222935
 21
-527.2786659239653
 31
0.0
  0
LINE
  5
1567C
  8
01
 10
199.082456222935
 20
-527.2786659239653
 30
0.0
 11
199.0280617262256
 21
-527.2006233352729
 31
0.0
  0
LINE
  5
1567D
  8
01
 10
199.0280617262256
 20
-527.2006233352729
 30
0.0
 11
198.9748123768154
 21
-527.1212231153092
 31
0.0
  0
LINE
  5
1567E
  8
01
 10
198.9748123768154
 20
-527.1212231153092
 30
0.0
 11
198.8717491198922
 21
-526.9584653246509
 31
0.0
  0
LINE
  5
1567F
  8
01
 10
198.8717491198922
 20
-526.9584653246509
 30
0.0
 11
198.7732664521652
 21
-526.7906236381657
 31
0.0
  0
LINE
  5
15680
  8
01
 10
198.7732664521652
 20
-526.7906236381657
 30
0.0
 11
198.6793643736346
 21
-526.6179291420274
 31
0.0
  0
LINE
  5
15681
  8
01
 10
198.6793643736346
 20
-526.6179291420274
 30
0.0
 11
198.5900428843004
 21
-526.4406129224087
 31
0.0
  0
LINE
  5
15682
  8
01
 10
198.5900428843004
 20
-526.4406129224087
 30
0.0
 11
198.5053019841625
 21
-526.2589060654843
 31
0.0
  0
LINE
  5
15683
  8
01
 10
198.5053019841625
 20
-526.2589060654843
 30
0.0
 11
198.4251416732209
 21
-526.0730396574288
 31
0.0
  0
LINE
  5
15684
  8
01
 10
198.4251416732209
 20
-526.0730396574288
 30
0.0
 11
198.3495619514758
 21
-525.883244784415
 31
0.0
  0
LINE
  5
15685
  8
01
 10
198.3495619514758
 20
-525.883244784415
 30
0.0
 11
198.278562818927
 21
-525.6897525326174
 31
0.0
  0
LINE
  5
15686
  8
01
 10
198.278562818927
 20
-525.6897525326174
 30
0.0
 11
198.2121442755747
 21
-525.4927939882107
 31
0.0
  0
LINE
  5
15687
  8
01
 10
198.2121442755747
 20
-525.4927939882107
 30
0.0
 11
198.1503063214188
 21
-525.2926002373677
 31
0.0
  0
LINE
  5
15688
  8
01
 10
198.1503063214188
 20
-525.2926002373677
 30
0.0
 11
198.0930489564594
 21
-525.0894023662638
 31
0.0
  0
LINE
  5
15689
  8
01
 10
198.0930489564594
 20
-525.0894023662638
 30
0.0
 11
198.0403721806963
 21
-524.883431461071
 31
0.0
  0
LINE
  5
1568A
  8
01
 10
198.0403721806963
 20
-524.883431461071
 30
0.0
 11
197.9922759941298
 21
-524.6749186079649
 31
0.0
  0
LINE
  5
1568B
  8
01
 10
197.9922759941298
 20
-524.6749186079649
 30
0.0
 11
197.9487603967598
 21
-524.464094893119
 31
0.0
  0
LINE
  5
1568C
  8
01
 10
197.9487603967598
 20
-524.464094893119
 30
0.0
 11
197.9098253885861
 21
-524.251191402708
 31
0.0
  0
LINE
  5
1568D
  8
01
 10
197.9098253885861
 20
-524.251191402708
 30
0.0
 11
197.8754709696093
 21
-524.0364392229046
 31
0.0
  0
LINE
  5
1568E
  8
01
 10
197.8754709696093
 20
-524.0364392229046
 30
0.0
 11
197.8456971398289
 21
-523.8200694398827
 31
0.0
  0
LINE
  5
1568F
  8
01
 10
197.8456971398289
 20
-523.8200694398827
 30
0.0
 11
197.8205038992448
 21
-523.6023131398176
 31
0.0
  0
LINE
  5
15690
  8
01
 10
197.8205038992448
 20
-523.6023131398176
 30
0.0
 11
197.7998912478577
 21
-523.3834014088823
 31
0.0
  0
LINE
  5
15691
  8
01
 10
197.7998912478577
 20
-523.3834014088823
 30
0.0
 11
197.7838591856669
 21
-523.1635653332512
 31
0.0
  0
LINE
  5
15692
  8
01
 10
197.7838591856669
 20
-523.1635653332512
 30
0.0
 11
197.7724077126727
 21
-522.9430359990981
 31
0.0
  0
LINE
  5
15693
  8
01
 10
197.7724077126727
 20
-522.9430359990981
 30
0.0
 11
197.7655368288754
 21
-522.7220444925977
 31
0.0
  0
LINE
  5
15694
  8
01
 10
197.7655368288754
 20
-522.7220444925977
 30
0.0
 11
197.7632465342745
 21
-522.5008218999226
 31
0.0
  0
LINE
  5
15695
  8
01
 10
197.7632465342745
 20
-522.5008218999226
 30
0.0
 11
197.7655368288717
 21
-522.2795993071766
 31
0.0
  0
LINE
  5
15696
  8
01
 10
197.7655368288717
 20
-522.2795993071766
 30
0.0
 11
197.7724077126686
 21
-522.0586078006042
 31
0.0
  0
LINE
  5
15697
  8
01
 10
197.7724077126686
 20
-522.0586078006042
 30
0.0
 11
197.7838591856653
 21
-521.8380784663802
 31
0.0
  0
LINE
  5
15698
  8
01
 10
197.7838591856653
 20
-521.8380784663802
 30
0.0
 11
197.7998912478615
 21
-521.61824239068
 31
0.0
  0
LINE
  5
15699
  8
01
 10
197.7998912478615
 20
-521.61824239068
 30
0.0
 11
197.8205038992576
 21
-521.3993306596756
 31
0.0
  0
LINE
  5
1569A
  8
01
 10
197.8205038992576
 20
-521.3993306596756
 30
0.0
 11
197.8456971398532
 21
-521.1815743595423
 31
0.0
  0
LINE
  5
1569B
  8
01
 10
197.8456971398532
 20
-521.1815743595423
 30
0.0
 11
197.8754709696484
 21
-520.9652045764549
 31
0.0
  0
LINE
  5
1569C
  8
01
 10
197.8754709696484
 20
-520.9652045764549
 30
0.0
 11
197.9098253886436
 21
-520.7504523965861
 31
0.0
  0
LINE
  5
1569D
  8
01
 10
197.9098253886436
 20
-520.7504523965861
 30
0.0
 11
197.9487603968385
 21
-520.5375489061114
 31
0.0
  0
LINE
  5
1569E
  8
01
 10
197.9487603968385
 20
-520.5375489061114
 30
0.0
 11
197.9922759942331
 21
-520.3267251912055
 31
0.0
  0
LINE
  5
1569F
  8
01
 10
197.9922759942331
 20
-520.3267251912055
 30
0.0
 11
198.0403721808275
 21
-520.1182123380402
 31
0.0
  0
LINE
  5
156A0
  8
01
 10
198.0403721808275
 20
-520.1182123380402
 30
0.0
 11
198.0930489566215
 21
-519.9122414327919
 31
0.0
  0
LINE
  5
156A1
  8
01
 10
198.0930489566215
 20
-519.9122414327919
 30
0.0
 11
198.1503063216155
 21
-519.7090435616344
 31
0.0
  0
LINE
  5
156A2
  8
01
 10
198.1503063216155
 20
-519.7090435616344
 30
0.0
 11
198.2121442758094
 21
-519.5088498107414
 31
0.0
  0
LINE
  5
156A3
  8
01
 10
198.2121442758094
 20
-519.5088498107414
 30
0.0
 11
198.278562819203
 21
-519.3118912662874
 31
0.0
  0
LINE
  5
156A4
  8
01
 10
198.278562819203
 20
-519.3118912662874
 30
0.0
 11
198.3495619517967
 21
-519.1183990144461
 31
0.0
  0
LINE
  5
156A5
  8
01
 10
198.3495619517967
 20
-519.1183990144461
 30
0.0
 11
198.4251416735901
 21
-518.9286041413932
 31
0.0
  0
LINE
  5
156A6
  8
01
 10
198.4251416735901
 20
-518.9286041413932
 30
0.0
 11
198.5053019845834
 21
-518.7427377333004
 31
0.0
  0
LINE
  5
156A7
  8
01
 10
198.5053019845834
 20
-518.7427377333004
 30
0.0
 11
198.5900428847765
 21
-518.5610308763441
 31
0.0
  0
LINE
  5
156A8
  8
01
 10
198.5900428847765
 20
-518.5610308763441
 30
0.0
 11
198.6793643741696
 21
-518.3837146566982
 31
0.0
  0
LINE
  5
156A9
  8
01
 10
198.6793643741696
 20
-518.3837146566982
 30
0.0
 11
198.7732664527628
 21
-518.2110201605362
 31
0.0
  0
LINE
  5
156AA
  8
01
 10
198.7732664527628
 20
-518.2110201605362
 30
0.0
 11
198.8717491205559
 21
-518.043178474032
 31
0.0
  0
LINE
  5
156AB
  8
01
 10
198.8717491205559
 20
-518.043178474032
 30
0.0
 11
198.9748123775489
 21
-517.8804206833609
 31
0.0
  0
LINE
  5
156AC
  8
01
 10
198.9748123775489
 20
-517.8804206833609
 30
0.0
 11
199.0280617269955
 21
-517.8010204633927
 31
0.0
  0
LINE
  5
156AD
  8
01
 10
199.0280617269955
 20
-517.8010204633927
 30
0.0
 11
199.0824562237419
 21
-517.7229778746967
 31
0.0
  0
LINE
  5
156AE
  8
01
 10
199.0824562237419
 20
-517.7229778746967
 30
0.0
 11
199.1379958677885
 21
-517.6463218030465
 31
0.0
  0
LINE
  5
156AF
  8
01
 10
199.1379958677885
 20
-517.6463218030465
 30
0.0
 11
199.194680659135
 21
-517.571081134214
 31
0.0
  0
LINE
  5
156B0
  8
01
 10
199.194680659135
 20
-517.571081134214
 30
0.0
 11
199.2525105977813
 21
-517.4972847539691
 31
0.0
  0
LINE
  5
156B1
  8
01
 10
199.2525105977813
 20
-517.4972847539691
 30
0.0
 11
199.3114856837281
 21
-517.4249615480855
 31
0.0
  0
LINE
  5
156B2
  8
01
 10
199.3114856837281
 20
-517.4249615480855
 30
0.0
 11
199.3716059169744
 21
-517.3541404023342
 31
0.0
  0
LINE
  5
156B3
  8
01
 10
199.3716059169744
 20
-517.3541404023342
 30
0.0
 11
199.4328712975212
 21
-517.284850202487
 31
0.0
  0
LINE
  5
156B4
  8
01
 10
199.4328712975212
 20
-517.284850202487
 30
0.0
 11
199.4952818253676
 21
-517.2171198343156
 31
0.0
  0
LINE
  5
156B5
  8
01
 10
199.4952818253676
 20
-517.2171198343156
 30
0.0
 11
199.5588375005143
 21
-517.1509781835919
 31
0.0
  0
LINE
  5
156B6
  8
01
 10
199.5588375005143
 20
-517.1509781835919
 30
0.0
 11
199.6235383229607
 21
-517.0864541360877
 31
0.0
  0
LINE
  5
156B7
  8
01
 10
199.6235383229607
 20
-517.0864541360877
 30
0.0
 11
199.6893842927075
 21
-517.0235765775749
 31
0.0
  0
LINE
  5
156B8
  8
01
 10
199.6893842927075
 20
-517.0235765775749
 30
0.0
 11
199.7563754097541
 21
-516.9623743938253
 31
0.0
  0
LINE
  5
156B9
  8
01
 10
199.7563754097541
 20
-516.9623743938253
 30
0.0
 11
199.8245116741007
 21
-516.9028764706097
 31
0.0
  0
LINE
  5
156BA
  8
01
 10
199.8245116741007
 20
-516.9028764706097
 30
0.0
 11
199.8937930857473
 21
-516.845111693701
 31
0.0
  0
LINE
  5
156BB
  8
01
 10
199.8937930857473
 20
-516.845111693701
 30
0.0
 11
199.9642196446941
 21
-516.789108948871
 31
0.0
  0
LINE
  5
156BC
  8
01
 10
199.9642196446941
 20
-516.789108948871
 30
0.0
 11
200.0357913509408
 21
-516.7348971218905
 31
0.0
  0
LINE
  5
156BD
  8
01
 10
200.0357913509408
 20
-516.7348971218905
 30
0.0
 11
200.1085082044876
 21
-516.6825050985324
 31
0.0
  0
ARC
  5
156BE
  8
01
 10
473.6738345853039
 20
-555.061498662594
 30
0.0
 40
6.553616379805749
 50
304.4627366807026
 51
331.9385348096867
  0
LINE
  5
156BF
  8
01
 10
369.3947518728121
 20
-574.7591564242
 30
0.0
 11
369.3947518728116
 21
-575.8816686755288
 31
0.0
  0
LINE
  5
156C2
  8
01
 10
368.7831253910615
 20
-561.7008221058902
 30
0.0
 11
368.3947518731409
 21
-561.7008221213316
 31
0.0
  0
LINE
  5
156C3
  8
01
 10
369.0949526256288
 20
-561.7008220322712
 30
0.0
 11
368.8947519087046
 21
-561.7008220936939
 31
0.0
  0
ARC
  5
156C4
  8
01
 10
369.0949959916909
 20
-562.0008648465425
 30
0.0
 40
0.3000426738359492
 50
0.0082533982359611
 51
89.81568359739778
  0
ARC
  5
156C5
  8
01
 10
309.694508117231
 20
-562.000865066341
 30
0.0
 40
0.3000430371507468
 50
89.99178825723165
 51
179.9917399172749
  0
LINE
  5
156C6
  8
01
 10
309.8947519087076
 20
-561.7008220936939
 30
0.0
 11
309.6945511199835
 21
-561.7008220322712
 31
0.0
  0
LINE
  5
156C7
  8
01
 10
310.3947518724592
 20
-561.7008221213316
 30
0.0
 11
310.0063780046182
 21
-561.7008221058902
 31
0.0
  0
LINE
  5
156C8
  8
01
 10
368.3947518728121
 20
-561.7008221213316
 30
0.0
 11
367.694751872812
 21
-561.7008221213316
 31
0.0
  0
LINE
  5
156C9
  8
01
 10
311.0947518728121
 20
-561.7008221213316
 30
0.0
 11
310.3947518728121
 21
-561.7008221213316
 31
0.0
  0
ARC
  5
156CA
  8
01
 10
311.0914267646529
 20
-579.4911872891932
 30
0.0
 40
0.3057142023302966
 50
270.631898737332
 51
312.4824817647939
  0
LINE
  5
156CB
  8
01
 10
311.3947518728123
 20
-578.0368114263699
 30
0.0
 11
311.3947518728123
 21
-578.0958916867528
 31
0.0
  0
ARC
  5
156CC
  8
01
 10
367.6980771661588
 20
-579.4911869094237
 30
0.0
 40
0.3057146074734152
 50
227.5175407079943
 51
269.3722231625745
  0
LINE
  5
156CD
  8
01
 10
367.3947518728121
 20
-578.0368114263699
 30
0.0
 11
367.3947518728121
 21
-578.0958916867528
 31
0.0
  0
LINE
  5
156ED
  8
01
 10
200.6856937779444
 20
-528.5008218999508
 30
0.0
 11
216.3946977720368
 21
-528.5008218999508
 31
0.0
  0
LINE
  5
156EF
  8
01
 10
462.3948060453527
 20
-528.5008219001281
 30
0.0
 11
478.1062251283518
 21
-528.5008218999508
 31
0.0
  0
LINE
  5
156F0
  8
01
 10
462.394709286539
 20
-528.5008219001281
 30
0.0
 11
216.3946977720368
 21
-528.5008218999508
 31
0.0
  0
LINE
  5
156FA
  8
01
 10
200.6832786890614
 20
-516.5008218999508
 30
0.0
 11
216.3946977720595
 21
-516.5008218999508
 31
0.0
  0
LINE
  5
156FB
  8
01
 10
462.3948060453752
 20
-516.5008219001281
 30
0.0
 11
478.1062251283734
 21
-516.5008218999508
 31
0.0
  0
LINE
  5
156FC
  8
01
 10
462.3948060453752
 20
-516.5008219001281
 30
0.0
 11
216.394794530873
 21
-516.5008218999508
 31
0.0
  0
LINE
  5
156FE
  8
01
 10
204.4990569211504
 20
-561.5008219000918
 30
0.0
 11
314.270939132017
 21
-561.5008219000918
 31
0.0
  0
LINE
  5
156FF
  8
01
 10
364.5185645534666
 20
-561.5008219000918
 30
0.0
 11
473.8988115998304
 21
-561.5008219000918
 31
0.0
  0
ARC
  5
15701
  8
01
 10
199.3608733071683
 20
-555.5008914494726
 30
0.0
 40
1.000069505609513
 50
90.00844326678305
 51
194.9715275456863
  0
LINE
  5
15702
  8
01
 10
213.1270018483735
 20
-554.5008219000918
 30
0.0
 11
199.360882427573
 21
-554.5008219000918
 31
0.0
  0
LINE
  5
15703
  8
01
 10
465.6624985500132
 20
-554.5008219000918
 30
0.0
 11
213.1270018483735
 21
-554.5008219000918
 31
0.0
  0
ARC
  5
15705
  8
01
 10
479.4286316682299
 20
-555.5008904154208
 30
0.0
 40
1.000068515367614
 50
345.0283959585511
 51
90.00049986199737
  0
LINE
  5
15706
  8
01
 10
465.6624985500132
 20
-554.5008219000918
 30
0.0
 11
479.4286229433944
 21
-554.5008219000918
 31
0.0
  0
ARC
  5
15708
  8
01
 10
473.8659054490947
 20
-555.0150531166635
 30
0.0
 40
6.485852259098187
 50
269.7093070315976
 51
302.8313822548016
  0
ARC
  5
15709
  8
01
 10
470.233967657628
 20
-553.1415313582527
 30
0.0
 40
10.49256773714393
 50
331.5230579801066
 51
345.5530803423491
  0
LINE
  5
1570C
  8
01
 10
198.3947518369184
 20
-555.7592484133281
 30
0.0
 11
198.4853330856236
 21
-556.0812400293078
 31
0.0
  0
LINE
  5
1570D
  8
01
 10
198.4853330856236
 20
-556.0812400293078
 30
0.0
 11
198.5828021213217
 21
-556.3956084007957
 31
0.0
  0
LINE
  5
1570E
  8
01
 10
198.5828021213217
 20
-556.3956084007957
 30
0.0
 11
198.6872087041406
 21
-556.7021957650275
 31
0.0
  0
LINE
  5
1570F
  8
01
 10
198.6872087041406
 20
-556.7021957650275
 30
0.0
 11
198.7986025942071
 21
-557.0008443592394
 31
0.0
  0
LINE
  5
15710
  8
01
 10
198.7986025942071
 20
-557.0008443592394
 30
0.0
 11
198.9170335516485
 21
-557.291396420668
 31
0.0
  0
LINE
  5
15711
  8
01
 10
198.9170335516485
 20
-557.291396420668
 30
0.0
 11
199.0425513365924
 21
-557.5736941865496
 31
0.0
  0
LINE
  5
15712
  8
01
 10
199.0425513365924
 20
-557.5736941865496
 30
0.0
 11
199.175205709166
 21
-557.8475798941206
 31
0.0
  0
LINE
  5
15713
  8
01
 10
199.175205709166
 20
-557.8475798941206
 30
0.0
 11
199.3150464294965
 21
-558.1128957806156
 31
0.0
  0
LINE
  5
15714
  8
01
 10
199.3150464294965
 20
-558.1128957806156
 30
0.0
 11
199.3876772201104
 21
-558.2422907400967
 31
0.0
  0
LINE
  5
15715
  8
01
 10
199.3876772201104
 20
-558.2422907400967
 30
0.0
 11
199.4621232577113
 21
-558.3694840832729
 31
0.0
  0
LINE
  5
15716
  8
01
 10
199.4621232577113
 20
-558.3694840832729
 30
0.0
 11
199.538390762315
 21
-558.4944560897982
 31
0.0
  0
LINE
  5
15717
  8
01
 10
199.538390762315
 20
-558.4944560897982
 30
0.0
 11
199.6164859539374
 21
-558.6171870393271
 31
0.0
  0
LINE
  5
15718
  8
01
 10
199.6164859539374
 20
-558.6171870393271
 30
0.0
 11
199.6964150525946
 21
-558.7376572115143
 31
0.0
  0
LINE
  5
15719
  8
01
 10
199.6964150525946
 20
-558.7376572115143
 30
0.0
 11
199.7781842783024
 21
-558.8558468860153
 31
0.0
  0
LINE
  5
1571A
  8
01
 10
199.7781842783024
 20
-558.8558468860153
 30
0.0
 11
199.861799851077
 21
-558.9717363424832
 31
0.0
  0
LINE
  5
1571B
  8
01
 10
199.861799851077
 20
-558.9717363424832
 30
0.0
 11
199.9472679909336
 21
-559.0853058605724
 31
0.0
  0
LINE
  5
1571C
  8
01
 10
199.9472679909336
 20
-559.0853058605724
 30
0.0
 11
200.0345949178889
 21
-559.1965357199394
 31
0.0
  0
LINE
  5
1571D
  8
01
 10
200.0345949178889
 20
-559.1965357199394
 30
0.0
 11
200.1237868519584
 21
-559.3054062002363
 31
0.0
  0
LINE
  5
1571E
  8
01
 10
200.1237868519584
 20
-559.3054062002363
 30
0.0
 11
200.214850013158
 21
-559.4118975811195
 31
0.0
  0
LINE
  5
1571F
  8
01
 10
200.214850013158
 20
-559.4118975811195
 30
0.0
 11
200.3077906215037
 21
-559.5159901422419
 31
0.0
  0
LINE
  5
15720
  8
01
 10
200.3077906215037
 20
-559.5159901422419
 30
0.0
 11
200.4026148970113
 21
-559.6176641632599
 31
0.0
  0
LINE
  5
15721
  8
01
 10
200.4026148970113
 20
-559.6176641632599
 30
0.0
 11
200.4993290596969
 21
-559.7168999238263
 31
0.0
  0
LINE
  5
15722
  8
01
 10
200.4993290596969
 20
-559.7168999238263
 30
0.0
 11
200.5979393295765
 21
-559.8136777035968
 31
0.0
  0
LINE
  5
15723
  8
01
 10
200.5979393295765
 20
-559.8136777035968
 30
0.0
 11
200.6984519266657
 21
-559.9079777822251
 31
0.0
  0
LINE
  5
15724
  8
01
 10
200.6984519266657
 20
-559.9079777822251
 30
0.0
 11
200.8008730709805
 21
-559.9997804393658
 31
0.0
  0
LINE
  5
15725
  8
01
 10
200.8008730709805
 20
-559.9997804393658
 30
0.0
 11
200.9052089825368
 21
-560.0890659546737
 31
0.0
  0
LINE
  5
15726
  8
01
 10
200.9052089825368
 20
-560.0890659546737
 30
0.0
 11
201.0114658813507
 21
-560.1758146078043
 31
0.0
  0
LINE
  5
15727
  8
01
 10
201.0114658813507
 20
-560.1758146078043
 30
0.0
 11
201.1196499874379
 21
-560.2600066784105
 31
0.0
  0
LINE
  5
15728
  8
01
 10
201.1196499874379
 20
-560.2600066784105
 30
0.0
 11
201.2297675208147
 21
-560.3416224461469
 31
0.0
  0
LINE
  5
15729
  8
01
 10
201.2297675208147
 20
-560.3416224461469
 30
0.0
 11
201.3418247014963
 21
-560.420642190669
 31
0.0
  0
LINE
  5
1572A
  8
01
 10
201.3418247014963
 20
-560.420642190669
 30
0.0
 11
201.4558277494993
 21
-560.4970461916307
 31
0.0
  0
LINE
  5
1572B
  8
01
 10
201.4558277494993
 20
-560.4970461916307
 30
0.0
 11
201.5717828848392
 21
-560.5708147286875
 31
0.0
  0
LINE
  5
1572C
  8
01
 10
201.5717828848392
 20
-560.5708147286875
 30
0.0
 11
201.6896963275321
 21
-560.6419280814923
 31
0.0
  0
LINE
  5
1572D
  8
01
 10
201.6896963275321
 20
-560.6419280814923
 30
0.0
 11
201.8095742975938
 21
-560.7103665297007
 31
0.0
  0
LINE
  5
1572E
  8
01
 10
201.8095742975938
 20
-560.7103665297007
 30
0.0
 11
201.9314230150403
 21
-560.7761103529672
 31
0.0
  0
LINE
  5
1572F
  8
01
 10
201.9314230150403
 20
-560.7761103529672
 30
0.0
 11
202.0552486998874
 21
-560.8391398309457
 31
0.0
  0
LINE
  5
15730
  8
01
 10
202.0552486998874
 20
-560.8391398309457
 30
0.0
 11
202.1810575721513
 21
-560.8994352432917
 31
0.0
  0
LINE
  5
15731
  8
01
 10
202.1810575721513
 20
-560.8994352432917
 30
0.0
 11
202.3088558518475
 21
-560.956976869659
 31
0.0
  0
LINE
  5
15732
  8
01
 10
202.3088558518475
 20
-560.956976869659
 30
0.0
 11
202.4386497589921
 21
-561.0117449897014
 31
0.0
  0
LINE
  5
15733
  8
01
 10
202.4386497589921
 20
-561.0117449897014
 30
0.0
 11
202.5704455136013
 21
-561.0637198830752
 31
0.0
  0
LINE
  5
15734
  8
01
 10
202.5704455136013
 20
-561.0637198830752
 30
0.0
 11
202.7042493356905
 21
-561.1128818294335
 31
0.0
  0
LINE
  5
15735
  8
01
 10
202.7042493356905
 20
-561.1128818294335
 30
0.0
 11
202.840067445276
 21
-561.1592111084317
 31
0.0
  0
LINE
  5
15736
  8
01
 10
202.840067445276
 20
-561.1592111084317
 30
0.0
 11
202.9779060623734
 21
-561.2026879997236
 31
0.0
  0
LINE
  5
15737
  8
01
 10
202.9779060623734
 20
-561.2026879997236
 30
0.0
 11
203.1177714069988
 21
-561.2432927829648
 31
0.0
  0
LINE
  5
15738
  8
01
 10
203.1177714069988
 20
-561.2432927829648
 30
0.0
 11
203.2596696991682
 21
-561.2810057378081
 31
0.0
  0
LINE
  5
15739
  8
01
 10
203.2596696991682
 20
-561.2810057378081
 30
0.0
 11
203.4036071588973
 21
-561.31580714391
 31
0.0
  0
LINE
  5
1573A
  8
01
 10
203.4036071588973
 20
-561.31580714391
 30
0.0
 11
203.5495900062022
 21
-561.3476772809233
 31
0.0
  0
LINE
  5
1573B
  8
01
 10
203.5495900062022
 20
-561.3476772809233
 30
0.0
 11
203.6976244610987
 21
-561.3765964285037
 31
0.0
  0
LINE
  5
1573C
  8
01
 10
203.6976244610987
 20
-561.3765964285037
 30
0.0
 11
203.8477167436029
 21
-561.4025448663049
 31
0.0
  0
LINE
  5
1573D
  8
01
 10
203.8477167436029
 20
-561.4025448663049
 30
0.0
 11
204.4990569211504
 21
-561.5008219000918
 31
0.0
  0
LINE
  5
1573F
  8
01
 10
369.3947518042
 20
-561.9462327490526
 30
0.0
 11
369.3947517822862
 21
-561.9015820009788
 31
0.0
  0
LINE
  5
15740
  8
01
 10
309.3947519633377
 20
-561.9015820009761
 30
0.0
 11
309.3947519414241
 21
-561.946232749058
 31
0.0
  0
LINE
  5
15741
  8
01
 10
310.006378004618
 20
-561.7008221058902
 30
0.0
 11
309.8947519087185
 21
-561.7008220936939
 31
0.0
  0
LINE
  5
15742
  8
01
 10
311.694751872812
 20
-561.7008218610488
 30
0.0
 11
311.1493407870505
 21
-561.7008219064762
 31
0.0
  0
LINE
  5
15743
  8
01
 10
367.0947518728121
 20
-561.7008218610488
 30
0.0
 11
311.694751872812
 21
-561.7008218610488
 31
0.0
  0
LINE
  5
15744
  8
01
 10
367.6401629585632
 20
-561.7008219064762
 30
0.0
 11
367.0947518728121
 21
-561.7008218610488
 31
0.0
  0
LINE
  5
15745
  8
01
 10
368.8947519086939
 20
-561.7008220936939
 30
0.0
 11
368.7831253910633
 21
-561.7008221058902
 31
0.0
  0
LINE
  5
15746
  8
01
 10
369.3947518728121
 20
-561.5015832900406
 30
0.0
 11
369.3947518728121
 21
-561.9015820003285
 31
0.0
  0
LINE
  5
15747
  8
01
 10
369.3778626772871
 20
-561.9015832900411
 30
0.0
 11
369.3935232115041
 21
-561.9015832900411
 31
0.0
  0
LINE
  5
15748
  8
01
 10
309.3959805361576
 20
-561.9015832900411
 30
0.0
 11
309.4116410683371
 21
-561.9015832900411
 31
0.0
  0
LINE
  5
15749
  8
01
 10
309.3947518728121
 20
-561.5015832900406
 30
0.0
 11
309.3947518728121
 21
-561.9015832900411
 31
0.0
  0
LINE
  5
1574A
  8
1DIM
 10
368.3947518728121
 20
-574.7591564240245
 30
0.0
 11
367.694751872812
 21
-574.7591564240245
 31
0.0
  0
LINE
  5
1574B
  8
01
 10
368.3947518728121
 20
-579.7958916869691
 30
0.0
 11
367.6947557920976
 21
-579.7958916869691
 31
0.0
  0
LINE
  5
1574D
  8
1DIM
 10
310.3947518728121
 20
-574.7591564240245
 30
0.0
 11
309.3947518728121
 21
-574.7591564241127
 31
0.0
  0
LINE
  5
1574E
  8
1DIM
 10
369.3947518728121
 20
-574.7591564241127
 30
0.0
 11
368.3947518728121
 21
-574.7591564240245
 31
0.0
  0
ARC
  5
15750
  8
01
 10
310.3947518699374
 20
-578.795891689844
 30
0.0
 40
0.9999999971253004
 50
180.0000000106305
 51
270.0000001647073
  0
ARC
  5
15751
  8
01
 10
368.3947518756866
 20
-578.7958916898431
 30
0.0
 40
0.9999999971255704
 50
270.0000018931639
 51
359.9999999893174
  0
LINE
  5
15752
  8
01
 10
309.3947518728121
 20
-574.7591564241127
 30
0.0
 11
309.3947518728198
 21
-562.0008218115552
 31
0.0
  0
LINE
  5
15753
  8
01
 10
309.3947518728121
 20
-578.7951998930537
 30
0.0
 11
309.3947518728121
 21
-574.7591564241127
 31
0.0
  0
LINE
  5
15754
  8
01
 10
369.3947518728121
 20
-575.8816686755279
 30
0.0
 11
369.3947518728121
 21
-578.7951998930537
 31
0.0
  0
LINE
  5
15755
  8
01
 10
369.3947518728007
 20
-562.0008216260655
 30
0.0
 11
369.3947518728121
 21
-574.7591564241127
 31
0.0
  0
LINE
  5
15757
  8
1DIM
 10
311.0947518728119
 20
-574.7591564240245
 30
0.0
 11
310.3947518728121
 21
-574.7591564240245
 31
0.0
  0
LINE
  5
15759
  8
01
 10
311.0947518728119
 20
-579.7958916869691
 30
0.0
 11
310.3947519087062
 21
-579.7958916869691
 31
0.0
  0
LINE
  5
1575B
  8
1DIM
 10
367.3947518728064
 20
-574.759156426632
 30
0.0
 11
367.0947518727867
 21
-574.7591564240199
 31
0.0
  0
LINE
  5
1575C
  8
1DIM
 10
311.3947518728176
 20
-574.759156426632
 30
0.0
 11
311.694751872812
 21
-574.7591564240199
 31
0.0
  0
LINE
  5
1575E
  8
01
 10
311.3947518728121
 20
-562.0008221099458
 30
0.0
 11
311.3947518728121
 21
-574.7591564240245
 31
0.0
  0
LINE
  5
15760
  8
01
 10
367.3947518728121
 20
-562.0008221099458
 30
0.0
 11
367.3947518728121
 21
-574.7591564240245
 31
0.0
  0
LINE
  5
15767
  8
1DIM
 10
311.0947518728119
 20
-574.7591564240245
 30
0.0
 11
311.3947518728121
 21
-574.7591564240245
 31
0.0
  0
ARC
  5
15769
  8
01
 10
311.0947518728117
 20
-579.4958916869689
 30
0.0
 40
0.3000000000003382
 50
312.6269861057935
 51
0.0
  0
LINE
  5
1576A
  8
01
 10
311.3947518728121
 20
-578.0958916867528
 30
0.0
 11
311.3947518728121
 21
-579.4958916869689
 31
0.0
  0
LINE
  5
1576B
  8
01
 10
311.3947518728121
 20
-574.7591564240245
 30
0.0
 11
311.3947518728121
 21
-578.0368114263699
 31
0.0
  0
LINE
  5
1576C
  8
1DIM
 10
367.694751872812
 20
-574.7591564240245
 30
0.0
 11
367.3947518728121
 21
-574.7591564240245
 31
0.0
  0
ARC
  5
1576E
  8
01
 10
367.694751872812
 20
-579.4958916869689
 30
0.0
 40
0.3000000000000114
 50
180.0
 51
227.3730138186235
  0
LINE
  5
1576F
  8
01
 10
367.3947518728121
 20
-578.0958916867528
 30
0.0
 11
367.3947518728121
 21
-579.4958916869689
 31
0.0
  0
LINE
  5
15770
  8
01
 10
367.3947518728121
 20
-574.7591564240245
 30
0.0
 11
367.3947518728121
 21
-578.0368114263699
 31
0.0
  0
ARC
  5
15775
  8
01
 10
311.0947518825321
 20
-562.0008221116138
 30
0.0
 40
0.2999999902799857
 50
0.0000003185497009
 51
90.00000185642615
  0
ARC
  5
1577A
  8
01
 10
367.6947518630921
 20
-562.0008221116129
 30
0.0
 40
0.2999999902799004
 50
89.99999814361293
 51
179.9999996816066
  0
LINE
  5
1577E
  8
1DIM
 10
311.694751872812
 20
-574.7591564240199
 30
0.0
 11
367.0947518727867
 21
-574.7591564240199
 31
0.0
  0
LINE
  5
15783
  8
01
 10
309.394751908706
 20
-554.5008219000918
 30
0.0
 11
309.3947519087063
 21
-528.5008219000179
 31
0.0
  0
LINE
  5
15787
  8
01
 10
369.394751908706
 20
-554.5008219000918
 30
0.0
 11
369.3947519087064
 21
-528.500821900061
 31
0.0
  0
LINE
  5
1578C
  8
01
 10
367.640162836273
 20
-579.7951998930537
 30
0.0
 11
311.149340779979
 21
-579.7951998930537
 31
0.0
  0
ARC
  5
15798
  8
01
 10
342.3942283221147
 20
-400.6531667906404
 30
0.0
 40
0.4994816069481559
 50
180.2612937758196
 51
270.0600609194627
  0
ARC
  5
15799
  8
01
 10
336.3952754958093
 20
-400.6531667912043
 30
0.0
 40
0.4994816069406965
 50
269.9399390906075
 51
359.7387165298629
  0
LINE
  5
1579A
  8
01
 10
462.3947519091475
 20
-401.1549249544898
 30
0.0
 11
342.3947519089186
 21
-401.1549249656312
 31
0.0
  0
LINE
  5
1579B
  8
01
 10
369.3947519087283
 20
-393.1526159310981
 30
0.0
 11
462.3946953171064
 21
-393.1535835532443
 31
0.0
  0
ARC
  5
1579C
  8
01
 10
216.3935479296608
 20
-480.7862890658346
 30
0.0
 40
10.6289562201105
 50
179.9937306711092
 51
270.0062661224586
  0
ARC
  5
1579D
  8
01
 10
462.3968622207008
 20
-480.7871953981578
 30
0.0
 40
18.62939131756706
 50
269.9935096112683
 51
0.0064903868036936
  0
LINE
  5
1579E
  8
01
 10
462.3946953035795
 20
-499.4165866190399
 30
0.0
 11
216.3948084852814
 21
-499.4165865961988
 31
0.0
  0
LINE
  5
1579F
  8
01
 10
205.7645918061119
 20
-411.7850850866037
 30
0.0
 11
205.7645917997052
 21
-480.7850850864372
 31
0.0
  0
LINE
  5
157A0
  8
01
 10
481.0262534125029
 20
-411.7851408518566
 30
0.0
 11
481.0262534189098
 21
-480.7850293205722
 31
0.0
  0
ARC
  5
157A1
  8
01
 10
216.3926415966266
 20
-411.7829747742528
 30
0.0
 40
18.62939131756669
 50
89.99350961126822
 51
180.0064903868037
  0
ARC
  5
157A2
  8
01
 10
462.3959558876654
 20
-411.7838811065769
 30
0.0
 40
10.62895622011185
 50
359.9937306712134
 51
90.00626611869357
  0
LINE
  5
157A3
  8
01
 10
336.3947519094902
 20
-401.1549249661887
 30
0.0
 11
216.3947519089788
 21
-401.1549249773309
 31
0.0
  0
ARC
  5
157A4
  8
01
 10
216.3926415966268
 20
-480.7871953981578
 30
0.0
 40
18.62939131756686
 50
179.9935096131963
 51
270.0064903887318
  0
ARC
  5
157A5
  8
01
 10
462.3959558876654
 20
-480.7862890658337
 30
0.0
 40
10.6289562201117
 50
269.9937338813064
 51
0.0062693289429612
  0
LINE
  5
157A6
  8
01
 10
216.3947519089788
 20
-491.4152451950797
 30
0.0
 11
462.3947519091475
 21
-491.4152452179217
 31
0.0
  0
LINE
  5
157A7
  8
01
 10
197.7632503985865
 20
-480.7850293205722
 30
0.0
 11
197.7632504049932
 21
-411.7851408518566
 31
0.0
  0
LINE
  5
157A8
  8
01
 10
473.0249120177912
 20
-480.7850850864372
 30
0.0
 11
473.0249120113842
 21
-411.7850850866037
 31
0.0
  0
ARC
  5
157A9
  8
01
 10
216.3935479296608
 20
-411.783881106576
 30
0.0
 40
10.62895622011022
 50
89.99373387745025
 51
180.0062693288908
  0
ARC
  5
157AA
  8
01
 10
462.3968622207005
 20
-411.7829747742528
 30
0.0
 40
18.62939131756715
 50
359.9935096131963
 51
90.00649038873176
  0
LINE
  5
157AB
  8
01
 10
216.394808500916
 20
-393.1535835760862
 30
0.0
 11
309.3947519087285
 21
-393.1526159280404
 31
0.0
  0
LINE
  5
157AC
  8
01
 10
363.4234817277306
 20
-488.8050308895838
 30
0.0
 11
363.37565110177
 21
-488.7878720284082
 31
0.0
  0
LINE
  5
157AD
  8
01
 10
363.8825659404104
 20
-489.0785191122579
 30
0.0
 11
363.8451335012519
 21
-489.0470053916754
 31
0.0
  0
LINE
  5
157AE
  8
01
 10
364.385771819271
 20
-490.0391145635397
 30
0.0
 11
364.3819628816113
 21
-490.0093883474003
 31
0.0
  0
LINE
  5
157AF
  8
01
 10
363.8102193948318
 20
-491.3972099789537
 30
0.0
 11
364.2406806165257
 21
-490.8685812906917
 31
0.0
  0
LINE
  5
157B0
  8
01
 10
314.5488252600446
 20
-490.8685858069459
 30
0.0
 11
314.9792838635537
 21
-491.3972096555983
 31
0.0
  0
ARC
  5
157B1
  8
01
 10
315.8970736302626
 20
-490.2138223546765
 30
0.0
 40
1.503353679366481
 50
157.2257729394234
 51
179.6469075518175
  0
ARC
  5
157B2
  8
01
 10
315.8915857804341
 20
-490.2115765351075
 30
0.0
 40
1.501116571177877
 50
117.9047890824291
 51
130.9904227504659
  0
LINE
  5
157B3
  8
01
 10
315.2327067950755
 20
-488.8627277333401
 30
0.0
 11
315.2059438342028
 21
-488.8761745184722
 31
0.0
  0
ARC
  5
157B4
  8
01
 10
337.3949076266858
 20
-400.6587959007004
 30
0.0
 40
0.5001557158598733
 50
179.9889141899345
 51
269.9821615502403
  0
LINE
  5
157B5
  8
01
 10
336.3947519137841
 20
-394.8990111711139
 30
0.0
 11
310.3947519089897
 21
-394.8990764536613
 31
0.0
  0
ARC
  5
157B6
  8
01
 10
310.359007955517
 20
-393.9321229705249
 30
0.0
 40
0.9676138446746716
 50
184.7775102034598
 51
272.1169103344593
  0
LINE
  5
157B7
  8
01
 10
336.8947519087085
 20
-397.5161309369898
 30
0.0
 11
336.8947519087249
 21
-397.322155859136
 31
0.0
  0
ARC
  5
157B8
  8
01
 10
335.9639447580348
 20
-395.7419977913162
 30
0.0
 40
0.9469512167261702
 50
349.405042949628
 51
62.9388471004298
  0
LINE
  5
157B9
  8
01
 10
341.8947519091846
 20
-397.4497450662168
 30
0.0
 11
341.8947519091846
 21
-397.5100053325971
 31
0.0
  0
LINE
  5
157BA
  8
01
 10
368.39475190899
 20
-394.8990764548473
 30
0.0
 11
342.3947519143144
 21
-394.8990399084225
 31
0.0
  0
ARC
  5
157BB
  8
01
 10
368.4304962735007
 20
-393.9321232663153
 30
0.0
 40
0.9676134100020507
 50
267.8833096598236
 51
355.2225051226653
  0
ARC
  5
157BC
  8
01
 10
341.3945972196987
 20
-400.6588171920769
 30
0.0
 40
0.5001344241572887
 50
270.0177213186173
 51
0.0139291390631112
  0
ARC
  5
157BD
  8
01
 10
342.7961817257956
 20
-395.7189593669739
 30
0.0
 40
0.913204670076403
 50
116.0773176141985
 51
189.3679351091054
  0
LINE
  5
157BE
  8
01
 10
341.3947519094181
 20
-401.1566852734015
 30
0.0
 11
337.3947519083222
 21
-401.1566852734015
 31
0.0
  0
LINE
  5
157C0
  8
01
 10
341.894751909191
 20
-397.7871582586524
 30
0.0
 11
341.8947519091626
 21
-400.6554446369976
 31
0.0
  0
LINE
  5
157C4
  8
01
 10
341.8947519091912
 20
-397.7845042606643
 30
0.0
 11
341.8947519091932
 21
-397.5599922782187
 31
0.0
  0
LINE
  5
157CB
  8
01
 10
336.894751909191
 20
-397.7871582609007
 30
0.0
 11
336.8947519091637
 21
-400.6587959006958
 31
0.0
  0
LINE
  5
157CF
  8
01
 10
336.894751909191
 20
-397.7845042596548
 30
0.0
 11
336.8947519091932
 21
-397.5599922787753
 31
0.0
  0
LINE
  5
157D7
  8
01
 10
336.9057360996084
 20
-397.5599958033123
 30
0.0
 11
462.394709286539
 21
-397.5599920005118
 31
0.0
  0
LINE
  5
157D8
  8
01
 10
341.8947519091856
 20
-396.073612047291
 30
0.0
 11
462.3948060453524
 21
-396.0736118459865
 31
0.0
  0
LINE
  5
157D9
  8
01
 10
336.8947519091935
 20
-397.0898351301441
 30
0.0
 11
336.8947519091932
 21
-397.322155859136
 31
0.0
  0
ARC
  5
15800
  8
01
 10
216.3844933753153
 20
-480.7953436250057
 30
0.0
 40
14.21483826308048
 50
179.9584815433523
 51
270.0415208937516
  0
ARC
  5
15801
  8
01
 10
216.3838103319183
 20
-480.7960266667117
 30
0.0
 40
15.70053541831234
 50
179.9602657458346
 51
270.0397314106279
  0
ARC
  5
15802
  8
01
 10
462.4056934715882
 20
-480.7960266690973
 30
0.0
 40
15.70053543224196
 50
269.9602686402316
 51
0.0397342629199231
  0
ARC
  5
15803
  8
01
 10
462.405010429736
 20
-480.7953436258224
 30
0.0
 40
14.21483827702395
 50
269.9584791561049
 51
0.0415184599305932
  0
LINE
  5
15805
  8
01
 10
462.3948060453752
 20
-496.4965583264341
 30
0.0
 11
216.3946977720593
 21
-496.4965583101095
 31
0.0
  0
LINE
  5
15807
  8
01
 10
462.394709286539
 20
-495.0101781703536
 30
0.0
 11
216.394794530873
 21
-495.0101781555843
 31
0.0
  0
LINE
  5
15810
  8
01
 10
202.1696588442985
 20
-480.7850430740784
 30
0.0
 11
202.1696587993151
 21
-411.7851270983322
 31
0.0
  0
LINE
  5
15811
  8
01
 10
200.6832786890611
 20
-480.7851384473681
 30
0.0
 11
200.6832787448077
 21
-411.7850317250643
 31
0.0
  0
LINE
  5
15812
  8
01
 10
478.106225072602
 20
-411.7850317250416
 30
0.0
 11
478.1062251283731
 21
-480.7851384473463
 31
0.0
  0
LINE
  5
15814
  8
01
 10
476.6198450141947
 20
-411.7851270983322
 30
0.0
 11
476.6198449746958
 21
-480.7850430740784
 31
0.0
  0
ARC
  5
15818
  8
01
 10
216.3838103400938
 20
-411.7741434581569
 30
0.0
 40
15.70053537077426
 50
89.96026861916609
 51
180.0397344278487
  0
ARC
  5
1581A
  8
01
 10
216.3844933673995
 20
-411.7748265859848
 30
0.0
 40
14.21483830012013
 50
89.95847907444822
 51
180.0415183010465
  0
ARC
  5
1582A
  8
01
 10
462.4050104342136
 20
-411.7748265800358
 30
0.0
 40
14.21483831202098
 50
359.9584816749828
 51
90.04152086183402
  0
ARC
  5
1582C
  8
01
 10
462.4056934634052
 20
-411.7741434557731
 30
0.0
 40
15.70053538468634
 50
359.960265563553
 51
90.03973133010462
  0
LINE
  5
1582F
  8
01
 10
216.3946977720368
 20
-396.073611862292
 30
0.0
 11
336.8947519088287
 21
-396.0736118723228
 31
0.0
  0
ARC
  5
15833
  8
01
 10
362.8979290972297
 20
-490.1828063089308
 30
0.0
 40
1.474469373024714
 50
71.09542471328538
 51
90.1225183203788
  0
ARC
  5
15834
  8
01
 10
362.8874802361006
 20
-490.2273993876399
 30
0.0
 40
1.520009790088048
 50
50.94759141549831
 51
69.35171993997068
  0
ARC
  5
15835
  8
01
 10
362.8754123456024
 20
-490.2181935799838
 30
0.0
 40
1.520951722673212
 50
7.890823506694606
 51
48.398399300182
  0
ARC
  5
15836
  8
01
 10
362.901887083163
 20
-490.2069749732138
 30
0.0
 40
1.49334893016525
 50
333.7023410329089
 51
6.453992037680183
  0
LINE
  5
15837
  8
01
 10
363.786138394418
 20
-491.4152452054898
 30
0.0
 11
363.8102193978232
 21
-491.3972099766663
 31
0.0
  0
LINE
  5
15838
  8
01
 10
315.8947518369184
 20
-488.7083404268672
 30
0.0
 11
362.8947518369184
 21
-488.7083404268672
 31
0.0
  0
LINE
  5
1583D
  8
01
 10
314.9792838605522
 20
-491.3972096533018
 30
0.0
 11
315.0033652850989
 21
-491.4152452042101
 31
0.0
  0
ARC
  5
1583E
  8
01
 10
315.9065800516362
 20
-490.2013349192914
 30
0.0
 40
1.512852213918245
 50
180.2653244950237
 51
206.1712074925694
  0
ARC
  5
1583F
  8
01
 10
315.8945852269846
 20
-490.2037195251153
 30
0.0
 40
1.497171760065617
 50
131.2742948151276
 51
157.5453972818989
  0
LINE
  5
15840
  8
01
 10
315.2059438260319
 20
-488.8761744950837
 30
0.0
 11
315.1890576745329
 21
-488.8849999724091
 31
0.0
  0
ARC
  5
15841
  8
01
 10
315.8943478839938
 20
-490.2032956090627
 30
0.0
 40
1.494955236772356
 50
89.98451806621559
 51
116.2687738437484
  0
LINE
  5
15842
  8
01
 10
309.394751908706
 20
-390.5420702036993
 30
0.0
 11
310.394751908706
 21
-390.5420702036993
 31
0.0
  0
LINE
  5
15843
  8
01
 10
336.8947534998465
 20
-400.636269425014
 30
0.0
 11
336.8947536663186
 21
-400.6582649727509
 31
0.0
  0
LINE
  5
15844
  8
01
 10
336.8947519153623
 20
-397.8256247378388
 30
0.0
 11
336.8947519246653
 21
-397.880934213523
 31
0.0
  0
LINE
  5
15847
  8
01
 10
336.8947519087051
 20
-397.557817750557
 30
0.0
 11
336.8947519088417
 21
-395.9162162227624
 31
0.0
  0
LINE
  5
1584D
  8
01
 10
369.3947519087358
 20
-394.0110555960675
 30
0.0
 11
369.394751908706
 21
-390.5420702036993
 31
0.0
  0
LINE
  5
1584E
  8
01
 10
368.394751908706
 20
-390.5420702036993
 30
0.0
 11
369.394751908706
 21
-390.5420702036993
 31
0.0
  0
LINE
  5
1584F
  8
01
 10
341.8947519091857
 20
-395.9162162228079
 30
0.0
 11
341.8947519091846
 21
-397.557888337654
 31
0.0
  0
LINE
  5
15850
  8
1DIM
 10
368.3947519089315
 20
-394.8892211398145
 30
0.0
 11
368.3947519089668
 21
-394.8971647065757
 31
0.0
  0
LINE
  5
15851
  8
1DIM
 10
368.3947519089668
 20
-394.8971647065757
 30
0.0
 11
368.3947519089822
 21
-394.8988441676595
 31
0.0
  0
LINE
  5
15852
  8
1DIM
 10
368.3947519089822
 20
-394.8988441676595
 30
0.0
 11
368.3947519089895
 21
-394.8990757356189
 31
0.0
  0
LINE
  5
15853
  8
1DIM
 10
368.3947519089895
 20
-394.8990757356189
 30
0.0
 11
368.3947519089913
 21
-394.8990688117631
 31
0.0
  0
LINE
  5
15854
  8
1DIM
 10
368.3947519089913
 20
-394.8990688117631
 30
0.0
 11
368.3947519089932
 21
-394.8990357143414
 31
0.0
  0
LINE
  5
15855
  8
1DIM
 10
368.3947519089932
 20
-394.8990357143414
 30
0.0
 11
368.3947519089966
 21
-394.8988905326116
 31
0.0
  0
LINE
  5
15856
  8
1DIM
 10
368.3947519089966
 20
-394.8988905326116
 30
0.0
 11
368.3947519090354
 21
-394.8817313625771
 31
0.0
  0
LINE
  5
1585A
  8
01
 10
341.8947518932096
 20
-397.8808306036137
 30
0.0
 11
341.894751902501
 21
-397.8256247387937
 31
0.0
  0
LINE
  5
15865
  8
01
 10
310.394751908706
 20
-390.5420702036993
 30
0.0
 11
368.394751908706
 21
-390.5420702036993
 31
0.0
  0
LINE
  5
1586F
  8
01
 10
309.3947519087358
 20
-394.0110555943731
 30
0.0
 11
309.394751908706
 21
-390.5420702036993
 31
0.0
  0
LINE
  5
1587B
  8
01
 10
626.9584292059658
 20
-519.509554846654
 30
0.0
 11
627.02026714524
 21
-519.7097485782376
 31
0.0
  0
ARC
  5
15880
  8
01
 10
524.0639908744533
 20
-527.5014825791002
 30
0.0
 40
1.000044010478673
 50
235.6721281404621
 51
270.0000705769452
  0
ARC
  5
15882
  8
01
 10
624.4876081181998
 20
-527.5013413219247
 30
0.0
 40
1.000185268555825
 50
270.0024334476221
 51
304.3273826019837
  0
LINE
  5
15884
  8
01
 10
523.4895769694494
 20
-528.3198429832471
 30
0.0
 11
523.4168601334713
 21
-528.2674509519563
 31
0.0
  0
LINE
  5
15885
  8
01
 10
523.4168601334713
 20
-528.2674509519563
 30
0.0
 11
523.3452884445164
 21
-528.213239117719
 31
0.0
  0
LINE
  5
15886
  8
01
 10
523.3452884445164
 20
-528.213239117719
 30
0.0
 11
523.2748619025847
 21
-528.157236366297
 31
0.0
  0
LINE
  5
15887
  8
01
 10
523.2748619025847
 20
-528.157236366297
 30
0.0
 11
523.2055805076757
 21
-528.0994715834511
 31
0.0
  0
LINE
  5
15888
  8
01
 10
523.2055805076757
 20
-528.0994715834511
 30
0.0
 11
523.1374442597903
 21
-528.0399736549423
 31
0.0
  0
LINE
  5
15889
  8
01
 10
523.1374442597903
 20
-528.0399736549423
 30
0.0
 11
523.0704531589281
 21
-527.9787714665306
 31
0.0
  0
LINE
  5
1588A
  8
01
 10
523.0704531589281
 20
-527.9787714665306
 30
0.0
 11
523.0046072050891
 21
-527.9158939039787
 31
0.0
  0
LINE
  5
1588B
  8
01
 10
523.0046072050891
 20
-527.9158939039787
 30
0.0
 11
522.9399063982733
 21
-527.8513698530467
 31
0.0
  0
LINE
  5
1588C
  8
01
 10
522.9399063982733
 20
-527.8513698530467
 30
0.0
 11
522.8763507384806
 21
-527.7852281994963
 31
0.0
  0
LINE
  5
1588D
  8
01
 10
522.8763507384806
 20
-527.7852281994963
 30
0.0
 11
522.8139402257116
 21
-527.7174978290875
 31
0.0
  0
LINE
  5
1588E
  8
01
 10
522.8139402257116
 20
-527.7174978290875
 30
0.0
 11
522.7526748599653
 21
-527.6482076275822
 31
0.0
  0
LINE
  5
1588F
  8
01
 10
522.7526748599653
 20
-527.6482076275822
 30
0.0
 11
522.6925546412422
 21
-527.5773864807413
 31
0.0
  0
LINE
  5
15890
  8
01
 10
522.6925546412422
 20
-527.5773864807413
 30
0.0
 11
522.6335795695427
 21
-527.5050632743266
 31
0.0
  0
LINE
  5
15891
  8
01
 10
522.6335795695427
 20
-527.5050632743266
 30
0.0
 11
522.5757496448659
 21
-527.4312668940972
 31
0.0
  0
LINE
  5
15892
  8
01
 10
522.5757496448659
 20
-527.4312668940972
 30
0.0
 11
522.5190648672128
 21
-527.3560262258159
 31
0.0
  0
LINE
  5
15893
  8
01
 10
522.5190648672128
 20
-527.3560262258159
 30
0.0
 11
522.4635252365824
 21
-527.2793701552425
 31
0.0
  0
LINE
  5
15894
  8
01
 10
522.4635252365824
 20
-527.2793701552425
 30
0.0
 11
522.4091307529757
 21
-527.201327568139
 31
0.0
  0
LINE
  5
15895
  8
01
 10
522.4091307529757
 20
-527.201327568139
 30
0.0
 11
522.3558814163921
 21
-527.1219273502663
 31
0.0
  0
LINE
  5
15896
  8
01
 10
522.3558814163921
 20
-527.1219273502663
 30
0.0
 11
522.2528181842945
 21
-526.9591695652568
 31
0.0
  0
LINE
  5
15897
  8
01
 10
522.2528181842945
 20
-526.9591695652568
 30
0.0
 11
522.15433554029
 21
-526.7913278863032
 31
0.0
  0
LINE
  5
15898
  8
01
 10
522.15433554029
 20
-526.7913278863032
 30
0.0
 11
522.0604334843783
 21
-526.6186333994917
 31
0.0
  0
LINE
  5
15899
  8
01
 10
522.0604334843783
 20
-526.6186333994917
 30
0.0
 11
521.9711120165593
 21
-526.4413171909134
 31
0.0
  0
LINE
  5
1589A
  8
01
 10
521.9711120165593
 20
-526.4413171909134
 30
0.0
 11
521.8863711368335
 21
-526.2596103466547
 31
0.0
  0
LINE
  5
1589B
  8
01
 10
521.8863711368335
 20
-526.2596103466547
 30
0.0
 11
521.8062108452009
 21
-526.0737439528054
 31
0.0
  0
LINE
  5
1589C
  8
01
 10
521.8062108452009
 20
-526.0737439528054
 30
0.0
 11
521.730631141661
 21
-525.8839490954531
 31
0.0
  0
LINE
  5
1589D
  8
01
 10
521.730631141661
 20
-525.8839490954531
 30
0.0
 11
521.6596320262142
 21
-525.6904568606858
 31
0.0
  0
LINE
  5
1589E
  8
01
 10
521.6596320262142
 20
-525.6904568606858
 30
0.0
 11
521.5932134988607
 21
-525.4934983345927
 31
0.0
  0
LINE
  5
1589F
  8
01
 10
521.5932134988607
 20
-525.4934983345927
 30
0.0
 11
521.5313755595998
 21
-525.293304603262
 31
0.0
  0
LINE
  5
158A0
  8
01
 10
521.5313755595998
 20
-525.293304603262
 30
0.0
 11
521.4741182084322
 21
-525.0901067527827
 31
0.0
  0
LINE
  5
158A1
  8
01
 10
521.4741182084322
 20
-525.0901067527827
 30
0.0
 11
521.4214414453577
 21
-524.8841358692423
 31
0.0
  0
LINE
  5
158A2
  8
01
 10
521.4214414453577
 20
-524.8841358692423
 30
0.0
 11
521.3733452703764
 21
-524.6756230387289
 31
0.0
  0
LINE
  5
158A3
  8
01
 10
521.3733452703764
 20
-524.6756230387289
 30
0.0
 11
521.3298296834882
 21
-524.4647993473316
 31
0.0
  0
LINE
  5
158A4
  8
01
 10
521.3298296834882
 20
-524.4647993473316
 30
0.0
 11
521.2908946846933
 21
-524.2518958811395
 31
0.0
  0
LINE
  5
158A5
  8
01
 10
521.2908946846933
 20
-524.2518958811395
 30
0.0
 11
521.256540273991
 21
-524.037143726239
 31
0.0
  0
LINE
  5
158A6
  8
01
 10
521.256540273991
 20
-524.037143726239
 30
0.0
 11
521.2267664513824
 21
-523.8207739687202
 31
0.0
  0
LINE
  5
158A7
  8
01
 10
521.2267664513824
 20
-523.8207739687202
 30
0.0
 11
521.2015732168666
 21
-523.6030176946713
 31
0.0
  0
LINE
  5
158A8
  8
01
 10
521.2015732168666
 20
-523.6030176946713
 30
0.0
 11
521.1809605704443
 21
-523.3841059901804
 31
0.0
  0
LINE
  5
158A9
  8
01
 10
521.1809605704443
 20
-523.3841059901804
 30
0.0
 11
521.1649285121152
 21
-523.1642699413358
 31
0.0
  0
LINE
  5
158AA
  8
01
 10
521.1649285121152
 20
-523.1642699413358
 30
0.0
 11
521.1534770418793
 21
-522.9437406342256
 31
0.0
  0
LINE
  5
158AB
  8
01
 10
521.1534770418793
 20
-522.9437406342256
 30
0.0
 11
521.1466061597366
 21
-522.722749154939
 31
0.0
  0
LINE
  5
158AC
  8
01
 10
521.1466061597366
 20
-522.722749154939
 30
0.0
 11
521.1443158656871
 21
-522.5015265895643
 31
0.0
  0
LINE
  5
158AD
  8
01
 10
521.1443158656871
 20
-522.5015265895643
 30
0.0
 11
521.1466061597321
 21
-522.2803040241295
 31
0.0
  0
LINE
  5
158AE
  8
01
 10
521.1466061597321
 20
-522.2803040241295
 30
0.0
 11
521.153477041873
 21
-522.0593125447838
 31
0.0
  0
LINE
  5
158AF
  8
01
 10
521.153477041873
 20
-522.0593125447838
 30
0.0
 11
521.1649285121093
 21
-521.8387832376154
 31
0.0
  0
LINE
  5
158B0
  8
01
 10
521.1649285121093
 20
-521.8387832376154
 30
0.0
 11
521.180960570442
 21
-521.6189471887126
 31
0.0
  0
LINE
  5
158B1
  8
01
 10
521.180960570442
 20
-521.6189471887126
 30
0.0
 11
521.2015732168702
 21
-521.4000354841644
 31
0.0
  0
LINE
  5
158B2
  8
01
 10
521.2015732168702
 20
-521.4000354841644
 30
0.0
 11
521.2267664513943
 21
-521.1822792100581
 31
0.0
  0
LINE
  5
158B3
  8
01
 10
521.2267664513943
 20
-521.1822792100581
 30
0.0
 11
521.2565402740138
 21
-520.9659094524848
 31
0.0
  0
LINE
  5
158B4
  8
01
 10
521.2565402740138
 20
-520.9659094524848
 30
0.0
 11
521.2908946847297
 21
-520.7511572975307
 31
0.0
  0
LINE
  5
158B5
  8
01
 10
521.2908946847297
 20
-520.7511572975307
 30
0.0
 11
521.3298296835414
 21
-520.5382538312858
 31
0.0
  0
LINE
  5
158B6
  8
01
 10
521.3298296835414
 20
-520.5382538312858
 30
0.0
 11
521.3733452704487
 21
-520.3274301398376
 31
0.0
  0
LINE
  5
158B7
  8
01
 10
521.3733452704487
 20
-520.3274301398376
 30
0.0
 11
521.4214414454523
 21
-520.118917309276
 31
0.0
  0
LINE
  5
158B8
  8
01
 10
521.4214414454523
 20
-520.118917309276
 30
0.0
 11
521.4741182085518
 21
-519.9129464256882
 31
0.0
  0
LINE
  5
158B9
  8
01
 10
521.4741182085518
 20
-519.9129464256882
 30
0.0
 11
521.5313755597467
 21
-519.7097485751644
 31
0.0
  0
LINE
  5
158BA
  8
01
 10
521.5313755597467
 20
-519.7097485751644
 30
0.0
 11
521.593213499038
 21
-519.5095548437919
 31
0.0
  0
LINE
  5
158BB
  8
01
 10
521.593213499038
 20
-519.5095548437919
 30
0.0
 11
521.6596320264252
 21
-519.3125963176587
 31
0.0
  0
LINE
  5
158BC
  8
01
 10
521.6596320264252
 20
-519.3125963176587
 30
0.0
 11
521.7306311419084
 21
-519.119104082856
 31
0.0
  0
LINE
  5
158BD
  8
01
 10
521.7306311419084
 20
-519.119104082856
 30
0.0
 11
521.8062108454878
 21
-518.9293092254691
 31
0.0
  0
LINE
  5
158BE
  8
01
 10
521.8062108454878
 20
-518.9293092254691
 30
0.0
 11
521.8863711371628
 21
-518.7434428315898
 31
0.0
  0
LINE
  5
158BF
  8
01
 10
521.8863711371628
 20
-518.7434428315898
 30
0.0
 11
521.9711120169341
 21
-518.5617359873038
 31
0.0
  0
LINE
  5
158C0
  8
01
 10
521.9711120169341
 20
-518.5617359873038
 30
0.0
 11
522.0604334848013
 21
-518.3844197787018
 31
0.0
  0
LINE
  5
158C1
  8
01
 10
522.0604334848013
 20
-518.3844197787018
 30
0.0
 11
522.1543355407648
 21
-518.2117252918713
 31
0.0
  0
LINE
  5
158C2
  8
01
 10
522.1543355407648
 20
-518.2117252918713
 30
0.0
 11
522.2528181848243
 21
-518.0438836129013
 31
0.0
  0
LINE
  5
158C3
  8
01
 10
522.2528181848243
 20
-518.0438836129013
 30
0.0
 11
522.3558814169796
 21
-517.8811258278799
 31
0.0
  0
LINE
  5
158C4
  8
01
 10
522.3558814169796
 20
-517.8811258278799
 30
0.0
 11
522.4091307535937
 21
-517.8017256100036
 31
0.0
  0
LINE
  5
158C5
  8
01
 10
522.4091307535937
 20
-517.8017256100036
 30
0.0
 11
522.4635252372314
 21
-517.7236830228965
 31
0.0
  0
LINE
  5
158C6
  8
01
 10
522.4635252372314
 20
-517.7236830228965
 30
0.0
 11
522.5190648678931
 21
-517.6470269523213
 31
0.0
  0
LINE
  5
158C7
  8
01
 10
522.5190648678931
 20
-517.6470269523213
 30
0.0
 11
522.575749645579
 21
-517.571786284039
 31
0.0
  0
LINE
  5
158C8
  8
01
 10
522.575749645579
 20
-517.571786284039
 30
0.0
 11
522.6335795702889
 21
-517.4979899038105
 31
0.0
  0
LINE
  5
158C9
  8
01
 10
522.6335795702889
 20
-517.4979899038105
 30
0.0
 11
522.692554642023
 21
-517.4256666973968
 31
0.0
  0
LINE
  5
158CA
  8
01
 10
522.692554642023
 20
-517.4256666973968
 30
0.0
 11
522.7526748607811
 21
-517.3548455505586
 31
0.0
  0
LINE
  5
158CB
  8
01
 10
522.7526748607811
 20
-517.3548455505586
 30
0.0
 11
522.8139402265633
 21
-517.285555349057
 31
0.0
  0
LINE
  5
158CC
  8
01
 10
522.8139402265633
 20
-517.285555349057
 30
0.0
 11
522.8763507393692
 21
-517.2178249786546
 31
0.0
  0
LINE
  5
158CD
  8
01
 10
522.8763507393692
 20
-517.2178249786546
 30
0.0
 11
522.9399063991996
 21
-517.1516833251096
 31
0.0
  0
LINE
  5
158CE
  8
01
 10
522.9399063991996
 20
-517.1516833251096
 30
0.0
 11
523.0046072060536
 21
-517.0871592741858
 31
0.0
  0
LINE
  5
158CF
  8
01
 10
523.0046072060536
 20
-517.0871592741858
 30
0.0
 11
523.0704531599322
 21
-517.024281711643
 31
0.0
  0
LINE
  5
158D0
  8
01
 10
523.0704531599322
 20
-517.024281711643
 30
0.0
 11
523.1374442608344
 21
-516.9630795232422
 31
0.0
  0
LINE
  5
158D1
  8
01
 10
523.1374442608344
 20
-516.9630795232422
 30
0.0
 11
523.2055805087607
 21
-516.9035815947452
 31
0.0
  0
LINE
  5
158D2
  8
01
 10
523.2055805087607
 20
-516.9035815947452
 30
0.0
 11
523.2748619037111
 21
-516.845816811913
 31
0.0
  0
LINE
  5
158D3
  8
01
 10
523.2748619037111
 20
-516.845816811913
 30
0.0
 11
523.3452884456856
 21
-516.7898140605055
 31
0.0
  0
LINE
  5
158D4
  8
01
 10
523.3452884456856
 20
-516.7898140605055
 30
0.0
 11
523.4168601346842
 21
-516.7356022262845
 31
0.0
  0
LINE
  5
158D5
  8
01
 10
523.4168601346842
 20
-516.7356022262845
 30
0.0
 11
523.4895769707068
 21
-516.683210195011
 31
0.0
  0
ARC
  5
158D6
  8
01
 10
524.0639982905736
 20
-517.5015945677667
 30
0.0
 40
1.000067978207553
 50
90.00035430948427
 51
124.3274480995703
  0
ARC
  5
158D7
  8
01
 10
523.5751532241384
 20
-516.7915289228656
 30
0.0
 40
0.1380443477852505
 50
122.965691801986
 51
128.3101876096158
  0
ARC
  5
158D9
  8
01
 10
624.486922275424
 20
-517.5039283388603
 30
0.0
 40
1.00240201387327
 50
55.7137463393961
 51
89.95837019554658
  0
LINE
  5
158DB
  8
01
 10
625.0620657333099
 20
-516.6832101949674
 30
0.0
 11
625.134782569393
 21
-516.7356022262827
 31
0.0
  0
LINE
  5
158DC
  8
01
 10
625.134782569393
 20
-516.7356022262827
 30
0.0
 11
625.2063542584501
 21
-516.7898140605491
 31
0.0
  0
LINE
  5
158DD
  8
01
 10
625.2063542584501
 20
-516.7898140605491
 30
0.0
 11
625.2767808004813
 21
-516.8458168120039
 31
0.0
  0
LINE
  5
158DE
  8
01
 10
625.2767808004813
 20
-516.8458168120039
 30
0.0
 11
625.3460621954865
 21
-516.903581594888
 31
0.0
  0
LINE
  5
158DF
  8
01
 10
625.3460621954865
 20
-516.903581594888
 30
0.0
 11
625.4141984434658
 21
-516.9630795234395
 31
0.0
  0
LINE
  5
158E0
  8
01
 10
625.4141984434658
 20
-516.9630795234395
 30
0.0
 11
625.4811895444192
 21
-517.0242817118967
 31
0.0
  0
LINE
  5
158E1
  8
01
 10
625.4811895444192
 20
-517.0242817118967
 30
0.0
 11
625.5470354983465
 21
-517.0871592744986
 31
0.0
  0
LINE
  5
158E2
  8
01
 10
625.5470354983465
 20
-517.0871592744986
 30
0.0
 11
625.611736305248
 21
-517.1516833254843
 31
0.0
  0
LINE
  5
158E3
  8
01
 10
625.611736305248
 20
-517.1516833254843
 30
0.0
 11
625.6752919651236
 21
-517.2178249790929
 31
0.0
  0
LINE
  5
158E4
  8
01
 10
625.6752919651236
 20
-517.2178249790929
 30
0.0
 11
625.7377024779732
 21
-517.2855553495635
 31
0.0
  0
LINE
  5
158E5
  8
01
 10
625.7377024779732
 20
-517.2855553495635
 30
0.0
 11
625.7989678437968
 21
-517.3548455511334
 31
0.0
  0
LINE
  5
158E6
  8
01
 10
625.7989678437968
 20
-517.3548455511334
 30
0.0
 11
625.8590880625947
 21
-517.4256666980434
 31
0.0
  0
LINE
  5
158E7
  8
01
 10
625.8590880625947
 20
-517.4256666980434
 30
0.0
 11
625.9180631343664
 21
-517.4979899045309
 31
0.0
  0
LINE
  5
158E8
  8
01
 10
625.9180631343664
 20
-517.4979899045309
 30
0.0
 11
625.9758930591123
 21
-517.5717862848358
 31
0.0
  0
LINE
  5
158E9
  8
01
 10
625.9758930591123
 20
-517.5717862848358
 30
0.0
 11
626.0325778368323
 21
-517.6470269531953
 31
0.0
  0
LINE
  5
158EA
  8
01
 10
626.0325778368323
 20
-517.6470269531953
 30
0.0
 11
626.0881174675262
 21
-517.7236830238505
 31
0.0
  0
LINE
  5
158EB
  8
01
 10
626.0881174675262
 20
-517.7236830238505
 30
0.0
 11
626.1425119511943
 21
-517.8017256110386
 31
0.0
  0
LINE
  5
158EC
  8
01
 10
626.1425119511943
 20
-517.8017256110386
 30
0.0
 11
626.1957612878365
 21
-517.8811258289995
 31
0.0
  0
LINE
  5
158ED
  8
01
 10
626.1957612878365
 20
-517.8811258289995
 30
0.0
 11
626.298824520043
 21
-518.0438836141936
 31
0.0
  0
LINE
  5
158EE
  8
01
 10
626.298824520043
 20
-518.0438836141936
 30
0.0
 11
626.397307164146
 21
-518.2117252933429
 31
0.0
  0
LINE
  5
158EF
  8
01
 10
626.397307164146
 20
-518.2117252933429
 30
0.0
 11
626.4912092201454
 21
-518.384419780358
 31
0.0
  0
LINE
  5
158F0
  8
01
 10
626.4912092201454
 20
-518.384419780358
 30
0.0
 11
626.580530688041
 21
-518.561735989151
 31
0.0
  0
LINE
  5
158F1
  8
01
 10
626.580530688041
 20
-518.561735989151
 30
0.0
 11
626.6652715678331
 21
-518.7434428336326
 31
0.0
  0
LINE
  5
158F2
  8
01
 10
626.6652715678331
 20
-518.7434428336326
 30
0.0
 11
626.7454318595217
 21
-518.9293092277119
 31
0.0
  0
LINE
  5
158F3
  8
01
 10
626.7454318595217
 20
-518.9293092277119
 30
0.0
 11
626.8210115631066
 21
-519.1191040853016
 31
0.0
  0
LINE
  5
158F4
  8
01
 10
626.8210115631066
 20
-519.1191040853016
 30
0.0
 11
626.892010678588
 21
-519.3125963203117
 31
0.0
  0
LINE
  5
158F5
  8
01
 10
626.892010678588
 20
-519.3125963203117
 30
0.0
 11
626.9584292059658
 21
-519.509554846654
 31
0.0
  0
LINE
  5
158F6
  8
01
 10
627.02026714524
 20
-519.7097485782376
 30
0.0
 11
627.0775244964109
 21
-519.9129464289742
 31
0.0
  0
LINE
  5
158F7
  8
01
 10
627.0775244964109
 20
-519.9129464289742
 30
0.0
 11
627.1302012594782
 21
-520.1189173127757
 31
0.0
  0
LINE
  5
158F8
  8
01
 10
627.1302012594782
 20
-520.1189173127757
 30
0.0
 11
627.178297434442
 21
-520.327430143551
 31
0.0
  0
LINE
  5
158F9
  8
01
 10
627.178297434442
 20
-520.327430143551
 30
0.0
 11
627.2218130213024
 21
-520.538253835213
 31
0.0
  0
LINE
  5
158FA
  8
01
 10
627.2218130213024
 20
-520.538253835213
 30
0.0
 11
627.2607480200594
 21
-520.7511573016707
 31
0.0
  0
LINE
  5
158FB
  8
01
 10
627.2607480200594
 20
-520.7511573016707
 30
0.0
 11
627.2951024307127
 21
-520.9659094568358
 31
0.0
  0
LINE
  5
158FC
  8
01
 10
627.2951024307127
 20
-520.9659094568358
 30
0.0
 11
627.3248762532629
 21
-521.1822792146193
 31
0.0
  0
LINE
  5
158FD
  8
01
 10
627.3248762532629
 20
-521.1822792146193
 30
0.0
 11
627.3500694877097
 21
-521.400035488931
 31
0.0
  0
LINE
  5
158FE
  8
01
 10
627.3500694877097
 20
-521.400035488931
 30
0.0
 11
627.370682134053
 21
-521.618947193683
 31
0.0
  0
LINE
  5
158FF
  8
01
 10
627.370682134053
 20
-521.618947193683
 30
0.0
 11
627.386714192293
 21
-521.8387832427859
 31
0.0
  0
LINE
  5
15900
  8
01
 10
627.386714192293
 20
-521.8387832427859
 30
0.0
 11
627.3981656624295
 21
-522.0593125501507
 31
0.0
  0
LINE
  5
15901
  8
01
 10
627.3981656624295
 20
-522.0593125501507
 30
0.0
 11
627.4050365444629
 21
-522.2803040296874
 31
0.0
  0
LINE
  5
15902
  8
01
 10
627.4050365444629
 20
-522.2803040296874
 30
0.0
 11
627.4073268383928
 21
-522.5015265953068
 31
0.0
  0
LINE
  5
15903
  8
01
 10
627.4073268383928
 20
-522.5015265953068
 30
0.0
 11
627.4050365442281
 21
-522.7227491604997
 31
0.0
  0
LINE
  5
15904
  8
01
 10
627.4050365442281
 20
-522.7227491604997
 30
0.0
 11
627.3981656619776
 21
-522.9437406395989
 31
0.0
  0
LINE
  5
15905
  8
01
 10
627.3981656619776
 20
-522.9437406395989
 30
0.0
 11
627.3867141916413
 21
-523.1642699465172
 31
0.0
  0
LINE
  5
15906
  8
01
 10
627.3867141916413
 20
-523.1642699465172
 30
0.0
 11
627.3706821332191
 21
-523.3841059951653
 31
0.0
  0
LINE
  5
15907
  8
01
 10
627.3706821332191
 20
-523.3841059951653
 30
0.0
 11
627.3500694867112
 21
-523.6030176994561
 31
0.0
  0
LINE
  5
15908
  8
01
 10
627.3500694867112
 20
-523.6030176994561
 30
0.0
 11
627.3248762521175
 21
-523.8207739733014
 31
0.0
  0
LINE
  5
15909
  8
01
 10
627.3248762521175
 20
-523.8207739733014
 30
0.0
 11
627.295102429438
 21
-524.0371437306137
 31
0.0
  0
LINE
  5
1590A
  8
01
 10
627.295102429438
 20
-524.0371437306137
 30
0.0
 11
627.2607480186728
 21
-524.2518958853059
 31
0.0
  0
LINE
  5
1590B
  8
01
 10
627.2607480186728
 20
-524.2518958853059
 30
0.0
 11
627.2218130198218
 21
-524.4647993512888
 31
0.0
  0
LINE
  5
1590C
  8
01
 10
627.2218130198218
 20
-524.4647993512888
 30
0.0
 11
627.178297432885
 21
-524.6756230424751
 31
0.0
  0
LINE
  5
1590D
  8
01
 10
627.178297432885
 20
-524.6756230424751
 30
0.0
 11
627.1302012578625
 21
-524.8841358727766
 31
0.0
  0
LINE
  5
1590E
  8
01
 10
627.1302012578625
 20
-524.8841358727766
 30
0.0
 11
627.0775244947544
 21
-525.0901067561069
 31
0.0
  0
LINE
  5
1590F
  8
01
 10
627.0775244947544
 20
-525.0901067561069
 30
0.0
 11
627.0202671435605
 21
-525.2933046063761
 31
0.0
  0
LINE
  5
15910
  8
01
 10
627.0202671435605
 20
-525.2933046063761
 30
0.0
 11
626.9584292042811
 21
-525.4934983374985
 31
0.0
  0
LINE
  5
15911
  8
01
 10
626.9584292042811
 20
-525.4934983374985
 30
0.0
 11
626.8920106769159
 21
-525.6904568633843
 31
0.0
  0
LINE
  5
15912
  8
01
 10
626.8920106769159
 20
-525.6904568633843
 30
0.0
 11
626.8210115614651
 21
-525.8839490979469
 31
0.0
  0
LINE
  5
15913
  8
01
 10
626.8210115614651
 20
-525.8839490979469
 30
0.0
 11
626.7454318579288
 21
-526.0737439550974
 31
0.0
  0
LINE
  5
15914
  8
01
 10
626.7454318579288
 20
-526.0737439550974
 30
0.0
 11
626.6652715663068
 21
-526.2596103487492
 31
0.0
  0
LINE
  5
15915
  8
01
 10
626.6652715663068
 20
-526.2596103487492
 30
0.0
 11
626.5805306865992
 21
-526.4413171928134
 31
0.0
  0
LINE
  5
15916
  8
01
 10
626.5805306865992
 20
-526.4413171928134
 30
0.0
 11
626.491209218806
 21
-526.6186334012034
 31
0.0
  0
LINE
  5
15917
  8
01
 10
626.491209218806
 20
-526.6186334012034
 30
0.0
 11
626.3973071629274
 21
-526.7913278878293
 31
0.0
  0
LINE
  5
15918
  8
01
 10
626.3973071629274
 20
-526.7913278878293
 30
0.0
 11
626.2988245189632
 21
-526.9591695666056
 31
0.0
  0
LINE
  5
15919
  8
01
 10
626.2988245189632
 20
-526.9591695666056
 30
0.0
 11
626.1957612869135
 21
-527.1219273514432
 31
0.0
  0
LINE
  5
1591A
  8
01
 10
626.1957612869135
 20
-527.1219273514432
 30
0.0
 11
626.1425119503566
 21
-527.2013275692323
 31
0.0
  0
LINE
  5
1591B
  8
01
 10
626.1425119503566
 20
-527.2013275692323
 30
0.0
 11
626.0881174667783
 21
-527.2793701562548
 31
0.0
  0
LINE
  5
1591C
  8
01
 10
626.0881174667783
 20
-527.2793701562548
 30
0.0
 11
626.0325778361786
 21
-527.3560262267481
 31
0.0
  0
LINE
  5
1591D
  8
01
 10
626.0325778361786
 20
-527.3560262267481
 30
0.0
 11
625.9758930585575
 21
-527.4312668949512
 31
0.0
  0
LINE
  5
1591E
  8
01
 10
625.9758930585575
 20
-527.4312668949512
 30
0.0
 11
625.9180631339151
 21
-527.5050632751042
 31
0.0
  0
LINE
  5
1591F
  8
01
 10
625.9180631339151
 20
-527.5050632751042
 30
0.0
 11
625.8590880622513
 21
-527.5773864814462
 31
0.0
  0
LINE
  5
15920
  8
01
 10
625.8590880622513
 20
-527.5773864814462
 30
0.0
 11
625.7989678435662
 21
-527.6482076282152
 31
0.0
  0
LINE
  5
15921
  8
01
 10
625.7989678435662
 20
-527.6482076282152
 30
0.0
 11
625.7377024778597
 21
-527.7174978296514
 31
0.0
  0
LINE
  5
15922
  8
01
 10
625.7377024778597
 20
-527.7174978296514
 30
0.0
 11
625.6752919651318
 21
-527.7852281999928
 31
0.0
  0
LINE
  5
15923
  8
01
 10
625.6752919651318
 20
-527.7852281999928
 30
0.0
 11
625.6117363053826
 21
-527.8513698534787
 31
0.0
  0
LINE
  5
15924
  8
01
 10
625.6117363053826
 20
-527.8513698534787
 30
0.0
 11
625.547035498612
 21
-527.915893904348
 31
0.0
  0
LINE
  5
15925
  8
01
 10
625.547035498612
 20
-527.915893904348
 30
0.0
 11
625.48118954482
 21
-527.9787714668407
 31
0.0
  0
LINE
  5
15926
  8
01
 10
625.48118954482
 20
-527.9787714668407
 30
0.0
 11
625.4141984440068
 21
-528.0399736551942
 31
0.0
  0
LINE
  5
15927
  8
01
 10
625.4141984440068
 20
-528.0399736551942
 30
0.0
 11
625.3460621961722
 21
-528.0994715836484
 31
0.0
  0
LINE
  5
15928
  8
01
 10
625.3460621961722
 20
-528.0994715836484
 30
0.0
 11
625.2767808013162
 21
-528.1572363664434
 31
0.0
  0
LINE
  5
15929
  8
01
 10
625.2767808013162
 20
-528.1572363664434
 30
0.0
 11
625.2063542594389
 21
-528.2132391178163
 31
0.0
  0
LINE
  5
1592A
  8
01
 10
625.2063542594389
 20
-528.2132391178163
 30
0.0
 11
625.1347825705403
 21
-528.2674509520064
 31
0.0
  0
LINE
  5
1592B
  8
01
 10
625.1347825705403
 20
-528.2674509520064
 30
0.0
 11
625.0516333856139
 21
-528.3273232037807
 31
0.0
  0
ARC
  5
15956
  8
01
 10
626.1647469330857
 20
-517.0091379744015
 30
0.0
 40
0.4982706553096299
 50
155.4987230483668
 51
190.534548004156
  0
ARC
  5
15957
  8
01
 10
626.1706369326736
 20
-517.0115269886717
 30
0.0
 40
0.5046226347768553
 50
120.2256444212714
 51
155.0387141896225
  0
ARC
  5
15958
  8
01
 10
626.2102556925047
 20
-517.1056509892994
 30
0.0
 40
0.6060478370857834
 50
94.56602718182889
 51
118.9371228131682
  0
ARC
  5
15959
  8
01
 10
626.1577743078179
 20
-517.0102272780366
 30
0.0
 40
0.4912141814994883
 50
191.1384905395745
 51
220.9328605964365
  0
LINE
  5
1595A
  8
01
 10
625.6097984032559
 20
-579.2959045827354
 30
0.0
 11
625.6097984032559
 21
-578.7959045826817
 31
0.0
  0
ARC
  5
1595B
  8
01
 10
626.1098699969231
 20
-579.296119778566
 30
0.0
 40
0.5000715988217399
 50
179.9917733974585
 51
269.9917971446537
  0
ARC
  5
1595C
  8
01
 10
623.5005906963073
 20
-528.9950995279257
 30
0.0
 40
0.4820840959326418
 50
99.01868789945674
 51
180.7638840412309
  0
ARC
  5
1595D
  8
01
 10
623.5186214747383
 20
-555.046293809796
 30
0.0
 40
0.5000720349617443
 50
180.0082528260658
 51
270.0081766318609
  0
LINE
  5
1595E
  8
01
 10
624.0188362345458
 20
-555.5463658396654
 30
0.0
 11
623.5480925960424
 21
-555.5463658396654
 31
0.0
  0
LINE
  5
1595F
  8
01
 10
624.6446902154364
 20
-516.5015265896652
 30
0.0
 11
626.0694860588625
 21
-516.5015265896652
 31
0.0
  0
LINE
  5
15960
  8
01
 10
623.0189072356662
 20
-528.8696834873333
 30
0.0
 11
623.0159936362132
 21
-528.7701473395516
 31
0.0
  0
LINE
  5
15961
  8
01
 10
622.7859780988017
 20
-528.5015265897089
 30
0.0
 11
622.895785052822
 21
-528.5567104967756
 31
0.0
  0
LINE
  5
15962
  8
01
 10
622.895785052822
 20
-528.5567104967756
 30
0.0
 11
622.9567064549702
 21
-528.6005122098147
 31
0.0
  0
LINE
  5
15963
  8
01
 10
622.9568169535158
 20
-528.6006163191548
 30
0.0
 11
622.996214394408
 21
-528.655086042533
 31
0.0
  0
LINE
  5
15964
  8
01
 10
622.9962336369566
 20
-528.6551283487158
 30
0.0
 11
623.0122179126337
 21
-528.7321921087412
 31
0.0
  0
LINE
  5
15966
  8
01
 10
524.0643481118327
 20
-528.5015265897553
 30
0.0
 11
539.7757679908767
 21
-528.5015265895779
 31
0.0
  0
LINE
  5
15967
  8
01
 10
608.775874713181
 20
-528.5015265895288
 30
0.0
 11
539.7757679908767
 21
-528.5015265895779
 31
0.0
  0
LINE
  5
159C4
  8
01
 10
624.0188362395651
 20
-528.5015265897243
 30
0.0
 11
624.3747586709156
 21
-528.5015265897407
 31
0.0
  0
LINE
  5
159C5
  8
01
 10
624.3747586709156
 20
-528.5015265897407
 30
0.0
 11
624.4622604954944
 21
-528.501526589748
 31
0.0
  0
LINE
  5
159C6
  8
01
 10
624.4622604954944
 20
-528.501526589748
 30
0.0
 11
624.4826873286161
 21
-528.5015265897516
 31
0.0
  0
LINE
  5
159C7
  8
01
 10
624.4826873286161
 20
-528.5015265897516
 30
0.0
 11
624.4869810714607
 21
-528.5015265897534
 31
0.0
  0
LINE
  5
159C8
  8
01
 10
624.4869810714607
 20
-528.5015265897534
 30
0.0
 11
624.4876369427135
 21
-528.5015265897543
 31
0.0
  0
LINE
  5
159C9
  8
01
 10
624.4876369427135
 20
-528.5015265897543
 30
0.0
 11
624.4876488040869
 21
-528.5015265897543
 31
0.0
  0
LINE
  5
159CA
  8
01
 10
624.4876488040869
 20
-528.5015265897543
 30
0.0
 11
624.4876450620618
 21
-528.5015265897543
 31
0.0
  0
LINE
  5
159CB
  8
01
 10
624.4876450620618
 20
-528.5015265897543
 30
0.0
 11
624.48759074308
 21
-528.5015265897543
 31
0.0
  0
LINE
  5
159CC
  8
01
 10
624.48759074308
 20
-528.5015265897543
 30
0.0
 11
624.4872945922378
 21
-528.5015265897553
 31
0.0
  0
LINE
  5
159CD
  8
01
 10
608.775874713181
 20
-528.5015265895288
 30
0.0
 11
624.0188362395651
 21
-528.5015265897243
 31
0.0
  0
LINE
  5
159CE
  8
01
 10
524.0643481118113
 20
-516.5015265897553
 30
0.0
 11
539.7757679908985
 21
-516.5015265895779
 31
0.0
  0
LINE
  5
15A2B
  8
01
 10
608.775874713203
 20
-516.5015265895288
 30
0.0
 11
539.7758633641669
 21
-516.5015265895779
 31
0.0
  0
LINE
  5
15A2C
  8
01
 10
626.873067611128
 20
-519.2593876730714
 30
0.0
 11
626.8604400057808
 21
-519.224577388273
 31
0.0
  0
LINE
  5
15A2D
  8
01
 10
626.9153845669489
 20
-519.3800074681747
 30
0.0
 11
626.9012680250645
 21
-519.3390657815578
 31
0.0
  0
LINE
  5
15A2E
  8
01
 10
623.0030181006101
 20
-516.5015265896961
 30
0.0
 11
624.115987778415
 21
-516.501526589728
 31
0.0
  0
LINE
  5
15A2F
  8
01
 10
624.115987778415
 20
-516.501526589728
 30
0.0
 11
624.3989454318513
 21
-516.5015265897416
 31
0.0
  0
LINE
  5
15A30
  8
01
 10
624.3989454318513
 20
-516.5015265897416
 30
0.0
 11
624.4680206222487
 21
-516.5015265897489
 31
0.0
  0
LINE
  5
15A31
  8
01
 10
624.4680206222487
 20
-516.5015265897489
 30
0.0
 11
624.4839545783728
 21
-516.5015265897516
 31
0.0
  0
LINE
  5
15A32
  8
01
 10
624.4839545783728
 20
-516.5015265897516
 30
0.0
 11
624.4872078054171
 21
-516.5015265897534
 31
0.0
  0
LINE
  5
15A33
  8
01
 10
624.4872078054171
 20
-516.5015265897534
 30
0.0
 11
624.4876481260286
 21
-516.5015265897543
 31
0.0
  0
LINE
  5
15A34
  8
01
 10
624.4876481260286
 20
-516.5015265897543
 30
0.0
 11
624.4876342541036
 21
-516.5015265897543
 31
0.0
  0
LINE
  5
15A35
  8
01
 10
624.4876342541036
 20
-516.5015265897543
 30
0.0
 11
624.4875707312121
 21
-516.5015265897543
 31
0.0
  0
LINE
  5
15A36
  8
01
 10
624.4875707312121
 20
-516.5015265897543
 30
0.0
 11
624.4872945922592
 21
-516.5015265897553
 31
0.0
  0
LINE
  5
15A37
  8
01
 10
608.775874713203
 20
-516.5015265895288
 30
0.0
 11
623.0030181006101
 21
-516.5015265896961
 31
0.0
  0
LINE
  5
15ADA
  8
01
 10
630.0188362345458
 20
-517.5015265896652
 30
0.0
 11
630.0188362345458
 21
-526.7515407679318
 31
0.0
  0
LINE
  5
15ADF
  8
01
 10
630.0188362345458
 20
-516.5015265897189
 30
0.0
 11
630.0188362345458
 21
-517.5015265896652
 31
0.0
  0
LINE
  5
15AE0
  8
01
 10
630.0188362345458
 20
-578.7959045826817
 30
0.0
 11
630.0188362345456
 21
-579.7959045826817
 31
0.0
  0
LINE
  5
15AE1
  8
01
 10
624.6453750114712
 20
-528.5015266232401
 30
0.0
 11
624.4872945759312
 21
-528.5015266232401
 31
0.0
  0
LINE
  5
15AE2
  8
01
 10
625.0637352519483
 20
-528.318609155787
 30
0.0
 11
624.9111313561401
 21
-528.4253010771924
 31
0.0
  0
LINE
  5
15AE3
  8
01
 10
623.5480925960424
 20
-555.5463658396664
 30
0.0
 11
623.5253101404479
 21
-555.5463658396654
 31
0.0
  0
LINE
  5
15AE4
  8
01
 10
623.5253101404479
 20
-555.5463658396654
 30
0.0
 11
623.5199235502856
 21
-555.5463658396654
 31
0.0
  0
LINE
  5
15AE5
  8
01
 10
623.5199235502856
 20
-555.5463658396654
 30
0.0
 11
623.5188285995505
 21
-555.5463658396654
 31
0.0
  0
LINE
  5
15AE6
  8
01
 10
623.5188285995505
 20
-555.5463658396654
 30
0.0
 11
623.5187260562337
 21
-555.5463658396654
 31
0.0
  0
LINE
  5
15AE7
  8
01
 10
623.5187260562337
 20
-555.5463658396654
 30
0.0
 11
623.5187007620101
 21
-555.5463658396654
 31
0.0
  0
LINE
  5
15AE8
  8
01
 10
623.5187007620101
 20
-555.5463658396654
 30
0.0
 11
623.5186946329837
 21
-555.5463658396654
 31
0.0
  0
LINE
  5
15AE9
  8
01
 10
623.5186946329837
 20
-555.5463658396654
 30
0.0
 11
623.5186932009578
 21
-555.5463658396654
 31
0.0
  0
LINE
  5
15AEA
  8
01
 10
623.5186932009578
 20
-555.5463658396654
 30
0.0
 11
623.5186928583865
 21
-555.5463658396654
 31
0.0
  0
LINE
  5
15AEB
  8
01
 10
623.5186928583865
 20
-555.5463658396654
 30
0.0
 11
623.5188362345458
 21
-555.5463658396654
 31
0.0
  0
ARC
  5
15AEC
  8
01
 10
624.6455985086868
 20
-528.000920100171
 30
0.0
 40
0.5006065388446064
 50
269.9856156906462
 51
302.0339891005392
  0
ARC
  5
15AED
  8
01
 10
625.107039800808
 20
-556.0491244421135
 30
0.0
 40
0.5027661705233786
 50
0.3143749121656897
 51
89.68562508784733
  0
LINE
  5
15AEE
  8
01
 10
626.0694860588363
 20
-516.5015265896652
 30
0.0
 11
626.162009507406
 21
-516.5015265927884
 31
0.0
  0
LINE
  5
15AEF
  8
01
 10
626.162009507406
 20
-516.5015265927884
 30
0.0
 11
630.0188362345458
 21
-516.5015265897189
 31
0.0
  0
LINE
  5
15AF0
  8
01
 10
624.6446902154364
 20
-516.5015265896652
 30
0.0
 11
624.4872945759529
 21
-516.5015265896889
 31
0.0
  0
LINE
  5
15AF1
  8
01
 10
625.6097984032558
 20
-578.7959045826817
 30
0.0
 11
625.6097984032558
 21
-556.0463658396654
 31
0.0
  0
LINE
  5
15AF2
  8
01
 10
625.1097984032559
 20
-555.5463658396654
 30
0.0
 11
624.0188362345458
 21
-555.5463658396654
 31
0.0
  0
LINE
  5
15AF4
  8
01
 10
630.0188362345457
 20
-579.7959045826817
 30
0.0
 11
626.1097984032558
 21
-579.7959045826817
 31
0.0
  0
LINE
  5
15AF5
  8
01
 10
623.0188362345458
 20
-555.0463658396654
 30
0.0
 11
623.0188362345458
 21
-529.0015266232738
 31
0.0
  0
LINE
  5
15AF6
  8
01
 10
623.0159902798314
 20
-528.7701475729825
 30
0.0
 11
623.0122310619748
 21
-528.7323244101115
 31
0.0
  0
LINE
  5
15AF7
  8
01
 10
623.0191699879458
 20
-528.9698175756282
 30
0.0
 11
623.0189071170663
 21
-528.8696834913014
 31
0.0
  0
LINE
  5
15AFA
  8
1CENTER
 10
357.8629264117989
 20
-567.7727329624065
 30
0.0
 11
366.9265739898398
 21
-567.7727329624065
 31
0.0
  0
LINE
  5
15AFB
  8
1CENTER
 10
362.3947502101498
 20
-572.3625783541813
 30
0.0
 11
362.3947501914888
 21
-563.1828875706318
 31
0.0
  0
LINE
  5
15AFC
  8
01
 10
314.270939132017
 20
-561.5008219000918
 30
0.0
 11
364.5185645534666
 21
-561.5008219000918
 31
0.0
  0
LINE
  5
15B13
  8
01
 10
630.0188362345458
 20
-526.7515407679318
 30
0.0
 11
630.0188362345458
 21
-578.7959045826817
 31
0.0
  0
LINE
  5
15B42
  8
01
 10
523.4895769694494
 20
-528.3198429832471
 30
0.0
 11
523.5000382132348
 21
-528.3273429903072
 31
0.0
  0
LINE
  5
15B43
  8
01
 10
623.4250208294044
 20
-528.5189753101347
 30
0.0
 11
623.5636918433623
 21
-528.5015265897189
 31
0.0
  0
LINE
  5
15BE0
  8
1CENTER
 10
311.8629199128268
 20
-567.7727330559175
 30
0.0
 11
320.9265674908677
 21
-567.7727330559175
 31
0.0
  0
LINE
  5
15BE1
  8
1CENTER
 10
316.3947437111778
 20
-572.3625784476923
 30
0.0
 11
316.3947436925168
 21
-563.1828876641428
 31
0.0
  0
LINE
  5
15BFF
  8
01
 10
601.4625484148964
 20
-561.5985454172283
 30
0.0
 11
600.2581141582255
 21
-561.5985454200639
 31
0.0
  0
ARC
  5
15C00
  8
01
 10
614.1319287400243
 20
-553.815013584132
 30
0.0
 40
8.94683526850542
 50
323.7667664225157
 51
346.3605683368139
  0
ARC
  5
15C01
  8
01
 10
616.3047078111988
 20
-555.284218791799
 30
0.0
 40
6.323981784665158
 50
266.8332065223254
 51
319.2446766147227
  0
LINE
  5
15C02
  8
01
 10
615.9553531214738
 20
-561.5985435311154
 30
0.0
 11
615.6728351534482
 21
-561.5985435678826
 31
0.0
  0
LINE
  5
15C03
  8
01
 10
615.272838064938
 20
-561.5985436199394
 30
0.0
 11
603.7982520562291
 21
-561.5985451132542
 31
0.0
  0
ARC
  5
15C04
  8
01
 10
615.4728366092925
 20
-561.5993066770357
 30
0.0
 40
0.2000000000000028
 50
0.2186151993269409
 51
179.7813997139415
  0
LINE
  5
15C05
  8
01
 10
603.3982549559385
 20
-561.5985451653128
 30
0.0
 11
601.462548415057
 21
-561.5985454172283
 31
0.0
  0
ARC
  5
15C06
  8
01
 10
603.598253506183
 20
-561.5993066770357
 30
0.0
 40
0.2000000000000313
 50
0.2181724792487227
 51
179.7818424340192
  0
LINE
  5
15C07
  8
01
 10
623.1182825080627
 20
-555.6936150739643
 30
0.0
 11
625.4625491693363
 21
-555.6936150735852
 31
0.0
  0
LINE
  5
15C08
  8
01
 10
625.4625482354286
 20
-555.6936150735852
 30
0.0
 11
625.4625482391484
 21
-579.8355352832559
 31
0.0
  0
ARC
  5
15C09
  8
01
 10
623.1183504274047
 20
-555.9934907492984
 30
0.0
 40
0.2998756830261857
 50
90.01297701646642
 51
166.74835817154
  0
ARC
  5
15C0A
  8
01
 10
621.2222730726878
 20
-559.2583023446273
 30
0.0
 40
0.1999999999999318
 50
50.82785378665684
 51
230.5348827307908
  0
LINE
  5
15C0B
  8
01
 10
600.2581141894507
 20
-574.8614929993669
 30
0.0
 11
600.2581141582255
 21
-561.5985454801145
 31
0.0
  0
LINE
  5
15C0C
  8
01
 10
605.2581141894505
 20
-579.8614929993669
 30
0.0
 11
625.4625491998521
 21
-579.8355352820216
 31
0.0
  0
ARC
  5
15C0D
  8
01
 10
605.2581141894507
 20
-574.8614929993669
 30
0.0
 40
5.000000000000114
 50
180.0
 51
270.0
  0
LINE
  5
15C0E
  8
01
 10
616.1177533869761
 20
-561.398545287087
 30
0.0
 11
616.335314459757
 21
-561.3924584195279
 31
0.0
  0
LINE
  5
15C0F
  8
01
 10
616.335314459757
 20
-561.3924584195279
 30
0.0
 11
616.497875842332
 21
-561.3847429946313
 31
0.0
  0
LINE
  5
15C10
  8
01
 10
616.497875842332
 20
-561.3847429946313
 30
0.0
 11
616.6583422094102
 21
-561.3739387517021
 31
0.0
  0
LINE
  5
15C11
  8
01
 10
616.6583422094102
 20
-561.3739387517021
 30
0.0
 11
616.8167197804687
 21
-561.3600654093766
 31
0.0
  0
LINE
  5
15C12
  8
01
 10
616.8167197804687
 20
-561.3600654093766
 30
0.0
 11
616.9730147749842
 21
-561.3431426862903
 31
0.0
  0
LINE
  5
15C13
  8
01
 10
616.9730147749842
 20
-561.3431426862903
 30
0.0
 11
617.1272334124335
 21
-561.3231903010806
 31
0.0
  0
LINE
  5
15C14
  8
01
 10
617.1272334124335
 20
-561.3231903010806
 30
0.0
 11
617.2793819122935
 21
-561.3002279723828
 31
0.0
  0
LINE
  5
15C15
  8
01
 10
617.2793819122935
 20
-561.3002279723828
 30
0.0
 11
617.4294664940408
 21
-561.2742754188334
 31
0.0
  0
LINE
  5
15C16
  8
01
 10
617.4294664940408
 20
-561.2742754188334
 30
0.0
 11
617.5774933771525
 21
-561.2453523590689
 31
0.0
  0
LINE
  5
15C17
  8
01
 10
617.5774933771525
 20
-561.2453523590689
 30
0.0
 11
617.7234687811051
 21
-561.2134785117246
 31
0.0
  0
LINE
  5
15C18
  8
01
 10
617.7234687811051
 20
-561.2134785117246
 30
0.0
 11
617.8673989253755
 21
-561.1786735954388
 31
0.0
  0
LINE
  5
15C19
  8
01
 10
617.8673989253755
 20
-561.1786735954388
 30
0.0
 11
618.0092900294405
 21
-561.1409573288452
 31
0.0
  0
LINE
  5
15C1A
  8
01
 10
618.0092900294405
 20
-561.1409573288452
 30
0.0
 11
618.1491483127772
 21
-561.1003494305819
 31
0.0
  0
LINE
  5
15C1B
  8
01
 10
618.1491483127772
 20
-561.1003494305819
 30
0.0
 11
618.2869799948619
 21
-561.0568696192836
 31
0.0
  0
LINE
  5
15C1C
  8
01
 10
618.2869799948619
 20
-561.0568696192836
 30
0.0
 11
618.4227912951717
 21
-561.0105376135884
 31
0.0
  0
LINE
  5
15C1D
  8
01
 10
618.4227912951717
 20
-561.0105376135884
 30
0.0
 11
618.5565884331832
 21
-560.961373132131
 31
0.0
  0
LINE
  5
15C1E
  8
01
 10
618.5565884331832
 20
-560.961373132131
 30
0.0
 11
618.6883776283735
 21
-560.9093958935478
 31
0.0
  0
LINE
  5
15C1F
  8
01
 10
618.6883776283735
 20
-560.9093958935478
 30
0.0
 11
618.818165100219
 21
-560.8546256164759
 31
0.0
  0
LINE
  5
15C20
  8
01
 10
618.818165100219
 20
-560.8546256164759
 30
0.0
 11
618.9459570681968
 21
-560.797082019551
 31
0.0
  0
LINE
  5
15C21
  8
01
 10
618.9459570681968
 20
-560.797082019551
 30
0.0
 11
619.0717597517835
 21
-560.7367848214094
 31
0.0
  0
LINE
  5
15C22
  8
01
 10
619.0717597517835
 20
-560.7367848214094
 30
0.0
 11
619.1955793704562
 21
-560.6737537406875
 31
0.0
  0
LINE
  5
15C23
  8
01
 10
619.1955793704562
 20
-560.6737537406875
 30
0.0
 11
619.3174221436914
 21
-560.6080084960217
 31
0.0
  0
LINE
  5
15C24
  8
01
 10
619.3174221436914
 20
-560.6080084960217
 30
0.0
 11
619.4372942909661
 21
-560.5395688060466
 31
0.0
  0
LINE
  5
15C25
  8
01
 10
619.4372942909661
 20
-560.5395688060466
 30
0.0
 11
619.5552020317571
 21
-560.4684543894004
 31
0.0
  0
LINE
  5
15C26
  8
01
 10
619.5552020317571
 20
-560.4684543894004
 30
0.0
 11
619.6711515855409
 21
-560.3946849647195
 31
0.0
  0
LINE
  5
15C27
  8
01
 10
619.6711515855409
 20
-560.3946849647195
 30
0.0
 11
619.7851491717945
 21
-560.3182802506385
 31
0.0
  0
LINE
  5
15C28
  8
01
 10
619.7851491717945
 20
-560.3182802506385
 30
0.0
 11
619.8972010099949
 21
-560.2392599657946
 31
0.0
  0
LINE
  5
15C29
  8
01
 10
619.8972010099949
 20
-560.2392599657946
 30
0.0
 11
620.0073133196186
 21
-560.1576438288234
 31
0.0
  0
LINE
  5
15C2A
  8
01
 10
620.0073133196186
 20
-560.1576438288234
 30
0.0
 11
620.1154923201423
 21
-560.0734515583622
 31
0.0
  0
LINE
  5
15C2B
  8
01
 10
620.1154923201423
 20
-560.0734515583622
 30
0.0
 11
620.2217442310432
 21
-559.9867028730464
 31
0.0
  0
LINE
  5
15C2C
  8
01
 10
620.2217442310432
 20
-559.9867028730464
 30
0.0
 11
620.3260752717979
 21
-559.8974174915124
 31
0.0
  0
LINE
  5
15C2D
  8
01
 10
620.3260752717979
 20
-559.8974174915124
 30
0.0
 11
620.4284916618833
 21
-559.8056151323967
 31
0.0
  0
LINE
  5
15C2E
  8
01
 10
620.4284916618833
 20
-559.8056151323967
 30
0.0
 11
620.528999620776
 21
-559.7113155143347
 31
0.0
  0
LINE
  5
15C2F
  8
01
 10
620.528999620776
 20
-559.7113155143347
 30
0.0
 11
620.6276053679528
 21
-559.6145383559647
 31
0.0
  0
LINE
  5
15C30
  8
01
 10
620.6276053679528
 20
-559.6145383559647
 30
0.0
 11
620.7243151228906
 21
-559.5153033759202
 31
0.0
  0
LINE
  5
15C31
  8
01
 10
620.7243151228906
 20
-559.5153033759202
 30
0.0
 11
620.8191351050664
 21
-559.4136302928396
 31
0.0
  0
LINE
  5
15C32
  8
01
 10
620.8191351050664
 20
-559.4136302928396
 30
0.0
 11
620.9120715339566
 21
-559.3095388253582
 31
0.0
  0
LINE
  5
15C33
  8
01
 10
620.9120715339566
 20
-559.3095388253582
 30
0.0
 11
621.0031306290382
 21
-559.2030486921117
 31
0.0
  0
LINE
  5
15C34
  8
01
 10
621.0031306290382
 20
-559.2030486921117
 30
0.0
 11
621.092318609788
 21
-559.0941796117372
 31
0.0
  0
LINE
  5
15C35
  8
01
 10
621.092318609788
 20
-559.0941796117372
 30
0.0
 11
621.1796416956829
 21
-558.9829513028712
 31
0.0
  0
LINE
  5
15C36
  8
01
 10
621.1796416956829
 20
-558.9829513028712
 30
0.0
 11
621.2651061061995
 21
-558.8693834841492
 31
0.0
  0
LINE
  5
15C37
  8
01
 10
621.2651061061995
 20
-558.8693834841492
 30
0.0
 11
621.3487180608147
 21
-558.7534958742076
 31
0.0
  0
LINE
  5
15C38
  8
01
 10
621.3487180608147
 20
-558.7534958742076
 30
0.0
 11
621.4304837790053
 21
-558.6353081916827
 31
0.0
  0
LINE
  5
15C39
  8
01
 10
621.4304837790053
 20
-558.6353081916827
 30
0.0
 11
621.510409480248
 21
-558.514840155211
 31
0.0
  0
LINE
  5
15C3A
  8
01
 10
621.510409480248
 20
-558.514840155211
 30
0.0
 11
621.5885013840198
 21
-558.3921114834279
 31
0.0
  0
LINE
  5
15C3B
  8
01
 10
621.5885013840198
 20
-558.3921114834279
 30
0.0
 11
621.6647657097974
 21
-558.2671418949708
 31
0.0
  0
LINE
  5
15C3C
  8
01
 10
621.6647657097974
 20
-558.2671418949708
 30
0.0
 11
621.7392086770574
 21
-558.139951108476
 31
0.0
  0
LINE
  5
15C3D
  8
01
 10
614.0193350783559
 20
-561.398545287087
 30
0.0
 11
616.1177533869761
 21
-561.398545287087
 31
0.0
  0
LINE
  5
15C3E
  8
01
 10
602.7091260044228
 20
-561.609133890634
 30
0.0
 11
602.9293169204232
 21
-561.5985452263408
 31
0.0
  0
LINE
  5
15C3F
  8
1DIM
  6
DASHED2
 10
602.4625476352808
 20
-563.4204563493963
 30
0.0
 11
622.4625473935303
 21
-563.4204563493963
 31
0.0
  0
LINE
  5
15C40
  8
1DIM
  6
DASHED2
 10
602.4625477831139
 20
-571.9204563493963
 30
0.0
 11
622.4625473935303
 21
-571.9204563493963
 31
0.0
  0
LINE
  5
15C41
  8
1DIM
  6
HIDDEN
 10
622.4625473935303
 20
-565.4204563493963
 30
0.0
 11
625.4625482391484
 21
-565.4204563493963
 31
0.0
  0
LINE
  5
15C42
  8
1DIM
  6
HIDDEN
 10
622.4625473935303
 20
-569.9204563493963
 30
0.0
 11
625.4625482391484
 21
-569.9204563493963
 31
0.0
  0
LINE
  5
15C43
  8
1DIM
 10
622.4625473935303
 20
-563.4204563493963
 30
0.0
 11
622.4625473935303
 21
-571.9204563493963
 31
0.0
  0
ARC
  5
15C92
  8
01
 10
604.7886189177623
 20
-562.3985452884358
 30
0.0
 40
1.000000001349381
 50
79.80993586950225
 51
84.5887863652732
  0
LINE
  5
15C95
  8
01
 10
616.17726290674
 20
-561.3970653077554
 30
0.0
 11
616.3419255242882
 21
-561.3924584195279
 31
0.0
  0
LINE
  5
15C96
  8
01
 10
616.3419255242882
 20
-561.3924584195279
 30
0.0
 11
616.5044869068629
 21
-561.3847429946313
 31
0.0
  0
LINE
  5
15C97
  8
01
 10
616.5044869068629
 20
-561.3847429946313
 30
0.0
 11
616.6649532739414
 21
-561.3739387517021
 31
0.0
  0
LINE
  5
15C98
  8
01
 10
616.6649532739414
 20
-561.3739387517021
 30
0.0
 11
616.8233308449996
 21
-561.3600654093766
 31
0.0
  0
LINE
  5
15C99
  8
01
 10
616.8233308449996
 20
-561.3600654093766
 30
0.0
 11
616.9796258395152
 21
-561.3431426862912
 31
0.0
  0
LINE
  5
15C9A
  8
01
 10
616.9796258395152
 20
-561.3431426862912
 30
0.0
 11
617.1338444769647
 21
-561.3231903010806
 31
0.0
  0
LINE
  5
15C9B
  8
01
 10
617.1338444769647
 20
-561.3231903010806
 30
0.0
 11
617.2859929768247
 21
-561.3002279723828
 31
0.0
  0
LINE
  5
15C9C
  8
01
 10
617.2859929768247
 20
-561.3002279723828
 30
0.0
 11
617.4360775585719
 21
-561.2742754188334
 31
0.0
  0
LINE
  5
15C9D
  8
01
 10
617.4360775585719
 20
-561.2742754188334
 30
0.0
 11
617.5841044416836
 21
-561.2453523590689
 31
0.0
  0
LINE
  5
15C9E
  8
01
 10
617.5841044416836
 20
-561.2453523590689
 30
0.0
 11
617.7300798456363
 21
-561.2134785117255
 31
0.0
  0
LINE
  5
15C9F
  8
01
 10
617.7300798456363
 20
-561.2134785117255
 30
0.0
 11
617.8740099899067
 21
-561.1786735954388
 31
0.0
  0
LINE
  5
15CA0
  8
01
 10
617.8740099899067
 20
-561.1786735954388
 30
0.0
 11
618.0159010939719
 21
-561.1409573288452
 31
0.0
  0
LINE
  5
15CA1
  8
01
 10
618.0159010939719
 20
-561.1409573288452
 30
0.0
 11
618.1557593773084
 21
-561.1003494305819
 31
0.0
  0
LINE
  5
15CA2
  8
01
 10
618.1557593773084
 20
-561.1003494305819
 30
0.0
 11
618.2935910593931
 21
-561.0568696192845
 31
0.0
  0
LINE
  5
15CA3
  8
01
 10
618.2935910593931
 20
-561.0568696192845
 30
0.0
 11
618.4294023597029
 21
-561.0105376135884
 31
0.0
  0
LINE
  5
15CA4
  8
01
 10
618.4294023597029
 20
-561.0105376135884
 30
0.0
 11
618.5631994977143
 21
-560.961373132131
 31
0.0
  0
LINE
  5
15CA5
  8
01
 10
618.5631994977143
 20
-560.961373132131
 30
0.0
 11
618.6949886929046
 21
-560.9093958935487
 31
0.0
  0
LINE
  5
15CA6
  8
01
 10
618.6949886929046
 20
-560.9093958935487
 30
0.0
 11
618.8247761647501
 21
-560.8546256164768
 31
0.0
  0
LINE
  5
15CA7
  8
01
 10
618.8247761647501
 20
-560.8546256164768
 30
0.0
 11
618.952568132728
 21
-560.7970820195519
 31
0.0
  0
LINE
  5
15CA8
  8
01
 10
618.952568132728
 20
-560.7970820195519
 30
0.0
 11
619.0783708163149
 21
-560.7367848214103
 31
0.0
  0
LINE
  5
15CA9
  8
01
 10
619.0783708163149
 20
-560.7367848214103
 30
0.0
 11
619.2021904349874
 21
-560.6737537406875
 31
0.0
  0
LINE
  5
15CAA
  8
01
 10
619.2021904349874
 20
-560.6737537406875
 30
0.0
 11
619.3240332082228
 21
-560.6080084960217
 31
0.0
  0
LINE
  5
15CAB
  8
01
 10
619.3240332082228
 20
-560.6080084960217
 30
0.0
 11
619.4439053554972
 21
-560.5395688060476
 31
0.0
  0
LINE
  5
15CAC
  8
01
 10
619.4439053554972
 20
-560.5395688060476
 30
0.0
 11
619.5618130962882
 21
-560.4684543894014
 31
0.0
  0
LINE
  5
15CAD
  8
01
 10
619.5618130962882
 20
-560.4684543894014
 30
0.0
 11
619.677762650072
 21
-560.3946849647195
 31
0.0
  0
LINE
  5
15CAE
  8
01
 10
619.677762650072
 20
-560.3946849647195
 30
0.0
 11
619.7917602363259
 21
-560.3182802506385
 31
0.0
  0
LINE
  5
15CAF
  8
01
 10
619.7917602363259
 20
-560.3182802506385
 30
0.0
 11
619.9038120745261
 21
-560.2392599657946
 31
0.0
  0
LINE
  5
15CB0
  8
01
 10
619.9038120745261
 20
-560.2392599657946
 30
0.0
 11
620.0139243841497
 21
-560.1576438288234
 31
0.0
  0
LINE
  5
15CB1
  8
01
 10
620.0139243841497
 20
-560.1576438288234
 30
0.0
 11
620.1221033846737
 21
-560.0734515583622
 31
0.0
  0
LINE
  5
15CB2
  8
01
 10
620.1221033846737
 20
-560.0734515583622
 30
0.0
 11
620.2283552955744
 21
-559.9867028730464
 31
0.0
  0
LINE
  5
15CB3
  8
01
 10
620.2283552955744
 20
-559.9867028730464
 30
0.0
 11
620.3326863363291
 21
-559.8974174915124
 31
0.0
  0
LINE
  5
15CB4
  8
01
 10
620.3326863363291
 20
-559.8974174915124
 30
0.0
 11
620.4351027264145
 21
-559.8056151323967
 31
0.0
  0
LINE
  5
15CB5
  8
01
 10
620.4351027264145
 20
-559.8056151323967
 30
0.0
 11
620.5356106853071
 21
-559.7113155143356
 31
0.0
  0
LINE
  5
15CB6
  8
01
 10
620.5356106853071
 20
-559.7113155143356
 30
0.0
 11
620.634216432484
 21
-559.6145383559647
 31
0.0
  0
LINE
  5
15CB7
  8
01
 10
620.634216432484
 20
-559.6145383559647
 30
0.0
 11
620.7309261874218
 21
-559.5153033759202
 31
0.0
  0
LINE
  5
15CB8
  8
01
 10
620.7309261874218
 20
-559.5153033759202
 30
0.0
 11
620.8257461695976
 21
-559.4136302928396
 31
0.0
  0
LINE
  5
15CB9
  8
01
 10
620.8257461695976
 20
-559.4136302928396
 30
0.0
 11
620.9186825984877
 21
-559.3095388253582
 31
0.0
  0
LINE
  5
15CBA
  8
01
 10
620.9186825984877
 20
-559.3095388253582
 30
0.0
 11
621.0097416935694
 21
-559.2030486921117
 31
0.0
  0
LINE
  5
15CBB
  8
01
 10
621.0097416935694
 20
-559.2030486921117
 30
0.0
 11
621.0989296743194
 21
-559.0941796117381
 31
0.0
  0
LINE
  5
15CBC
  8
01
 10
621.0989296743194
 20
-559.0941796117381
 30
0.0
 11
621.1862527602141
 21
-558.9829513028712
 31
0.0
  0
LINE
  5
15CBD
  8
01
 10
621.1862527602141
 20
-558.9829513028712
 30
0.0
 11
621.2717171707307
 21
-558.8693834841492
 31
0.0
  0
LINE
  5
15CBE
  8
01
 10
621.2717171707307
 20
-558.8693834841492
 30
0.0
 11
621.3553291253459
 21
-558.7534958742076
 31
0.0
  0
LINE
  5
15CBF
  8
01
 10
621.3553291253459
 20
-558.7534958742076
 30
0.0
 11
621.4370948435364
 21
-558.6353081916827
 31
0.0
  0
LINE
  5
15CC0
  8
01
 10
621.4370948435364
 20
-558.6353081916827
 30
0.0
 11
621.5170205447791
 21
-558.514840155211
 31
0.0
  0
LINE
  5
15CC1
  8
01
 10
621.5170205447791
 20
-558.514840155211
 30
0.0
 11
621.5951124485509
 21
-558.3921114834288
 31
0.0
  0
LINE
  5
15CC2
  8
01
 10
621.5951124485509
 20
-558.3921114834288
 30
0.0
 11
621.6713767743286
 21
-558.2671418949717
 31
0.0
  0
LINE
  5
15CC3
  8
01
 10
621.6713767743286
 20
-558.2671418949717
 30
0.0
 11
621.7458197415885
 21
-558.139951108476
 31
0.0
  0
LINE
  5
15CC4
  8
01
 10
621.7458197415885
 20
-558.139951108476
 30
0.0
 11
621.8184475698081
 21
-558.0105588425781
 31
0.0
  0
LINE
  5
15CC5
  8
01
 10
621.8184475698081
 20
-558.0105588425781
 30
0.0
 11
621.9582826870326
 21
-557.7452487471214
 31
0.0
  0
LINE
  5
15CC6
  8
01
 10
621.9582826870326
 20
-557.7452487471214
 30
0.0
 11
622.090931881816
 21
-557.4713693576919
 31
0.0
  0
LINE
  5
15CC7
  8
01
 10
622.090931881816
 20
-557.4713693576919
 30
0.0
 11
622.2164449099728
 21
-557.1890784233779
 31
0.0
  0
LINE
  5
15CC8
  8
01
 10
622.2164449099728
 20
-557.1890784233779
 30
0.0
 11
622.3348715273178
 21
-556.8985336932706
 31
0.0
  0
LINE
  5
15CC9
  8
01
 10
622.3348715273178
 20
-556.8985336932706
 30
0.0
 11
622.4462614896647
 21
-556.5998929164593
 31
0.0
  0
LINE
  5
15CCA
  8
01
 10
622.4462614896647
 20
-556.5998929164593
 30
0.0
 11
622.5506645528287
 21
-556.2933138420335
 31
0.0
  0
LINE
  5
15CCB
  8
01
 10
622.5506645528287
 20
-556.2933138420335
 30
0.0
 11
622.6481304726235
 21
-555.9789542190842
 31
0.0
  0
LINE
  5
15CCC
  8
01
 10
622.6481304726235
 20
-555.9789542190842
 30
0.0
 11
622.7387090048637
 21
-555.6569717967009
 31
0.0
  0
LINE
  5
15CCD
  8
01
 10
621.7726051182765
 20
-554.398545287087
 30
0.0
 11
608.0064471671642
 21
-554.398545287087
 31
0.0
  0
LINE
  5
15CCE
  8
01
 10
523.7048472171464
 20
-554.398545287087
 30
0.0
 11
537.4709398297373
 21
-554.398545287087
 31
0.0
  0
ARC
  5
15CCF
  8
01
 10
523.7048407835355
 20
-555.3986227149649
 30
0.0
 40
1.000077427898879
 50
89.9996314097849
 51
194.9709387268653
  0
LINE
  5
15CD1
  8
01
 10
608.006447029499
 20
-554.398545287087
 30
0.0
 11
537.470940056905
 21
-554.398545287087
 31
0.0
  0
ARC
  5
15CD4
  8
01
 10
621.7726048403681
 20
-555.3986015150535
 30
0.0
 40
1.00005622796646
 50
345.0274792040693
 51
89.99998407791487
  0
LINE
  5
15CD5
  8
01
 10
529.1257576659002
 20
-561.3920859901905
 30
0.0
 11
528.9659932323414
 21
-561.384342130385
 31
0.0
  0
LINE
  5
15CD6
  8
01
 10
528.9659932323414
 20
-561.384342130385
 30
0.0
 11
528.8082547638683
 21
-561.3736116964478
 31
0.0
  0
LINE
  5
15CD7
  8
01
 10
528.8082547638683
 20
-561.3736116964478
 30
0.0
 11
528.6525363448097
 21
-561.3599134438095
 31
0.0
  0
LINE
  5
15CD8
  8
01
 10
528.6525363448097
 20
-561.3599134438095
 30
0.0
 11
528.4988320594941
 21
-561.3432661279016
 31
0.0
  0
LINE
  5
15CD9
  8
01
 10
528.4988320594941
 20
-561.3432661279016
 30
0.0
 11
528.3471359922505
 21
-561.3236885041556
 31
0.0
  0
LINE
  5
15CDA
  8
01
 10
528.3471359922505
 20
-561.3236885041556
 30
0.0
 11
528.1974422274079
 21
-561.301199328002
 31
0.0
  0
LINE
  5
15CDB
  8
01
 10
528.1974422274079
 20
-561.301199328002
 30
0.0
 11
528.0497448492945
 21
-561.2758173548723
 31
0.0
  0
LINE
  5
15CDC
  8
01
 10
528.0497448492945
 20
-561.2758173548723
 30
0.0
 11
527.9040379422395
 21
-561.247561340198
 31
0.0
  0
LINE
  5
15CDD
  8
01
 10
527.9040379422395
 20
-561.247561340198
 30
0.0
 11
527.7603155905715
 21
-561.2164500394097
 31
0.0
  0
LINE
  5
15CDE
  8
01
 10
527.7603155905715
 20
-561.2164500394097
 30
0.0
 11
527.6185718786196
 21
-561.1825022079379
 31
0.0
  0
LINE
  5
15CDF
  8
01
 10
527.6185718786196
 20
-561.1825022079379
 30
0.0
 11
527.4788008907119
 21
-561.145736601216
 31
0.0
  0
LINE
  5
15CE0
  8
01
 10
527.4788008907119
 20
-561.145736601216
 30
0.0
 11
527.3409967111779
 21
-561.1061719746726
 31
0.0
  0
LINE
  5
15CE1
  8
01
 10
527.3409967111779
 20
-561.1061719746726
 30
0.0
 11
527.205153424346
 21
-561.0638270837412
 31
0.0
  0
LINE
  5
15CE2
  8
01
 10
527.205153424346
 20
-561.0638270837412
 30
0.0
 11
527.071265114545
 21
-561.0187206838514
 31
0.0
  0
LINE
  5
15CE3
  8
01
 10
527.071265114545
 20
-561.0187206838514
 30
0.0
 11
526.9393258661037
 21
-560.9708715304346
 31
0.0
  0
LINE
  5
15CE4
  8
01
 10
526.9393258661037
 20
-560.9708715304346
 30
0.0
 11
526.8093297633509
 21
-560.9202983789223
 31
0.0
  0
LINE
  5
15CE5
  8
01
 10
526.8093297633509
 20
-560.9202983789223
 30
0.0
 11
526.6812708906152
 21
-560.8670199847452
 31
0.0
  0
LINE
  5
15CE6
  8
01
 10
526.6812708906152
 20
-560.8670199847452
 30
0.0
 11
526.5551433322257
 21
-560.8110551033355
 31
0.0
  0
LINE
  5
15CE7
  8
01
 10
526.5551433322257
 20
-560.8110551033355
 30
0.0
 11
526.430941172511
 21
-560.7524224901231
 31
0.0
  0
LINE
  5
15CE8
  8
01
 10
526.430941172511
 20
-560.7524224901231
 30
0.0
 11
526.3086584958
 21
-560.6911409005402
 31
0.0
  0
LINE
  5
15CE9
  8
01
 10
526.3086584958
 20
-560.6911409005402
 30
0.0
 11
526.1882893864213
 21
-560.6272290900165
 31
0.0
  0
LINE
  5
15CEA
  8
01
 10
526.1882893864213
 20
-560.6272290900165
 30
0.0
 11
526.0698279287035
 21
-560.5607058139854
 31
0.0
  0
LINE
  5
15CEB
  8
01
 10
526.0698279287035
 20
-560.5607058139854
 30
0.0
 11
525.9532682069757
 21
-560.4915898278764
 31
0.0
  0
LINE
  5
15CEC
  8
01
 10
525.9532682069757
 20
-560.4915898278764
 30
0.0
 11
525.8386043055668
 21
-560.4198998871202
 31
0.0
  0
LINE
  5
15CED
  8
01
 10
525.8386043055668
 20
-560.4198998871202
 30
0.0
 11
525.7258303088054
 21
-560.3456547471501
 31
0.0
  0
LINE
  5
15CEE
  8
01
 10
525.7258303088054
 20
-560.3456547471501
 30
0.0
 11
525.6149403010199
 21
-560.2688731633957
 31
0.0
  0
LINE
  5
15CEF
  8
01
 10
525.6149403010199
 20
-560.2688731633957
 30
0.0
 11
525.5059283665396
 21
-560.1895738912876
 31
0.0
  0
LINE
  5
15CF0
  8
01
 10
525.5059283665396
 20
-560.1895738912876
 30
0.0
 11
525.3987885896931
 21
-560.1077756862592
 31
0.0
  0
LINE
  5
15CF1
  8
01
 10
525.3987885896931
 20
-560.1077756862592
 30
0.0
 11
525.2935150548092
 21
-560.0234973037391
 31
0.0
  0
LINE
  5
15CF2
  8
01
 10
525.2935150548092
 20
-560.0234973037391
 30
0.0
 11
525.1901018462165
 21
-559.9367574991606
 31
0.0
  0
LINE
  5
15CF3
  8
01
 10
525.1901018462165
 20
-559.9367574991606
 30
0.0
 11
525.0885430482438
 21
-559.8475750279536
 31
0.0
  0
LINE
  5
15CF4
  8
01
 10
525.0885430482438
 20
-559.8475750279536
 30
0.0
 11
524.9888327452202
 21
-559.7559686455493
 31
0.0
  0
LINE
  5
15CF5
  8
01
 10
524.9888327452202
 20
-559.7559686455493
 30
0.0
 11
524.8909650214744
 21
-559.6619571073793
 31
0.0
  0
LINE
  5
15CF6
  8
01
 10
524.8909650214744
 20
-559.6619571073793
 30
0.0
 11
524.7949339613347
 21
-559.5655591688751
 31
0.0
  0
LINE
  5
15CF7
  8
01
 10
524.7949339613347
 20
-559.5655591688751
 30
0.0
 11
524.7007336491304
 21
-559.4667935854673
 31
0.0
  0
LINE
  5
15CF8
  8
01
 10
524.7007336491304
 20
-559.4667935854673
 30
0.0
 11
524.6083581691901
 21
-559.3656791125873
 31
0.0
  0
LINE
  5
15CF9
  8
01
 10
524.6083581691901
 20
-559.3656791125873
 30
0.0
 11
524.5178016058424
 21
-559.2622345056657
 31
0.0
  0
LINE
  5
15CFA
  8
01
 10
524.5178016058424
 20
-559.2622345056657
 30
0.0
 11
524.4290580434163
 21
-559.156478520134
 31
0.0
  0
LINE
  5
15CFB
  8
01
 10
524.4290580434163
 20
-559.156478520134
 30
0.0
 11
524.3421215662406
 21
-559.0484299114237
 31
0.0
  0
LINE
  5
15CFC
  8
01
 10
524.3421215662406
 20
-559.0484299114237
 30
0.0
 11
524.256986258644
 21
-558.9381074349653
 31
0.0
  0
LINE
  5
15CFD
  8
01
 10
524.256986258644
 20
-558.9381074349653
 30
0.0
 11
524.173646204955
 21
-558.8255298461913
 31
0.0
  0
LINE
  5
15CFE
  8
01
 10
524.173646204955
 20
-558.8255298461913
 30
0.0
 11
524.092095489503
 21
-558.7107159005313
 31
0.0
  0
LINE
  5
15CFF
  8
01
 10
524.092095489503
 20
-558.7107159005313
 30
0.0
 11
524.0123281966162
 21
-558.5936843534168
 31
0.0
  0
LINE
  5
15D00
  8
01
 10
524.0123281966162
 20
-558.5936843534168
 30
0.0
 11
523.9343384106235
 21
-558.4744539602802
 31
0.0
  0
LINE
  5
15D01
  8
01
 10
523.9343384106235
 20
-558.4744539602802
 30
0.0
 11
523.8581202158539
 21
-558.3530434765512
 31
0.0
  0
LINE
  5
15D02
  8
01
 10
523.8581202158539
 20
-558.3530434765512
 30
0.0
 11
523.783667696636
 21
-558.2294716576612
 31
0.0
  0
LINE
  5
15D03
  8
01
 10
523.783667696636
 20
-558.2294716576612
 30
0.0
 11
523.7109749372987
 21
-558.1037572590426
 31
0.0
  0
LINE
  5
15D04
  8
01
 10
523.7109749372987
 20
-558.1037572590426
 30
0.0
 11
523.6400360221705
 21
-557.9759190361251
 31
0.0
  0
LINE
  5
15D05
  8
01
 10
523.6400360221705
 20
-557.9759190361251
 30
0.0
 11
523.5033960618573
 21
-557.7139461391193
 31
0.0
  0
LINE
  5
15D06
  8
01
 10
523.5033960618573
 20
-557.7139461391193
 30
0.0
 11
523.3737004903264
 21
-557.4437030100949
 31
0.0
  0
LINE
  5
15D07
  8
01
 10
523.3737004903264
 20
-557.4437030100949
 30
0.0
 11
523.2509019822082
 21
-557.1653396924999
 31
0.0
  0
LINE
  5
15D08
  8
01
 10
523.2509019822082
 20
-557.1653396924999
 30
0.0
 11
523.1349532121328
 21
-556.8790062297844
 31
0.0
  0
LINE
  5
15D09
  8
01
 10
523.1349532121328
 20
-556.8790062297844
 30
0.0
 11
523.0258068547305
 21
-556.5848526653976
 31
0.0
  0
LINE
  5
15D0A
  8
01
 10
523.0258068547305
 20
-556.5848526653976
 30
0.0
 11
522.9234155846316
 21
-556.2830290427887
 31
0.0
  0
LINE
  5
15D0B
  8
01
 10
522.9234155846316
 20
-556.2830290427887
 30
0.0
 11
522.8277320764657
 21
-555.9736854054058
 31
0.0
  0
LINE
  5
15D0C
  8
01
 10
522.8277320764657
 20
-555.9736854054058
 30
0.0
 11
522.7387090048637
 21
-555.6569717967009
 31
0.0
  0
LINE
  5
15D0D
  8
01
 10
529.2458618065687
 20
-561.398545287087
 30
0.0
 11
616.17726290674
 21
-561.3970653077554
 31
0.0
  0
LINE
  5
15D0E
  8
01
 10
529.1257576659002
 20
-561.3920859901905
 30
0.0
 11
529.2458618065687
 21
-561.398545287087
 31
0.0
  0
LINE
  5
15D0F
  8
01
 10
602.4625477831139
 20
-571.9204563493963
 30
0.0
 11
602.4625476352808
 21
-563.4204563224309
 31
0.0
  0
LINE
  5
15D1A
  8
1DIM
 10
642.0188362253112
 20
-505.5739957128318
 30
0.0
 11
642.0188362253112
 21
-590.28244564021
 31
0.0
  0
LINE
  5
15D1B
  8
1DIM
 10
651.0188362253112
 20
-505.5739956893942
 30
0.0
 11
651.018836282604
 21
-590.28244564021
 31
0.0
  0
LINE
  5
15D1C
  8
1DIM
 10
630.0188362201012
 20
-505.573995744083
 30
0.0
 11
630.0188362773939
 21
-590.28244564021
 31
0.0
  0
LINE
  5
15E20
  8
1CENTER
 10
316.3948503660984
 20
-572.3625783541813
 30
0.0
 11
316.3948503847594
 21
-563.1828875706318
 31
0.0
  0
ARC
  5
15EE5
  8
01
 10
1042.575169220181
 20
-527.500362297066
 30
0.0
 40
1.000552974760424
 50
234.9378721609879
 51
235.0148699412459
  0
ARC
  5
15EE6
  8
01
 10
1042.574875609624
 20
-527.5007768647308
 30
0.0
 40
1.00004503522032
 50
235.6721536229368
 51
270.0000543479375
  0
ARC
  5
15EE7
  8
01
 10
1319.998525166209
 20
-527.5007422424867
 30
0.0
 40
1.000079657512244
 50
270.000559409309
 51
304.327233593661
  0
LINE
  5
15EE8
  8
01
 10
1178.351999543328
 20
-528.5008219001236
 30
0.0
 11
1178.286705744376
 21
-528.5008219001236
 31
0.0
  0
LINE
  5
15EE9
  8
01
 10
1179.265221369309
 20
-528.5008219001245
 30
0.0
 11
1178.364422054283
 21
-528.5008219001236
 31
0.0
  0
LINE
  5
15EEA
  8
01
 10
1184.208989736746
 20
-528.5008219001318
 30
0.0
 11
1183.308283701314
 21
-528.5008219001309
 31
0.0
  0
LINE
  5
15EEB
  8
01
 10
1320.572949448634
 20
-516.6825050985797
 30
0.0
 11
1320.645666302179
 21
-516.7348971219387
 31
0.0
  0
LINE
  5
15EEC
  8
01
 10
1320.645666302179
 20
-516.7348971219387
 30
0.0
 11
1320.717238008424
 21
-516.7891089489192
 31
0.0
  0
LINE
  5
15EED
  8
01
 10
1320.717238008424
 20
-516.7891089489192
 30
0.0
 11
1320.787664567369
 21
-516.845111693751
 31
0.0
  0
LINE
  5
15EEE
  8
01
 10
1320.787664567369
 20
-516.845111693751
 30
0.0
 11
1320.856945979014
 21
-516.9028764706597
 31
0.0
  0
LINE
  5
15EEF
  8
01
 10
1320.856945979014
 20
-516.9028764706597
 30
0.0
 11
1320.925082243358
 21
-516.9623743938762
 31
0.0
  0
LINE
  5
15EF0
  8
01
 10
1320.925082243358
 20
-516.9623743938762
 30
0.0
 11
1320.992073360404
 21
-517.0235765776267
 31
0.0
  0
LINE
  5
15EF1
  8
01
 10
1320.992073360404
 20
-517.0235765776267
 30
0.0
 11
1321.057919330148
 21
-517.0864541361404
 31
0.0
  0
LINE
  5
15EF2
  8
01
 10
1321.057919330148
 20
-517.0864541361404
 30
0.0
 11
1321.122620152593
 21
-517.1509781836446
 31
0.0
  0
LINE
  5
15EF3
  8
01
 10
1321.122620152593
 20
-517.1509781836446
 30
0.0
 11
1321.186175827738
 21
-517.2171198343692
 31
0.0
  0
LINE
  5
15EF4
  8
01
 10
1321.186175827738
 20
-517.2171198343692
 30
0.0
 11
1321.248586355583
 21
-517.2848502025406
 31
0.0
  0
LINE
  5
15EF5
  8
01
 10
1321.248586355583
 20
-517.2848502025406
 30
0.0
 11
1321.309851736128
 21
-517.3541404023888
 31
0.0
  0
LINE
  5
15EF6
  8
01
 10
1321.309851736128
 20
-517.3541404023888
 30
0.0
 11
1321.369971969373
 21
-517.4249615481401
 31
0.0
  0
LINE
  5
15EF7
  8
01
 10
1321.369971969373
 20
-517.4249615481401
 30
0.0
 11
1321.428947055318
 21
-517.4972847540237
 31
0.0
  0
LINE
  5
15EF8
  8
01
 10
1321.428947055318
 20
-517.4972847540237
 30
0.0
 11
1321.486776993963
 21
-517.5710811342685
 31
0.0
  0
LINE
  5
15EF9
  8
01
 10
1321.486776993963
 20
-517.5710811342685
 30
0.0
 11
1321.543461785308
 21
-517.646321803102
 31
0.0
  0
LINE
  5
15EFA
  8
01
 10
1321.543461785308
 20
-517.646321803102
 30
0.0
 11
1321.599001429353
 21
-517.7229778747521
 31
0.0
  0
LINE
  5
15EFB
  8
01
 10
1321.599001429353
 20
-517.7229778747521
 30
0.0
 11
1321.653395926098
 21
-517.8010204634472
 31
0.0
  0
LINE
  5
15EFC
  8
01
 10
1321.653395926098
 20
-517.8010204634472
 30
0.0
 11
1321.706645275543
 21
-517.8804206834163
 31
0.0
  0
LINE
  5
15EFD
  8
01
 10
1321.706645275543
 20
-517.8804206834163
 30
0.0
 11
1321.809708532533
 21
-518.0431784740874
 31
0.0
  0
LINE
  5
15EFE
  8
01
 10
1321.809708532533
 20
-518.0431784740874
 30
0.0
 11
1321.908191200323
 21
-518.2110201605908
 31
0.0
  0
LINE
  5
15EFF
  8
01
 10
1321.908191200323
 20
-518.2110201605908
 30
0.0
 11
1322.002093278914
 21
-518.3837146567519
 31
0.0
  0
LINE
  5
15F00
  8
01
 10
1322.002093278914
 20
-518.3837146567519
 30
0.0
 11
1322.091414768305
 21
-518.5610308763978
 31
0.0
  0
LINE
  5
15F01
  8
01
 10
1322.091414768305
 20
-518.5610308763978
 30
0.0
 11
1322.176155668496
 21
-518.7427377333531
 31
0.0
  0
LINE
  5
15F02
  8
01
 10
1322.176155668496
 20
-518.7427377333531
 30
0.0
 11
1322.256315979487
 21
-518.9286041414432
 31
0.0
  0
LINE
  5
15F03
  8
01
 10
1322.256315979487
 20
-518.9286041414432
 30
0.0
 11
1322.331895701278
 21
-519.1183990144962
 31
0.0
  0
LINE
  5
15F04
  8
01
 10
1322.331895701278
 20
-519.1183990144962
 30
0.0
 11
1322.402894833869
 21
-519.3118912663356
 31
0.0
  0
LINE
  5
15F05
  8
01
 10
1322.402894833869
 20
-519.3118912663356
 30
0.0
 11
1322.469313377261
 21
-519.5088498107878
 31
0.0
  0
LINE
  5
15F06
  8
01
 10
1322.469313377261
 20
-519.5088498107878
 30
0.0
 11
1322.531151331453
 21
-519.709043561679
 31
0.0
  0
LINE
  5
15F07
  8
01
 10
1322.531151331453
 20
-519.709043561679
 30
0.0
 11
1322.588408696445
 21
-519.9122414328356
 31
0.0
  0
LINE
  5
15F08
  8
01
 10
1322.588408696445
 20
-519.9122414328356
 30
0.0
 11
1322.641085472238
 21
-520.1182123380811
 31
0.0
  0
LINE
  5
15F09
  8
01
 10
1322.641085472238
 20
-520.1182123380811
 30
0.0
 11
1322.689181658831
 21
-520.3267251912437
 31
0.0
  0
LINE
  5
15F0A
  8
01
 10
1322.689181658831
 20
-520.3267251912437
 30
0.0
 11
1322.732697256224
 21
-520.5375489061487
 31
0.0
  0
LINE
  5
15F0B
  8
01
 10
1322.732697256224
 20
-520.5375489061487
 30
0.0
 11
1322.771632264418
 21
-520.7504523966206
 31
0.0
  0
LINE
  5
15F0C
  8
01
 10
1322.771632264418
 20
-520.7504523966206
 30
0.0
 11
1322.805986683412
 21
-520.9652045764867
 31
0.0
  0
LINE
  5
15F0D
  8
01
 10
1322.805986683412
 20
-520.9652045764867
 30
0.0
 11
1322.835760513206
 21
-521.1815743595723
 31
0.0
  0
LINE
  5
15F0E
  8
01
 10
1322.835760513206
 20
-521.1815743595723
 30
0.0
 11
1322.860953753801
 21
-521.3993306597029
 31
0.0
  0
LINE
  5
15F0F
  8
01
 10
1322.860953753801
 20
-521.3993306597029
 30
0.0
 11
1322.881566405196
 21
-521.6182423907046
 31
0.0
  0
LINE
  5
15F10
  8
01
 10
1322.881566405196
 20
-521.6182423907046
 30
0.0
 11
1322.897598467392
 21
-521.838078466403
 31
0.0
  0
LINE
  5
15F11
  8
01
 10
1322.897598467392
 20
-521.838078466403
 30
0.0
 11
1322.909049940388
 21
-522.0586078006243
 31
0.0
  0
LINE
  5
15F12
  8
01
 10
1322.909049940388
 20
-522.0586078006243
 30
0.0
 11
1322.915920824184
 21
-522.2795993071929
 31
0.0
  0
LINE
  5
15F13
  8
01
 10
1322.915920824184
 20
-522.2795993071929
 30
0.0
 11
1322.918211118781
 21
-522.5008218999371
 31
0.0
  0
LINE
  5
15F14
  8
01
 10
1322.918211118781
 20
-522.5008218999371
 30
0.0
 11
1322.91592082418
 21
-522.7220444926058
 31
0.0
  0
LINE
  5
15F15
  8
01
 10
1322.91592082418
 20
-522.7220444926058
 30
0.0
 11
1322.909049940383
 21
-522.9430359991
 31
0.0
  0
LINE
  5
15F16
  8
01
 10
1322.909049940383
 20
-522.9430359991
 30
0.0
 11
1322.897598467389
 21
-523.1635653332467
 31
0.0
  0
LINE
  5
15F17
  8
01
 10
1322.897598467389
 20
-523.1635653332467
 30
0.0
 11
1322.881566405199
 21
-523.3834014088714
 31
0.0
  0
LINE
  5
15F18
  8
01
 10
1322.881566405199
 20
-523.3834014088714
 30
0.0
 11
1322.860953753813
 21
-523.6023131398003
 31
0.0
  0
LINE
  5
15F19
  8
01
 10
1322.860953753813
 20
-523.6023131398003
 30
0.0
 11
1322.83576051323
 21
-523.8200694398599
 31
0.0
  0
LINE
  5
15F1A
  8
01
 10
1322.83576051323
 20
-523.8200694398599
 30
0.0
 11
1322.805986683451
 21
-524.0364392228755
 31
0.0
  0
LINE
  5
15F1B
  8
01
 10
1322.805986683451
 20
-524.0364392228755
 30
0.0
 11
1322.771632264475
 21
-524.2511914026734
 31
0.0
  0
LINE
  5
15F1C
  8
01
 10
1322.771632264475
 20
-524.2511914026734
 30
0.0
 11
1322.732697256304
 21
-524.4640948930789
 31
0.0
  0
LINE
  5
15F1D
  8
01
 10
1322.732697256304
 20
-524.4640948930789
 30
0.0
 11
1322.689181658936
 21
-524.6749186079194
 31
0.0
  0
LINE
  5
15F1E
  8
01
 10
1322.689181658936
 20
-524.6749186079194
 30
0.0
 11
1322.641085472372
 21
-524.8834314610201
 31
0.0
  0
LINE
  5
15F1F
  8
01
 10
1322.641085472372
 20
-524.8834314610201
 30
0.0
 11
1322.588408696611
 21
-525.0894023662074
 31
0.0
  0
LINE
  5
15F20
  8
01
 10
1322.588408696611
 20
-525.0894023662074
 30
0.0
 11
1322.531151331655
 21
-525.2926002373067
 31
0.0
  0
LINE
  5
15F21
  8
01
 10
1322.531151331655
 20
-525.2926002373067
 30
0.0
 11
1322.469313377502
 21
-525.4927939881452
 31
0.0
  0
LINE
  5
15F22
  8
01
 10
1322.469313377502
 20
-525.4927939881452
 30
0.0
 11
1322.402894834153
 21
-525.6897525325473
 31
0.0
  0
LINE
  5
15F23
  8
01
 10
1322.402894834153
 20
-525.6897525325473
 30
0.0
 11
1322.331895701608
 21
-525.8832447843404
 31
0.0
  0
LINE
  5
15F24
  8
01
 10
1322.331895701608
 20
-525.8832447843404
 30
0.0
 11
1322.256315979867
 21
-526.0730396573506
 31
0.0
  0
LINE
  5
15F25
  8
01
 10
1322.256315979867
 20
-526.0730396573506
 30
0.0
 11
1322.17615566893
 21
-526.2589060654025
 31
0.0
  0
LINE
  5
15F26
  8
01
 10
1322.17615566893
 20
-526.2589060654025
 30
0.0
 11
1322.091414768796
 21
-526.4406129223232
 31
0.0
  0
LINE
  5
15F27
  8
01
 10
1322.091414768796
 20
-526.4406129223232
 30
0.0
 11
1322.002093279467
 21
-526.6179291419392
 31
0.0
  0
LINE
  5
15F28
  8
01
 10
1322.002093279467
 20
-526.6179291419392
 30
0.0
 11
1321.908191200941
 21
-526.7906236380757
 31
0.0
  0
LINE
  5
15F29
  8
01
 10
1321.908191200941
 20
-526.7906236380757
 30
0.0
 11
1321.80970853322
 21
-526.958465324559
 31
0.0
  0
LINE
  5
15F2A
  8
01
 10
1321.80970853322
 20
-526.958465324559
 30
0.0
 11
1321.706645276302
 21
-527.1212231152147
 31
0.0
  0
LINE
  5
15F2B
  8
01
 10
1321.706645276302
 20
-527.1212231152147
 30
0.0
 11
1321.653395926895
 21
-527.2006233351783
 31
0.0
  0
LINE
  5
15F2C
  8
01
 10
1321.653395926895
 20
-527.2006233351783
 30
0.0
 11
1321.599001430188
 21
-527.2786659238698
 31
0.0
  0
LINE
  5
15F2D
  8
01
 10
1321.599001430188
 20
-527.2786659238698
 30
0.0
 11
1321.543461786183
 21
-527.3553219955172
 31
0.0
  0
LINE
  5
15F2E
  8
01
 10
1321.543461786183
 20
-527.3553219955172
 30
0.0
 11
1321.486776994878
 21
-527.4305626643497
 31
0.0
  0
LINE
  5
15F2F
  8
01
 10
1321.486776994878
 20
-527.4305626643497
 30
0.0
 11
1321.428947056275
 21
-527.5043590445946
 31
0.0
  0
LINE
  5
15F30
  8
01
 10
1321.428947056275
 20
-527.5043590445946
 30
0.0
 11
1321.369971970373
 21
-527.57668225048
 31
0.0
  0
LINE
  5
15F31
  8
01
 10
1321.369971970373
 20
-527.57668225048
 30
0.0
 11
1321.309851737172
 21
-527.6475033962349
 31
0.0
  0
LINE
  5
15F32
  8
01
 10
1321.309851737172
 20
-527.6475033962349
 30
0.0
 11
1321.248586356671
 21
-527.7167935960877
 31
0.0
  0
LINE
  5
15F33
  8
01
 10
1321.248586356671
 20
-527.7167935960877
 30
0.0
 11
1321.186175828872
 21
-527.7845239642663
 31
0.0
  0
LINE
  5
15F34
  8
01
 10
1321.186175828872
 20
-527.7845239642663
 30
0.0
 11
1321.122620153774
 21
-527.8506656149982
 31
0.0
  0
LINE
  5
15F35
  8
01
 10
1321.122620153774
 20
-527.8506656149982
 30
0.0
 11
1321.057919331376
 21
-527.9151896625124
 31
0.0
  0
LINE
  5
15F36
  8
01
 10
1321.057919331376
 20
-527.9151896625124
 30
0.0
 11
1320.99207336168
 21
-527.9780672210379
 31
0.0
  0
LINE
  5
15F37
  8
01
 10
1320.99207336168
 20
-527.9780672210379
 30
0.0
 11
1320.925082244685
 21
-528.0392694048021
 31
0.0
  0
LINE
  5
15F38
  8
01
 10
1320.925082244685
 20
-528.0392694048021
 30
0.0
 11
1320.85694598039
 21
-528.0987673280322
 31
0.0
  0
LINE
  5
15F39
  8
01
 10
1320.85694598039
 20
-528.0987673280322
 30
0.0
 11
1320.787664568797
 21
-528.1565321049591
 31
0.0
  0
LINE
  5
15F3A
  8
01
 10
1320.787664568797
 20
-528.1565321049591
 30
0.0
 11
1320.717238009905
 21
-528.2125348498082
 31
0.0
  0
LINE
  5
15F3B
  8
01
 10
1320.717238009905
 20
-528.2125348498082
 30
0.0
 11
1320.645666303714
 21
-528.2667466768096
 31
0.0
  0
LINE
  5
15F3C
  8
01
 10
1320.645666303714
 20
-528.2667466768096
 30
0.0
 11
1320.572949450224
 21
-528.3191387001914
 31
0.0
  0
ARC
  5
15F3D
  8
01
 10
1042.574955932969
 20
-517.5011265226437
 30
0.0
 40
1.000304625842348
 50
90.00454645458451
 51
124.323254925492
  0
ARC
  5
15F3E
  8
01
 10
1042.574598978261
 20
-517.500469521209
 30
0.0
 40
0.9995607600749724
 50
125.0096266101576
 51
125.0621138199331
  0
LINE
  5
15F3F
  8
01
 10
1042.000462038683
 20
-528.3191387002778
 30
0.0
 11
1041.927745185189
 21
-528.2667466768978
 31
0.0
  0
LINE
  5
15F40
  8
01
 10
1041.927745185189
 20
-528.2667466768978
 30
0.0
 11
1041.856173478994
 21
-528.2125348498982
 31
0.0
  0
LINE
  5
15F41
  8
01
 10
1041.856173478994
 20
-528.2125348498982
 30
0.0
 11
1041.785746920098
 21
-528.1565321050491
 31
0.0
  0
LINE
  5
15F42
  8
01
 10
1041.785746920098
 20
-528.1565321050491
 30
0.0
 11
1041.716465508501
 21
-528.098767328125
 31
0.0
  0
LINE
  5
15F43
  8
01
 10
1041.716465508501
 20
-528.098767328125
 30
0.0
 11
1041.648329244203
 21
-528.0392694048949
 31
0.0
  0
LINE
  5
15F44
  8
01
 10
1041.648329244203
 20
-528.0392694048949
 30
0.0
 11
1041.581338127204
 21
-527.9780672211316
 31
0.0
  0
LINE
  5
15F45
  8
01
 10
1041.581338127204
 20
-527.9780672211316
 30
0.0
 11
1041.515492157504
 21
-527.915189662607
 31
0.0
  0
LINE
  5
15F46
  8
01
 10
1041.515492157504
 20
-527.915189662607
 30
0.0
 11
1041.450791335103
 21
-527.8506656150937
 31
0.0
  0
LINE
  5
15F47
  8
01
 10
1041.450791335103
 20
-527.8506656150937
 30
0.0
 11
1041.387235660001
 21
-527.7845239643618
 31
0.0
  0
LINE
  5
15F48
  8
01
 10
1041.387235660001
 20
-527.7845239643618
 30
0.0
 11
1041.324825132199
 21
-527.7167935961832
 31
0.0
  0
LINE
  5
15F49
  8
01
 10
1041.324825132199
 20
-527.7167935961832
 30
0.0
 11
1041.263559751695
 21
-527.6475033963313
 31
0.0
  0
LINE
  5
15F4A
  8
01
 10
1041.263559751695
 20
-527.6475033963313
 30
0.0
 11
1041.20343951849
 21
-527.5766822505764
 31
0.0
  0
LINE
  5
15F4B
  8
01
 10
1041.20343951849
 20
-527.5766822505764
 30
0.0
 11
1041.144464432585
 21
-527.5043590446901
 31
0.0
  0
LINE
  5
15F4C
  8
01
 10
1041.144464432585
 20
-527.5043590446901
 30
0.0
 11
1041.086634493978
 21
-527.4305626644452
 31
0.0
  0
LINE
  5
15F4D
  8
01
 10
1041.086634493978
 20
-527.4305626644452
 30
0.0
 11
1041.029949702671
 21
-527.3553219956127
 31
0.0
  0
LINE
  5
15F4E
  8
01
 10
1041.029949702671
 20
-527.3553219956127
 30
0.0
 11
1040.974410058663
 21
-527.2786659239653
 31
0.0
  0
LINE
  5
15F4F
  8
01
 10
1040.974410058663
 20
-527.2786659239653
 30
0.0
 11
1040.920015561953
 21
-527.2006233352729
 31
0.0
  0
LINE
  5
15F50
  8
01
 10
1040.920015561953
 20
-527.2006233352729
 30
0.0
 11
1040.866766212543
 21
-527.1212231153092
 31
0.0
  0
LINE
  5
15F51
  8
01
 10
1040.866766212543
 20
-527.1212231153092
 30
0.0
 11
1040.76370295562
 21
-526.9584653246509
 31
0.0
  0
LINE
  5
15F52
  8
01
 10
1040.76370295562
 20
-526.9584653246509
 30
0.0
 11
1040.665220287893
 21
-526.7906236381657
 31
0.0
  0
LINE
  5
15F53
  8
01
 10
1040.665220287893
 20
-526.7906236381657
 30
0.0
 11
1040.571318209362
 21
-526.6179291420274
 31
0.0
  0
LINE
  5
15F54
  8
01
 10
1040.571318209362
 20
-526.6179291420274
 30
0.0
 11
1040.481996720028
 21
-526.4406129224087
 31
0.0
  0
LINE
  5
15F55
  8
01
 10
1040.481996720028
 20
-526.4406129224087
 30
0.0
 11
1040.39725581989
 21
-526.2589060654843
 31
0.0
  0
LINE
  5
15F56
  8
01
 10
1040.39725581989
 20
-526.2589060654843
 30
0.0
 11
1040.317095508949
 21
-526.0730396574288
 31
0.0
  0
LINE
  5
15F57
  8
01
 10
1040.317095508949
 20
-526.0730396574288
 30
0.0
 11
1040.241515787204
 21
-525.883244784415
 31
0.0
  0
LINE
  5
15F58
  8
01
 10
1040.241515787204
 20
-525.883244784415
 30
0.0
 11
1040.170516654655
 21
-525.6897525326174
 31
0.0
  0
LINE
  5
15F59
  8
01
 10
1040.170516654655
 20
-525.6897525326174
 30
0.0
 11
1040.104098111302
 21
-525.4927939882107
 31
0.0
  0
LINE
  5
15F5A
  8
01
 10
1040.104098111302
 20
-525.4927939882107
 30
0.0
 11
1040.042260157147
 21
-525.2926002373677
 31
0.0
  0
LINE
  5
15F5B
  8
01
 10
1040.042260157147
 20
-525.2926002373677
 30
0.0
 11
1039.985002792187
 21
-525.0894023662638
 31
0.0
  0
LINE
  5
15F5C
  8
01
 10
1039.985002792187
 20
-525.0894023662638
 30
0.0
 11
1039.932326016424
 21
-524.883431461071
 31
0.0
  0
LINE
  5
15F5D
  8
01
 10
1039.932326016424
 20
-524.883431461071
 30
0.0
 11
1039.884229829858
 21
-524.6749186079649
 31
0.0
  0
LINE
  5
15F5E
  8
01
 10
1039.884229829858
 20
-524.6749186079649
 30
0.0
 11
1039.840714232487
 21
-524.464094893119
 31
0.0
  0
LINE
  5
15F5F
  8
01
 10
1039.840714232487
 20
-524.464094893119
 30
0.0
 11
1039.801779224314
 21
-524.251191402708
 31
0.0
  0
LINE
  5
15F60
  8
01
 10
1039.801779224314
 20
-524.251191402708
 30
0.0
 11
1039.767424805337
 21
-524.0364392229046
 31
0.0
  0
LINE
  5
15F61
  8
01
 10
1039.767424805337
 20
-524.0364392229046
 30
0.0
 11
1039.737650975557
 21
-523.8200694398827
 31
0.0
  0
LINE
  5
15F62
  8
01
 10
1039.737650975557
 20
-523.8200694398827
 30
0.0
 11
1039.712457734973
 21
-523.6023131398176
 31
0.0
  0
LINE
  5
15F63
  8
01
 10
1039.712457734973
 20
-523.6023131398176
 30
0.0
 11
1039.691845083585
 21
-523.3834014088823
 31
0.0
  0
LINE
  5
15F64
  8
01
 10
1039.691845083585
 20
-523.3834014088823
 30
0.0
 11
1039.675813021395
 21
-523.1635653332512
 31
0.0
  0
LINE
  5
15F65
  8
01
 10
1039.675813021395
 20
-523.1635653332512
 30
0.0
 11
1039.6643615484
 21
-522.9430359990981
 31
0.0
  0
LINE
  5
15F66
  8
01
 10
1039.6643615484
 20
-522.9430359990981
 30
0.0
 11
1039.657490664603
 21
-522.7220444925977
 31
0.0
  0
LINE
  5
15F67
  8
01
 10
1039.657490664603
 20
-522.7220444925977
 30
0.0
 11
1039.655200370002
 21
-522.5008218999226
 31
0.0
  0
LINE
  5
15F68
  8
01
 10
1039.655200370002
 20
-522.5008218999226
 30
0.0
 11
1039.657490664599
 21
-522.2795993071766
 31
0.0
  0
LINE
  5
15F69
  8
01
 10
1039.657490664599
 20
-522.2795993071766
 30
0.0
 11
1039.664361548396
 21
-522.0586078006042
 31
0.0
  0
LINE
  5
15F6A
  8
01
 10
1039.664361548396
 20
-522.0586078006042
 30
0.0
 11
1039.675813021393
 21
-521.8380784663802
 31
0.0
  0
LINE
  5
15F6B
  8
01
 10
1039.675813021393
 20
-521.8380784663802
 30
0.0
 11
1039.691845083589
 21
-521.61824239068
 31
0.0
  0
LINE
  5
15F6C
  8
01
 10
1039.691845083589
 20
-521.61824239068
 30
0.0
 11
1039.712457734985
 21
-521.3993306596756
 31
0.0
  0
LINE
  5
15F6D
  8
01
 10
1039.712457734985
 20
-521.3993306596756
 30
0.0
 11
1039.737650975581
 21
-521.1815743595423
 31
0.0
  0
LINE
  5
15F6E
  8
01
 10
1039.737650975581
 20
-521.1815743595423
 30
0.0
 11
1039.767424805376
 21
-520.9652045764549
 31
0.0
  0
LINE
  5
15F6F
  8
01
 10
1039.767424805376
 20
-520.9652045764549
 30
0.0
 11
1039.801779224371
 21
-520.7504523965861
 31
0.0
  0
LINE
  5
15F70
  8
01
 10
1039.801779224371
 20
-520.7504523965861
 30
0.0
 11
1039.840714232566
 21
-520.5375489061114
 31
0.0
  0
LINE
  5
15F71
  8
01
 10
1039.840714232566
 20
-520.5375489061114
 30
0.0
 11
1039.884229829961
 21
-520.3267251912055
 31
0.0
  0
LINE
  5
15F72
  8
01
 10
1039.884229829961
 20
-520.3267251912055
 30
0.0
 11
1039.932326016555
 21
-520.1182123380402
 31
0.0
  0
LINE
  5
15F73
  8
01
 10
1039.932326016555
 20
-520.1182123380402
 30
0.0
 11
1039.985002792349
 21
-519.9122414327919
 31
0.0
  0
LINE
  5
15F74
  8
01
 10
1039.985002792349
 20
-519.9122414327919
 30
0.0
 11
1040.042260157343
 21
-519.7090435616344
 31
0.0
  0
LINE
  5
15F75
  8
01
 10
1040.042260157343
 20
-519.7090435616344
 30
0.0
 11
1040.104098111537
 21
-519.5088498107414
 31
0.0
  0
LINE
  5
15F76
  8
01
 10
1040.104098111537
 20
-519.5088498107414
 30
0.0
 11
1040.170516654931
 21
-519.3118912662874
 31
0.0
  0
LINE
  5
15F77
  8
01
 10
1040.170516654931
 20
-519.3118912662874
 30
0.0
 11
1040.241515787524
 21
-519.1183990144461
 31
0.0
  0
LINE
  5
15F78
  8
01
 10
1040.241515787524
 20
-519.1183990144461
 30
0.0
 11
1040.317095509318
 21
-518.9286041413932
 31
0.0
  0
LINE
  5
15F79
  8
01
 10
1040.317095509318
 20
-518.9286041413932
 30
0.0
 11
1040.397255820311
 21
-518.7427377333004
 31
0.0
  0
LINE
  5
15F7A
  8
01
 10
1040.397255820311
 20
-518.7427377333004
 30
0.0
 11
1040.481996720504
 21
-518.5610308763441
 31
0.0
  0
LINE
  5
15F7B
  8
01
 10
1040.481996720504
 20
-518.5610308763441
 30
0.0
 11
1040.571318209897
 21
-518.3837146566982
 31
0.0
  0
LINE
  5
15F7C
  8
01
 10
1040.571318209897
 20
-518.3837146566982
 30
0.0
 11
1040.66522028849
 21
-518.2110201605362
 31
0.0
  0
LINE
  5
15F7D
  8
01
 10
1040.66522028849
 20
-518.2110201605362
 30
0.0
 11
1040.763702956284
 21
-518.043178474032
 31
0.0
  0
LINE
  5
15F7E
  8
01
 10
1040.763702956284
 20
-518.043178474032
 30
0.0
 11
1040.866766213277
 21
-517.8804206833609
 31
0.0
  0
LINE
  5
15F7F
  8
01
 10
1040.866766213277
 20
-517.8804206833609
 30
0.0
 11
1040.920015562723
 21
-517.8010204633927
 31
0.0
  0
LINE
  5
15F80
  8
01
 10
1040.920015562723
 20
-517.8010204633927
 30
0.0
 11
1040.97441005947
 21
-517.7229778746967
 31
0.0
  0
LINE
  5
15F81
  8
01
 10
1040.97441005947
 20
-517.7229778746967
 30
0.0
 11
1041.029949703516
 21
-517.6463218030465
 31
0.0
  0
LINE
  5
15F82
  8
01
 10
1041.029949703516
 20
-517.6463218030465
 30
0.0
 11
1041.086634494863
 21
-517.571081134214
 31
0.0
  0
LINE
  5
15F83
  8
01
 10
1041.086634494863
 20
-517.571081134214
 30
0.0
 11
1041.144464433509
 21
-517.4972847539691
 31
0.0
  0
LINE
  5
15F84
  8
01
 10
1041.144464433509
 20
-517.4972847539691
 30
0.0
 11
1041.203439519456
 21
-517.4249615480855
 31
0.0
  0
LINE
  5
15F85
  8
01
 10
1041.203439519456
 20
-517.4249615480855
 30
0.0
 11
1041.263559752702
 21
-517.3541404023342
 31
0.0
  0
LINE
  5
15F86
  8
01
 10
1041.263559752702
 20
-517.3541404023342
 30
0.0
 11
1041.324825133249
 21
-517.284850202487
 31
0.0
  0
LINE
  5
15F87
  8
01
 10
1041.324825133249
 20
-517.284850202487
 30
0.0
 11
1041.387235661095
 21
-517.2171198343156
 31
0.0
  0
LINE
  5
15F88
  8
01
 10
1041.387235661095
 20
-517.2171198343156
 30
0.0
 11
1041.450791336242
 21
-517.1509781835919
 31
0.0
  0
LINE
  5
15F89
  8
01
 10
1041.450791336242
 20
-517.1509781835919
 30
0.0
 11
1041.515492158688
 21
-517.0864541360877
 31
0.0
  0
LINE
  5
15F8A
  8
01
 10
1041.515492158688
 20
-517.0864541360877
 30
0.0
 11
1041.581338128435
 21
-517.0235765775749
 31
0.0
  0
LINE
  5
15F8B
  8
01
 10
1041.581338128435
 20
-517.0235765775749
 30
0.0
 11
1041.648329245482
 21
-516.9623743938253
 31
0.0
  0
LINE
  5
15F8C
  8
01
 10
1041.648329245482
 20
-516.9623743938253
 30
0.0
 11
1041.716465509828
 21
-516.9028764706097
 31
0.0
  0
LINE
  5
15F8D
  8
01
 10
1041.716465509828
 20
-516.9028764706097
 30
0.0
 11
1041.785746921475
 21
-516.845111693701
 31
0.0
  0
LINE
  5
15F8E
  8
01
 10
1041.785746921475
 20
-516.845111693701
 30
0.0
 11
1041.856173480422
 21
-516.789108948871
 31
0.0
  0
LINE
  5
15F8F
  8
01
 10
1041.856173480422
 20
-516.789108948871
 30
0.0
 11
1041.927745186669
 21
-516.7348971218905
 31
0.0
  0
LINE
  5
15F90
  8
01
 10
1041.927745186669
 20
-516.7348971218905
 30
0.0
 11
1042.000462040215
 21
-516.6825050985324
 31
0.0
  0
ARC
  5
15F91
  8
01
 10
1315.565788421032
 20
-555.061498662594
 30
0.0
 40
6.553616379805749
 50
304.4627366807032
 51
331.938534809686
  0
LINE
  5
15F92
  8
01
 10
1211.28670570854
 20
-574.7591564242
 30
0.0
 11
1211.286705708539
 21
-575.8816686755288
 31
0.0
  0
LINE
  5
15F93
  8
01
 10
1210.675079226789
 20
-561.7008221058902
 30
0.0
 11
1210.286705708869
 21
-561.7008221213316
 31
0.0
  0
LINE
  5
15F94
  8
01
 10
1210.986906461357
 20
-561.7008220322712
 30
0.0
 11
1210.786705744432
 21
-561.7008220936939
 31
0.0
  0
ARC
  5
15F95
  8
01
 10
1210.986949827419
 20
-562.0008648465425
 30
0.0
 40
0.3000426738359492
 50
0.0082533982359612
 51
89.81568359739778
  0
ARC
  5
15F96
  8
01
 10
1151.586461952959
 20
-562.000865066341
 30
0.0
 40
0.3000430371507468
 50
89.99178825723165
 51
179.9917399172749
  0
LINE
  5
15F97
  8
01
 10
1151.786705744435
 20
-561.7008220936939
 30
0.0
 11
1151.586504955711
 21
-561.7008220322712
 31
0.0
  0
LINE
  5
15F98
  8
01
 10
1152.286705708187
 20
-561.7008221213316
 30
0.0
 11
1151.898331840346
 21
-561.7008221058902
 31
0.0
  0
LINE
  5
15F99
  8
01
 10
1210.28670570854
 20
-561.7008221213316
 30
0.0
 11
1209.58670570854
 21
-561.7008221213316
 31
0.0
  0
LINE
  5
15F9A
  8
01
 10
1152.98670570854
 20
-561.7008221213316
 30
0.0
 11
1152.28670570854
 21
-561.7008221213316
 31
0.0
  0
ARC
  5
15F9B
  8
01
 10
1152.983380600381
 20
-579.4911872891932
 30
0.0
 40
0.3057142023302966
 50
270.631898737332
 51
312.4824817647919
  0
LINE
  5
15F9C
  8
01
 10
1153.28670570854
 20
-578.0368114263699
 30
0.0
 11
1153.28670570854
 21
-578.0958916867528
 31
0.0
  0
ARC
  5
15F9D
  8
01
 10
1209.590031001886
 20
-579.4911869094237
 30
0.0
 40
0.3057146074734152
 50
227.5175407079938
 51
269.3722231625745
  0
LINE
  5
15F9E
  8
01
 10
1209.28670570854
 20
-578.0368114263699
 30
0.0
 11
1209.28670570854
 21
-578.0958916867528
 31
0.0
  0
LINE
  5
15F9F
  8
01
 10
1042.577647613672
 20
-528.5008218999508
 30
0.0
 11
1058.286651607764
 21
-528.5008218999508
 31
0.0
  0
LINE
  5
15FA0
  8
01
 10
1304.28675988108
 20
-528.5008219001281
 30
0.0
 11
1319.998178964079
 21
-528.5008218999508
 31
0.0
  0
LINE
  5
15FA1
  8
01
 10
1304.286663122267
 20
-528.5008219001281
 30
0.0
 11
1058.286651607764
 21
-528.5008218999508
 31
0.0
  0
LINE
  5
15FA2
  8
01
 10
1042.575232524789
 20
-516.5008218999508
 30
0.0
 11
1058.286651607787
 21
-516.5008218999508
 31
0.0
  0
LINE
  5
15FA3
  8
01
 10
1304.286759881103
 20
-516.5008219001281
 30
0.0
 11
1319.998178964101
 21
-516.5008218999508
 31
0.0
  0
LINE
  5
15FA4
  8
01
 10
1304.286759881103
 20
-516.5008219001281
 30
0.0
 11
1058.286748366601
 21
-516.5008218999508
 31
0.0
  0
LINE
  5
15FA6
  8
01
 10
1046.391010756878
 20
-561.5008219000918
 30
0.0
 11
1156.162892967745
 21
-561.5008219000918
 31
0.0
  0
LINE
  5
15FA7
  8
01
 10
1206.410518389194
 20
-561.5008219000918
 30
0.0
 11
1315.790765435558
 21
-561.5008219000918
 31
0.0
  0
ARC
  5
15FA9
  8
01
 10
1041.252827142896
 20
-555.5008914494726
 30
0.0
 40
1.000069505609513
 50
90.00844326678305
 51
194.9715275456858
  0
LINE
  5
15FAA
  8
01
 10
1055.018955684101
 20
-554.5008219000918
 30
0.0
 11
1041.252836263301
 21
-554.5008219000918
 31
0.0
  0
LINE
  5
15FAB
  8
01
 10
1307.554452385741
 20
-554.5008219000918
 30
0.0
 11
1055.018955684101
 21
-554.5008219000918
 31
0.0
  0
ARC
  5
15FAD
  8
01
 10
1321.320585503958
 20
-555.5008904154208
 30
0.0
 40
1.000068515367614
 50
345.0283959585508
 51
90.00049986199737
  0
LINE
  5
15FAE
  8
01
 10
1307.554452385741
 20
-554.5008219000918
 30
0.0
 11
1321.320576779122
 21
-554.5008219000918
 31
0.0
  0
ARC
  5
15FB0
  8
01
 10
1315.757859284822
 20
-555.0150531166635
 30
0.0
 40
6.485852259098187
 50
269.7093070315976
 51
302.8313822548014
  0
ARC
  5
15FB1
  8
01
 10
1312.125921493356
 20
-553.1415313582527
 30
0.0
 40
10.49256773714393
 50
331.5230579801065
 51
345.5530803423486
  0
LINE
  5
15FB3
  8
01
 10
1040.286705672646
 20
-555.7592484133281
 30
0.0
 11
1040.377286921351
 21
-556.0812400293078
 31
0.0
  0
LINE
  5
15FB4
  8
01
 10
1040.377286921351
 20
-556.0812400293078
 30
0.0
 11
1040.474755957049
 21
-556.3956084007957
 31
0.0
  0
LINE
  5
15FB5
  8
01
 10
1040.474755957049
 20
-556.3956084007957
 30
0.0
 11
1040.579162539868
 21
-556.7021957650275
 31
0.0
  0
LINE
  5
15FB6
  8
01
 10
1040.579162539868
 20
-556.7021957650275
 30
0.0
 11
1040.690556429935
 21
-557.0008443592394
 31
0.0
  0
LINE
  5
15FB7
  8
01
 10
1040.690556429935
 20
-557.0008443592394
 30
0.0
 11
1040.808987387376
 21
-557.291396420668
 31
0.0
  0
LINE
  5
15FB8
  8
01
 10
1040.808987387376
 20
-557.291396420668
 30
0.0
 11
1040.93450517232
 21
-557.5736941865496
 31
0.0
  0
LINE
  5
15FB9
  8
01
 10
1040.93450517232
 20
-557.5736941865496
 30
0.0
 11
1041.067159544894
 21
-557.8475798941206
 31
0.0
  0
LINE
  5
15FBA
  8
01
 10
1041.067159544894
 20
-557.8475798941206
 30
0.0
 11
1041.207000265224
 21
-558.1128957806156
 31
0.0
  0
LINE
  5
15FBB
  8
01
 10
1041.207000265224
 20
-558.1128957806156
 30
0.0
 11
1041.279631055838
 21
-558.2422907400967
 31
0.0
  0
LINE
  5
15FBC
  8
01
 10
1041.279631055838
 20
-558.2422907400967
 30
0.0
 11
1041.354077093439
 21
-558.3694840832729
 31
0.0
  0
LINE
  5
15FBD
  8
01
 10
1041.354077093439
 20
-558.3694840832729
 30
0.0
 11
1041.430344598043
 21
-558.4944560897982
 31
0.0
  0
LINE
  5
15FBE
  8
01
 10
1041.430344598043
 20
-558.4944560897982
 30
0.0
 11
1041.508439789665
 21
-558.6171870393271
 31
0.0
  0
LINE
  5
15FBF
  8
01
 10
1041.508439789665
 20
-558.6171870393271
 30
0.0
 11
1041.588368888322
 21
-558.7376572115143
 31
0.0
  0
LINE
  5
15FC0
  8
01
 10
1041.588368888322
 20
-558.7376572115143
 30
0.0
 11
1041.67013811403
 21
-558.8558468860153
 31
0.0
  0
LINE
  5
15FC1
  8
01
 10
1041.67013811403
 20
-558.8558468860153
 30
0.0
 11
1041.753753686805
 21
-558.9717363424832
 31
0.0
  0
LINE
  5
15FC2
  8
01
 10
1041.753753686805
 20
-558.9717363424832
 30
0.0
 11
1041.839221826661
 21
-559.0853058605724
 31
0.0
  0
LINE
  5
15FC3
  8
01
 10
1041.839221826661
 20
-559.0853058605724
 30
0.0
 11
1041.926548753617
 21
-559.1965357199394
 31
0.0
  0
LINE
  5
15FC4
  8
01
 10
1041.926548753617
 20
-559.1965357199394
 30
0.0
 11
1042.015740687686
 21
-559.3054062002363
 31
0.0
  0
LINE
  5
15FC5
  8
01
 10
1042.015740687686
 20
-559.3054062002363
 30
0.0
 11
1042.106803848886
 21
-559.4118975811195
 31
0.0
  0
LINE
  5
15FC6
  8
01
 10
1042.106803848886
 20
-559.4118975811195
 30
0.0
 11
1042.199744457231
 21
-559.5159901422419
 31
0.0
  0
LINE
  5
15FC7
  8
01
 10
1042.199744457231
 20
-559.5159901422419
 30
0.0
 11
1042.294568732739
 21
-559.6176641632599
 31
0.0
  0
LINE
  5
15FC8
  8
01
 10
1042.294568732739
 20
-559.6176641632599
 30
0.0
 11
1042.391282895425
 21
-559.7168999238263
 31
0.0
  0
LINE
  5
15FC9
  8
01
 10
1042.391282895425
 20
-559.7168999238263
 30
0.0
 11
1042.489893165304
 21
-559.8136777035968
 31
0.0
  0
LINE
  5
15FCA
  8
01
 10
1042.489893165304
 20
-559.8136777035968
 30
0.0
 11
1042.590405762393
 21
-559.9079777822251
 31
0.0
  0
LINE
  5
15FCB
  8
01
 10
1042.590405762393
 20
-559.9079777822251
 30
0.0
 11
1042.692826906708
 21
-559.9997804393658
 31
0.0
  0
LINE
  5
15FCC
  8
01
 10
1042.692826906708
 20
-559.9997804393658
 30
0.0
 11
1042.797162818264
 21
-560.0890659546737
 31
0.0
  0
LINE
  5
15FCD
  8
01
 10
1042.797162818264
 20
-560.0890659546737
 30
0.0
 11
1042.903419717078
 21
-560.1758146078043
 31
0.0
  0
LINE
  5
15FCE
  8
01
 10
1042.903419717078
 20
-560.1758146078043
 30
0.0
 11
1043.011603823166
 21
-560.2600066784105
 31
0.0
  0
LINE
  5
15FCF
  8
01
 10
1043.011603823166
 20
-560.2600066784105
 30
0.0
 11
1043.121721356542
 21
-560.3416224461469
 31
0.0
  0
LINE
  5
15FD0
  8
01
 10
1043.121721356542
 20
-560.3416224461469
 30
0.0
 11
1043.233778537224
 21
-560.420642190669
 31
0.0
  0
LINE
  5
15FD1
  8
01
 10
1043.233778537224
 20
-560.420642190669
 30
0.0
 11
1043.347781585227
 21
-560.4970461916307
 31
0.0
  0
LINE
  5
15FD2
  8
01
 10
1043.347781585227
 20
-560.4970461916307
 30
0.0
 11
1043.463736720567
 21
-560.5708147286875
 31
0.0
  0
LINE
  5
15FD3
  8
01
 10
1043.463736720567
 20
-560.5708147286875
 30
0.0
 11
1043.58165016326
 21
-560.6419280814923
 31
0.0
  0
LINE
  5
15FD4
  8
01
 10
1043.58165016326
 20
-560.6419280814923
 30
0.0
 11
1043.701528133322
 21
-560.7103665297007
 31
0.0
  0
LINE
  5
15FD5
  8
01
 10
1043.701528133322
 20
-560.7103665297007
 30
0.0
 11
1043.823376850768
 21
-560.7761103529672
 31
0.0
  0
LINE
  5
15FD6
  8
01
 10
1043.823376850768
 20
-560.7761103529672
 30
0.0
 11
1043.947202535615
 21
-560.8391398309457
 31
0.0
  0
LINE
  5
15FD7
  8
01
 10
1043.947202535615
 20
-560.8391398309457
 30
0.0
 11
1044.073011407879
 21
-560.8994352432917
 31
0.0
  0
LINE
  5
15FD8
  8
01
 10
1044.073011407879
 20
-560.8994352432917
 30
0.0
 11
1044.200809687575
 21
-560.956976869659
 31
0.0
  0
LINE
  5
15FD9
  8
01
 10
1044.200809687575
 20
-560.956976869659
 30
0.0
 11
1044.33060359472
 21
-561.0117449897014
 31
0.0
  0
LINE
  5
15FDA
  8
01
 10
1044.33060359472
 20
-561.0117449897014
 30
0.0
 11
1044.462399349329
 21
-561.0637198830752
 31
0.0
  0
LINE
  5
15FDB
  8
01
 10
1044.462399349329
 20
-561.0637198830752
 30
0.0
 11
1044.596203171418
 21
-561.1128818294335
 31
0.0
  0
LINE
  5
15FDC
  8
01
 10
1044.596203171418
 20
-561.1128818294335
 30
0.0
 11
1044.732021281004
 21
-561.1592111084317
 31
0.0
  0
LINE
  5
15FDD
  8
01
 10
1044.732021281004
 20
-561.1592111084317
 30
0.0
 11
1044.869859898101
 21
-561.2026879997236
 31
0.0
  0
LINE
  5
15FDE
  8
01
 10
1044.869859898101
 20
-561.2026879997236
 30
0.0
 11
1045.009725242727
 21
-561.2432927829648
 31
0.0
  0
LINE
  5
15FDF
  8
01
 10
1045.009725242727
 20
-561.2432927829648
 30
0.0
 11
1045.151623534896
 21
-561.2810057378081
 31
0.0
  0
LINE
  5
15FE0
  8
01
 10
1045.151623534896
 20
-561.2810057378081
 30
0.0
 11
1045.295560994625
 21
-561.31580714391
 31
0.0
  0
LINE
  5
15FE1
  8
01
 10
1045.295560994625
 20
-561.31580714391
 30
0.0
 11
1045.44154384193
 21
-561.3476772809233
 31
0.0
  0
LINE
  5
15FE2
  8
01
 10
1045.44154384193
 20
-561.3476772809233
 30
0.0
 11
1045.589578296826
 21
-561.3765964285037
 31
0.0
  0
LINE
  5
15FE3
  8
01
 10
1045.589578296826
 20
-561.3765964285037
 30
0.0
 11
1045.739670579331
 21
-561.4025448663049
 31
0.0
  0
LINE
  5
15FE4
  8
01
 10
1045.739670579331
 20
-561.4025448663049
 30
0.0
 11
1046.391010756878
 21
-561.5008219000918
 31
0.0
  0
LINE
  5
15FE5
  8
01
 10
1211.286705639928
 20
-561.9462327490526
 30
0.0
 11
1211.286705618014
 21
-561.9015820009788
 31
0.0
  0
LINE
  5
15FE6
  8
01
 10
1151.286705799065
 20
-561.9015820009761
 30
0.0
 11
1151.286705777152
 21
-561.946232749058
 31
0.0
  0
LINE
  5
15FE7
  8
01
 10
1151.898331840346
 20
-561.7008221058902
 30
0.0
 11
1151.786705744446
 21
-561.7008220936939
 31
0.0
  0
LINE
  5
15FE8
  8
01
 10
1153.58670570854
 20
-561.7008218610488
 30
0.0
 11
1153.041294622778
 21
-561.7008219064762
 31
0.0
  0
LINE
  5
15FE9
  8
01
 10
1208.98670570854
 20
-561.7008218610488
 30
0.0
 11
1153.58670570854
 21
-561.7008218610488
 31
0.0
  0
LINE
  5
15FEA
  8
01
 10
1209.532116794291
 20
-561.7008219064762
 30
0.0
 11
1208.98670570854
 21
-561.7008218610488
 31
0.0
  0
LINE
  5
15FEB
  8
01
 10
1210.786705744422
 20
-561.7008220936939
 30
0.0
 11
1210.675079226791
 21
-561.7008221058902
 31
0.0
  0
LINE
  5
15FEC
  8
01
 10
1211.28670570854
 20
-561.5015832900406
 30
0.0
 11
1211.28670570854
 21
-561.9015820003285
 31
0.0
  0
LINE
  5
15FED
  8
01
 10
1211.269816513015
 20
-561.9015832900411
 30
0.0
 11
1211.285477047232
 21
-561.9015832900411
 31
0.0
  0
LINE
  5
15FEE
  8
01
 10
1151.287934371885
 20
-561.9015832900411
 30
0.0
 11
1151.303594904065
 21
-561.9015832900411
 31
0.0
  0
LINE
  5
15FEF
  8
01
 10
1151.28670570854
 20
-561.5015832900406
 30
0.0
 11
1151.28670570854
 21
-561.9015832900411
 31
0.0
  0
LINE
  5
15FF0
  8
1DIM
 10
1210.28670570854
 20
-574.7591564240245
 30
0.0
 11
1209.58670570854
 21
-574.7591564240245
 31
0.0
  0
LINE
  5
15FF1
  8
01
 10
1210.28670570854
 20
-579.7958916869691
 30
0.0
 11
1209.586709627825
 21
-579.7958916869691
 31
0.0
  0
LINE
  5
15FF2
  8
1DIM
 10
1152.28670570854
 20
-574.7591564240245
 30
0.0
 11
1151.28670570854
 21
-574.7591564241127
 31
0.0
  0
LINE
  5
15FF3
  8
1DIM
 10
1211.28670570854
 20
-574.7591564241127
 30
0.0
 11
1210.28670570854
 21
-574.7591564240245
 31
0.0
  0
ARC
  5
15FF4
  8
01
 10
1152.286705705665
 20
-578.795891689844
 30
0.0
 40
0.9999999971253004
 50
180.0000000106304
 51
270.0000001647073
  0
ARC
  5
15FF5
  8
01
 10
1210.286705711414
 20
-578.7958916898431
 30
0.0
 40
0.9999999971255704
 50
270.0000018931639
 51
359.9999999893174
  0
LINE
  5
15FF6
  8
01
 10
1151.28670570854
 20
-574.7591564241127
 30
0.0
 11
1151.286705708548
 21
-562.0008218115552
 31
0.0
  0
LINE
  5
15FF7
  8
01
 10
1151.28670570854
 20
-578.7951998930537
 30
0.0
 11
1151.28670570854
 21
-574.7591564241127
 31
0.0
  0
LINE
  5
15FF8
  8
01
 10
1211.28670570854
 20
-575.8816686755279
 30
0.0
 11
1211.28670570854
 21
-578.7951998930537
 31
0.0
  0
LINE
  5
15FF9
  8
01
 10
1211.286705708528
 20
-562.0008216260655
 30
0.0
 11
1211.28670570854
 21
-574.7591564241127
 31
0.0
  0
LINE
  5
15FFA
  8
1DIM
 10
1152.98670570854
 20
-574.7591564240245
 30
0.0
 11
1152.28670570854
 21
-574.7591564240245
 31
0.0
  0
LINE
  5
15FFB
  8
01
 10
1152.98670570854
 20
-579.7958916869691
 30
0.0
 11
1152.286705744434
 21
-579.7958916869691
 31
0.0
  0
LINE
  5
15FFC
  8
1DIM
 10
1209.286705708534
 20
-574.759156426632
 30
0.0
 11
1208.986705708514
 21
-574.7591564240199
 31
0.0
  0
LINE
  5
15FFD
  8
1DIM
 10
1153.286705708545
 20
-574.759156426632
 30
0.0
 11
1153.58670570854
 21
-574.7591564240199
 31
0.0
  0
LINE
  5
15FFE
  8
01
 10
1153.28670570854
 20
-562.0008221099458
 30
0.0
 11
1153.28670570854
 21
-574.7591564240245
 31
0.0
  0
LINE
  5
15FFF
  8
01
 10
1209.28670570854
 20
-562.0008221099458
 30
0.0
 11
1209.28670570854
 21
-574.7591564240245
 31
0.0
  0
LINE
  5
16000
  8
1DIM
 10
1152.98670570854
 20
-574.7591564240245
 30
0.0
 11
1153.28670570854
 21
-574.7591564240245
 31
0.0
  0
ARC
  5
16001
  8
01
 10
1152.986705708539
 20
-579.4958916869689
 30
0.0
 40
0.3000000000003382
 50
312.6269861057948
 51
0.0
  0
LINE
  5
16002
  8
01
 10
1153.28670570854
 20
-578.0958916867528
 30
0.0
 11
1153.28670570854
 21
-579.4958916869689
 31
0.0
  0
LINE
  5
16003
  8
01
 10
1153.28670570854
 20
-574.7591564240245
 30
0.0
 11
1153.28670570854
 21
-578.0368114263699
 31
0.0
  0
LINE
  5
16004
  8
1DIM
 10
1209.58670570854
 20
-574.7591564240245
 30
0.0
 11
1209.28670570854
 21
-574.7591564240245
 31
0.0
  0
ARC
  5
16005
  8
01
 10
1209.58670570854
 20
-579.4958916869689
 30
0.0
 40
0.3000000000000114
 50
180.0
 51
227.3730138186255
  0
LINE
  5
16006
  8
01
 10
1209.28670570854
 20
-578.0958916867528
 30
0.0
 11
1209.28670570854
 21
-579.4958916869689
 31
0.0
  0
LINE
  5
16007
  8
01
 10
1209.28670570854
 20
-574.7591564240245
 30
0.0
 11
1209.28670570854
 21
-578.0368114263699
 31
0.0
  0
ARC
  5
16008
  8
01
 10
1152.98670571826
 20
-562.0008221116138
 30
0.0
 40
0.2999999902799857
 50
0.0000003185497009
 51
90.00000185642615
  0
ARC
  5
16009
  8
01
 10
1209.58670569882
 20
-562.0008221116129
 30
0.0
 40
0.2999999902799004
 50
89.99999814361293
 51
179.9999996816066
  0
LINE
  5
1600A
  8
1DIM
 10
1153.58670570854
 20
-574.7591564240199
 30
0.0
 11
1208.986705708514
 21
-574.7591564240199
 31
0.0
  0
LINE
  5
1600B
  8
01
 10
1151.286705744434
 20
-554.5008219000918
 30
0.0
 11
1151.286705744434
 21
-528.5008219000179
 31
0.0
  0
LINE
  5
1600C
  8
01
 10
1211.286705744434
 20
-554.5008219000918
 30
0.0
 11
1211.286705744434
 21
-528.500821900061
 31
0.0
  0
LINE
  5
1600D
  8
01
 10
1209.532116672001
 20
-579.7951998930537
 30
0.0
 11
1153.041294615707
 21
-579.7951998930537
 31
0.0
  0
LINE
  5
160A8
  8
1CENTER
 10
1199.754880247527
 20
-567.7727329624065
 30
0.0
 11
1208.818527825567
 21
-567.7727329624065
 31
0.0
  0
LINE
  5
160A9
  8
1CENTER
 10
1204.286704045878
 20
-572.3625783541813
 30
0.0
 11
1204.286704027217
 21
-563.1828875706318
 31
0.0
  0
LINE
  5
160AA
  8
01
 10
1156.162892967745
 20
-561.5008219000918
 30
0.0
 11
1206.410518389194
 21
-561.5008219000918
 31
0.0
  0
LINE
  5
160AE
  8
1CENTER
 10
1153.754873748554
 20
-567.7727330559175
 30
0.0
 11
1162.818521326595
 21
-567.7727330559175
 31
0.0
  0
LINE
  5
160AF
  8
1CENTER
 10
1158.286697546906
 20
-572.3625784476923
 30
0.0
 11
1158.286697528245
 21
-563.1828876641428
 31
0.0
  0
LINE
  5
160FF
  8
1CENTER
 10
1158.286804201826
 20
-572.3625783541813
 30
0.0
 11
1158.286804220487
 21
-563.1828875706318
 31
0.0
  0
LINE
  5
162EA
  8
01
 10
661.4627118202326
 20
-567.6705228138561
 30
0.0
 11
656.1627109642441
 21
-569.1705074574659
 31
0.0
  0
LINE
  5
162EB
  8
01
 10
656.1627109642441
 20
-569.1705074574659
 30
0.0
 11
622.4625430475157
 21
-569.170409813492
 31
0.0
  0
LINE
  5
162EC
  8
01
 10
621.4625465377122
 20
-569.1704069160693
 30
0.0
 11
621.4625453964096
 21
-571.1704534519724
 31
0.0
  0
LINE
  5
162ED
  8
01
 10
621.4625453964096
 20
-571.1704534519724
 30
0.0
 11
620.3625419062189
 21
-571.1704502647862
 31
0.0
  0
ARC
  5
162EE
  8
01
 10
620.3625462523681
 20
-569.6704502647924
 30
0.0
 40
1.5
 50
179.9999673048513
 51
269.9998339893319
  0
LINE
  5
162EF
  8
01
 10
618.8625462523684
 20
-569.6704494088355
 30
0.0
 11
618.8625485349204
 21
-565.6704494088253
 31
0.0
  0
ARC
  5
162F0
  8
01
 10
620.3625485349202
 20
-565.6704502647823
 30
0.0
 40
1.5
 50
89.99983398933196
 51
179.9999673048513
  0
LINE
  5
162F1
  8
01
 10
620.3625528810694
 20
-564.1704502647885
 30
0.0
 11
621.4625493908756
 21
-564.1704534519546
 31
0.0
  0
LINE
  5
162F2
  8
01
 10
621.4625493908756
 20
-564.1704534519546
 30
0.0
 11
621.4625482496261
 21
-566.1704069160617
 31
0.0
  0
LINE
  5
162F3
  8
01
 10
622.4625517398142
 20
-566.1704098135045
 30
0.0
 11
656.1627126761589
 21
-566.1705074574581
 31
0.0
  0
LINE
  5
162F4
  8
01
 10
656.1627126761589
 20
-566.1705074574581
 30
0.0
 11
661.4627118202326
 21
-567.6705228138561
 31
0.0
  0
LINE
  5
162F5
  8
1CENTER
 10
664.4236264113936
 20
-567.6705779288054
 30
0.0
 11
615.7120631363983
 21
-567.6704367903214
 31
0.0
  0
LINE
  5
162F6
  8
01
 10
659.3627111956988
 20
-568.7648870791433
 30
0.0
 11
660.1627123154807
 21
-566.802554308209
 31
0.0
  0
LINE
  5
162F7
  8
01
 10
660.1627123154807
 20
-566.802554308209
 30
0.0
 11
660.4744804672395
 21
-567.3908317865812
 31
0.0
  0
LINE
  5
162F8
  8
01
 10
626.9625462522582
 20
-569.6704228519512
 30
0.0
 11
627.7625485348049
 21
-565.6704251698874
 31
0.0
  0
LINE
  5
162F9
  8
01
 10
638.1625462522156
 20
-569.6704553031992
 30
0.0
 11
638.9625485347663
 21
-565.6704576211354
 31
0.0
  0
LINE
  5
162FA
  8
01
 10
646.3625462521815
 20
-569.6704790621486
 30
0.0
 11
647.1625485347321
 21
-565.6704813800848
 31
0.0
  0
LINE
  5
162FB
  8
01
 10
647.1625485347321
 20
-565.6704813800848
 30
0.0
 11
647.2625482494126
 21
-566.1704816698293
 31
0.0
  0
LINE
  5
162FC
  8
01
 10
647.8625465374943
 20
-569.1704834082967
 30
0.0
 11
647.9625462521747
 21
-569.6704836980413
 31
0.0
  0
LINE
  5
162FD
  8
01
 10
638.9625485347663
 20
-565.6704576211354
 30
0.0
 11
639.0625482494468
 21
-566.1704579108799
 31
0.0
  0
LINE
  5
162FE
  8
01
 10
640.5625485347599
 20
-565.6704622570279
 30
0.0
 11
640.6625482494399
 21
-566.1704625467725
 31
0.0
  0
LINE
  5
162FF
  8
01
 10
646.2625465375011
 20
-569.1704787724042
 30
0.0
 11
646.3625462521815
 21
-569.6704790621486
 31
0.0
  0
LINE
  5
16300
  8
01
 10
639.6625465375288
 20
-569.1704596493473
 30
0.0
 11
639.7625462522093
 21
-569.6704599390918
 31
0.0
  0
LINE
  5
16301
  8
01
 10
639.7625462522093
 20
-569.6704599390918
 30
0.0
 11
640.5625485347599
 21
-565.6704622570279
 31
0.0
  0
LINE
  5
16302
  8
01
 10
658.5627125738806
 20
-566.3497355679083
 30
0.0
 11
658.7454751178508
 21
-566.9014855612561
 31
0.0
  0
LINE
  5
16303
  8
01
 10
655.362712961483
 20
-565.6705051395106
 30
0.0
 11
655.4627126761638
 21
-566.1705054292552
 31
0.0
  0
LINE
  5
16304
  8
01
 10
653.7627129614903
 20
-565.6705005036181
 30
0.0
 11
653.8627126761702
 21
-566.1705007933625
 31
0.0
  0
LINE
  5
16305
  8
01
 10
656.9627128322804
 20
-565.896916827608
 30
0.0
 11
657.0919819751647
 21
-566.4335109374301
 31
0.0
  0
LINE
  5
16306
  8
01
 10
657.6499427812472
 20
-568.7495971694093
 30
0.0
 11
657.7627109373135
 21
-569.2176959513
 31
0.0
  0
LINE
  5
16307
  8
01
 10
654.4627109642523
 20
-569.17050253183
 30
0.0
 11
654.5627106789323
 21
-569.6705028215745
 31
0.0
  0
LINE
  5
16308
  8
01
 10
656.062710964246
 20
-569.1705071677226
 30
0.0
 11
656.1627106789259
 21
-569.670507457467
 31
0.0
  0
LINE
  5
16309
  8
01
 10
659.2112767238845
 20
-568.3077147997387
 30
0.0
 11
659.3627111956988
 21
-568.7648870791433
 31
0.0
  0
LINE
  5
1630A
  8
01
 10
657.7627109373135
 20
-569.2176959513
 30
0.0
 11
658.5627125738806
 21
-566.3497355679083
 31
0.0
  0
LINE
  5
1630B
  8
01
 10
654.5627106789323
 20
-569.6705028215745
 30
0.0
 11
655.362712961483
 21
-565.6705051395106
 31
0.0
  0
LINE
  5
1630C
  8
01
 10
656.1627106789259
 20
-569.670507457467
 30
0.0
 11
656.9627128322804
 21
-565.896916827608
 31
0.0
  0
LINE
  5
1630D
  8
01
 10
652.9627106789395
 20
-569.6704981856819
 30
0.0
 11
653.7627129614903
 21
-565.6705005036181
 31
0.0
  0
LINE
  5
1630E
  8
01
 10
630.1625462522451
 20
-569.6704321237364
 30
0.0
 11
630.9625485347913
 21
-565.6704344416726
 31
0.0
  0
LINE
  5
1630F
  8
01
 10
630.9625485347913
 20
-565.6704344416726
 30
0.0
 11
631.0625482494721
 21
-566.170434731417
 31
0.0
  0
LINE
  5
16310
  8
01
 10
631.662546537562
 20
-569.1704364698844
 30
0.0
 11
631.7625462522428
 21
-569.670436759629
 31
0.0
  0
LINE
  5
16311
  8
01
 10
629.3625485347981
 20
-565.6704298057799
 30
0.0
 11
629.4625482494789
 21
-566.1704300955245
 31
0.0
  0
LINE
  5
16312
  8
01
 10
627.7625485348049
 20
-565.6704251698874
 30
0.0
 11
627.8625482494857
 21
-566.1704254596319
 31
0.0
  0
LINE
  5
16313
  8
01
 10
630.0625465375642
 20
-569.1704318339919
 30
0.0
 11
630.1625462522451
 21
-569.6704321237364
 31
0.0
  0
LINE
  5
16314
  8
01
 10
628.462546537571
 20
-569.1704271980993
 30
0.0
 11
628.5625462522514
 21
-569.6704274878438
 31
0.0
  0
LINE
  5
16315
  8
01
 10
628.5625462522514
 20
-569.6704274878438
 30
0.0
 11
629.3625485347981
 21
-565.6704298057799
 31
0.0
  0
LINE
  5
16316
  8
01
 10
635.7625485347758
 20
-565.6704483493503
 30
0.0
 11
635.8625482494563
 21
-566.1704486390947
 31
0.0
  0
LINE
  5
16317
  8
01
 10
637.362548534773
 20
-565.6704529852428
 30
0.0
 11
637.4625482494536
 21
-566.1704532749873
 31
0.0
  0
LINE
  5
16318
  8
01
 10
632.562548534789
 20
-565.6704390775651
 30
0.0
 11
632.6625482494699
 21
-566.1704393673095
 31
0.0
  0
LINE
  5
16319
  8
01
 10
634.1625485347821
 20
-565.6704437134576
 30
0.0
 11
634.2625482494631
 21
-566.1704440032022
 31
0.0
  0
LINE
  5
1631A
  8
01
 10
638.0625465375356
 20
-569.1704550134548
 30
0.0
 11
638.1625462522156
 21
-569.6704553031992
 31
0.0
  0
LINE
  5
1631B
  8
01
 10
636.4625465375416
 20
-569.1704503775621
 30
0.0
 11
636.5625462522224
 21
-569.6704506673067
 31
0.0
  0
LINE
  5
1631C
  8
01
 10
633.2625465375552
 20
-569.1704411057771
 30
0.0
 11
633.362546252236
 21
-569.6704413955215
 31
0.0
  0
LINE
  5
1631D
  8
01
 10
634.8625465375484
 20
-569.1704457416696
 30
0.0
 11
634.9625462522292
 21
-569.6704460314141
 31
0.0
  0
LINE
  5
1631E
  8
01
 10
634.9625462522292
 20
-569.6704460314141
 30
0.0
 11
635.7625485347758
 21
-565.6704483493503
 31
0.0
  0
LINE
  5
1631F
  8
01
 10
636.5625462522224
 20
-569.6704506673067
 30
0.0
 11
637.362548534773
 21
-565.6704529852428
 31
0.0
  0
LINE
  5
16320
  8
01
 10
633.362546252236
 20
-569.6704413955215
 30
0.0
 11
634.1625485347821
 21
-565.6704437134576
 31
0.0
  0
LINE
  5
16321
  8
01
 10
631.7625462522428
 20
-569.670436759629
 30
0.0
 11
632.562548534789
 21
-565.6704390775651
 31
0.0
  0
LINE
  5
16322
  8
01
 10
621.4625482496261
 20
-566.1704069160617
 30
0.0
 11
621.4625465377122
 21
-569.1704069160693
 31
0.0
  0
LINE
  5
16323
  8
01
 10
622.4625459449317
 20
-568.1704156299677
 30
0.0
 11
622.9625485348207
 21
-565.6704112622097
 31
0.0
  0
LINE
  5
16324
  8
01
 10
622.9625485348207
 20
-565.6704112622097
 30
0.0
 11
623.0625482495016
 21
-566.1704115519542
 31
0.0
  0
LINE
  5
16325
  8
01
 10
623.6625465375869
 20
-569.1704132904216
 30
0.0
 11
623.7625462522677
 21
-569.6704135801662
 31
0.0
  0
LINE
  5
16326
  8
01
 10
625.2625465375801
 20
-569.1704179263141
 30
0.0
 11
625.3625462522609
 21
-569.6704182160587
 31
0.0
  0
LINE
  5
16327
  8
01
 10
625.3625462522609
 20
-569.6704182160587
 30
0.0
 11
626.1625485348071
 21
-565.6704205339948
 31
0.0
  0
LINE
  5
16328
  8
01
 10
624.5625485348139
 20
-565.6704158981023
 30
0.0
 11
624.6625482494948
 21
-566.1704161878467
 31
0.0
  0
LINE
  5
16329
  8
01
 10
626.1625485348071
 20
-565.6704205339948
 30
0.0
 11
626.262548249488
 21
-566.1704208237393
 31
0.0
  0
LINE
  5
1632A
  8
01
 10
623.7625462522677
 20
-569.6704135801662
 30
0.0
 11
624.5625485348139
 21
-565.6704158981023
 31
0.0
  0
LINE
  5
1632B
  8
01
 10
626.8625465375778
 20
-569.1704225622068
 30
0.0
 11
626.9625462522582
 21
-569.6704228519512
 31
0.0
  0
LINE
  5
1632D
  8
01
 10
642.1625485347531
 20
-565.6704668929206
 30
0.0
 11
642.2625482494335
 21
-566.170467182665
 31
0.0
  0
LINE
  5
1632E
  8
01
 10
641.2625465375224
 20
-569.1704642852399
 30
0.0
 11
641.3625462522025
 21
-569.6704645749844
 31
0.0
  0
LINE
  5
1632F
  8
01
 10
641.3625462522025
 20
-569.6704645749844
 30
0.0
 11
642.1625485347531
 21
-565.6704668929206
 31
0.0
  0
LINE
  5
16330
  8
01
 10
643.7625485347468
 20
-565.6704715288131
 30
0.0
 11
643.8625482494267
 21
-566.1704718185575
 31
0.0
  0
LINE
  5
16331
  8
01
 10
642.8625465375156
 20
-569.1704689211324
 30
0.0
 11
642.9625462521961
 21
-569.670469210877
 31
0.0
  0
LINE
  5
16332
  8
01
 10
642.9625462521961
 20
-569.670469210877
 30
0.0
 11
643.7625485347468
 21
-565.6704715288131
 31
0.0
  0
LINE
  5
16333
  8
01
 10
645.36254853474
 20
-565.6704761647056
 30
0.0
 11
645.4625482494204
 21
-566.1704764544502
 31
0.0
  0
LINE
  5
16334
  8
01
 10
644.4625465375093
 20
-569.170473557025
 30
0.0
 11
644.5625462521892
 21
-569.6704738467695
 31
0.0
  0
LINE
  5
16335
  8
01
 10
644.5625462521892
 20
-569.6704738467695
 30
0.0
 11
645.36254853474
 21
-565.6704761647056
 31
0.0
  0
LINE
  5
16336
  8
01
 10
648.7625485347253
 20
-565.6704860159774
 30
0.0
 11
648.8625482494053
 21
-566.1704863057219
 31
0.0
  0
LINE
  5
16337
  8
01
 10
647.9625462521747
 20
-569.6704836980413
 30
0.0
 11
648.7625485347253
 21
-565.6704860159774
 31
0.0
  0
LINE
  5
16338
  8
01
 10
650.3625485347185
 20
-565.67049065187
 30
0.0
 11
650.462548249399
 21
-566.1704909416144
 31
0.0
  0
LINE
  5
16339
  8
01
 10
649.4625465374879
 20
-569.1704880441893
 30
0.0
 11
649.5625462521679
 21
-569.6704883339338
 31
0.0
  0
LINE
  5
1633A
  8
01
 10
649.5625462521679
 20
-569.6704883339338
 30
0.0
 11
650.3625485347185
 21
-565.67049065187
 31
0.0
  0
LINE
  5
1633B
  8
01
 10
651.9625485347117
 20
-565.6704952877625
 30
0.0
 11
652.0625482493922
 21
-566.170495577507
 31
0.0
  0
LINE
  5
1633C
  8
01
 10
651.062546537481
 20
-569.1704926800819
 30
0.0
 11
651.1625462521611
 21
-569.6704929698263
 31
0.0
  0
LINE
  5
1633D
  8
01
 10
651.1625462521611
 20
-569.6704929698263
 30
0.0
 11
651.9625485347117
 21
-565.6704952877625
 31
0.0
  0
LINE
  5
1633E
  8
01
 10
652.8627109642596
 20
-569.1704978959374
 30
0.0
 11
652.9627106789395
 21
-569.6704981856819
 31
0.0
  0
LINE
  5
16353
  8
01
 10
216.4056819628165
 20
-397.5599957932815
 30
0.0
 11
336.9057360996084
 21
-397.5599958033123
 31
0.0
  0
LINE
  5
1635A
  8
01
 10
362.3948631949669
 20
-359.0418947668869
 30
0.0
 11
363.8948478385767
 21
-364.3418956228754
 31
0.0
  0
LINE
  5
1635B
  8
01
 10
363.8948478385767
 20
-364.3418956228754
 30
0.0
 11
363.8947501946028
 21
-398.0420635396038
 31
0.0
  0
LINE
  5
1635C
  8
01
 10
363.8947472971801
 20
-399.0420600494073
 30
0.0
 11
365.8947938330832
 21
-399.0420611907099
 31
0.0
  0
LINE
  5
1635D
  8
01
 10
365.8947938330832
 20
-399.0420611907099
 30
0.0
 11
365.8947906458969
 21
-400.1420646809006
 31
0.0
  0
ARC
  5
1635E
  8
01
 10
364.3947906459032
 20
-400.1420603347514
 30
0.0
 40
1.5
 50
269.9999673048505
 51
359.9998339893319
  0
LINE
  5
1635F
  8
01
 10
364.3947897899462
 20
-401.6420603347511
 30
0.0
 11
360.3947897899361
 21
-401.6420580521991
 31
0.0
  0
ARC
  5
16360
  8
01
 10
360.3947906458931
 20
-400.1420580521993
 30
0.0
 40
1.5
 50
179.999833989332
 51
269.9999673048505
  0
LINE
  5
16361
  8
01
 10
358.8947906458993
 20
-400.1420537060501
 30
0.0
 11
358.8947938330654
 21
-399.0420571962439
 31
0.0
  0
LINE
  5
16362
  8
01
 10
358.8947938330654
 20
-399.0420571962439
 30
0.0
 11
360.8947472971724
 21
-399.0420583374934
 31
0.0
  0
LINE
  5
16363
  8
01
 10
360.8947501946153
 20
-398.0420548473053
 30
0.0
 11
360.8948478385689
 21
-364.3418939109606
 31
0.0
  0
LINE
  5
16364
  8
01
 10
360.8948478385689
 20
-364.3418939109606
 30
0.0
 11
362.3948631949669
 21
-359.0418947668869
 31
0.0
  0
LINE
  5
16365
  8
1CENTER
 10
362.3949183099162
 20
-356.0809801757259
 30
0.0
 11
362.3947771714322
 21
-404.7925434507212
 31
0.0
  0
LINE
  5
16366
  8
01
 10
363.489227460254
 20
-361.1418953914207
 30
0.0
 11
361.5268946893198
 21
-360.3418942716388
 31
0.0
  0
LINE
  5
16367
  8
01
 10
361.5268946893198
 20
-360.3418942716388
 30
0.0
 11
362.115172167692
 21
-360.03012611988
 31
0.0
  0
LINE
  5
16368
  8
01
 10
364.394763233062
 20
-393.5420603348613
 30
0.0
 11
360.3947655509982
 21
-392.7420580523146
 31
0.0
  0
LINE
  5
16369
  8
01
 10
364.39479568431
 20
-382.3420603349039
 30
0.0
 11
360.3947980022461
 21
-381.5420580523532
 31
0.0
  0
LINE
  5
1636A
  8
01
 10
364.3948194432594
 20
-374.142060334938
 30
0.0
 11
360.3948217611955
 21
-373.3420580523874
 31
0.0
  0
LINE
  5
1636B
  8
01
 10
360.3948217611955
 20
-373.3420580523874
 30
0.0
 11
360.8948220509401
 21
-373.2420583377069
 31
0.0
  0
LINE
  5
1636C
  8
01
 10
363.8948237894075
 20
-372.6420600496252
 30
0.0
 11
364.394824079152
 21
-372.5420603349448
 31
0.0
  0
LINE
  5
1636D
  8
01
 10
360.3947980022461
 20
-381.5420580523532
 30
0.0
 11
360.8947982919907
 21
-381.4420583376727
 31
0.0
  0
LINE
  5
1636E
  8
01
 10
360.3948026381387
 20
-379.9420580523596
 30
0.0
 11
360.8948029278832
 21
-379.8420583376796
 31
0.0
  0
LINE
  5
1636F
  8
01
 10
363.894819153515
 20
-374.2420600496184
 30
0.0
 11
364.3948194432594
 21
-374.142060334938
 31
0.0
  0
LINE
  5
16370
  8
01
 10
363.8948000304581
 20
-380.8420600495907
 30
0.0
 11
364.3948003202025
 21
-380.7420603349102
 31
0.0
  0
LINE
  5
16371
  8
01
 10
364.3948003202025
 20
-380.7420603349102
 30
0.0
 11
360.3948026381387
 21
-379.9420580523596
 31
0.0
  0
LINE
  5
16372
  8
01
 10
361.0740759490191
 20
-361.9418940132389
 30
0.0
 11
361.6258259423669
 21
-361.7591314692687
 31
0.0
  0
LINE
  5
16373
  8
01
 10
360.3948455206214
 20
-365.1418936256365
 30
0.0
 11
360.894845810366
 21
-365.0418939109557
 31
0.0
  0
LINE
  5
16374
  8
01
 10
360.3948408847289
 20
-366.7418936256292
 30
0.0
 11
360.8948411744733
 21
-366.6418939109493
 31
0.0
  0
LINE
  5
16375
  8
01
 10
360.6212572087188
 20
-363.5418937548391
 30
0.0
 11
361.1578513185409
 21
-363.4126246119548
 31
0.0
  0
LINE
  5
16376
  8
01
 10
363.4739375505201
 20
-362.8546638058723
 30
0.0
 11
363.9420363324108
 21
-362.741895649806
 31
0.0
  0
LINE
  5
16377
  8
01
 10
363.8948429129408
 20
-366.0418956228672
 30
0.0
 11
364.3948432026853
 21
-365.9418959081872
 31
0.0
  0
LINE
  5
16378
  8
01
 10
363.8948475488334
 20
-364.4418956228735
 30
0.0
 11
364.3948478385778
 21
-364.3418959081936
 31
0.0
  0
LINE
  5
16379
  8
01
 10
363.0320551808495
 20
-361.293329863235
 30
0.0
 11
363.489227460254
 21
-361.1418953914207
 31
0.0
  0
LINE
  5
1637A
  8
01
 10
363.9420363324108
 20
-362.741895649806
 30
0.0
 11
361.0740759490191
 21
-361.9418940132389
 31
0.0
  0
LINE
  5
1637B
  8
01
 10
364.3948432026853
 20
-365.9418959081872
 30
0.0
 11
360.3948455206214
 21
-365.1418936256365
 31
0.0
  0
LINE
  5
1637C
  8
01
 10
364.3948478385778
 20
-364.3418959081936
 30
0.0
 11
360.6212572087188
 21
-363.5418937548391
 31
0.0
  0
LINE
  5
1637D
  8
01
 10
364.3948385667927
 20
-367.54189590818
 30
0.0
 11
360.3948408847289
 21
-366.7418936256292
 31
0.0
  0
LINE
  5
1637E
  8
01
 10
364.3947725048472
 20
-390.3420603348744
 30
0.0
 11
360.3947748227833
 21
-389.5420580523282
 31
0.0
  0
LINE
  5
1637F
  8
01
 10
360.3947748227833
 20
-389.5420580523282
 30
0.0
 11
360.8947751125278
 21
-389.4420583376474
 31
0.0
  0
LINE
  5
16380
  8
01
 10
363.8947768509952
 20
-388.8420600495575
 30
0.0
 11
364.3947771407397
 21
-388.7420603348767
 31
0.0
  0
LINE
  5
16381
  8
01
 10
360.3947701868907
 20
-391.1420580523214
 30
0.0
 11
360.8947704766352
 21
-391.0420583376406
 31
0.0
  0
LINE
  5
16382
  8
01
 10
360.3947655509982
 20
-392.7420580523146
 30
0.0
 11
360.8947658407427
 21
-392.6420583376338
 31
0.0
  0
LINE
  5
16383
  8
01
 10
363.8947722151026
 20
-390.4420600495553
 30
0.0
 11
364.3947725048472
 21
-390.3420603348744
 31
0.0
  0
LINE
  5
16384
  8
01
 10
363.8947675792101
 20
-392.0420600495485
 30
0.0
 11
364.3947678689545
 21
-391.9420603348681
 31
0.0
  0
LINE
  5
16385
  8
01
 10
364.3947678689545
 20
-391.9420603348681
 30
0.0
 11
360.3947701868907
 21
-391.1420580523214
 31
0.0
  0
LINE
  5
16386
  8
01
 10
360.3947887304611
 20
-384.7420580523437
 30
0.0
 11
360.8947890202055
 21
-384.6420583376632
 31
0.0
  0
LINE
  5
16387
  8
01
 10
360.3947933663536
 20
-383.1420580523464
 30
0.0
 11
360.894793656098
 21
-383.0420583376659
 31
0.0
  0
LINE
  5
16388
  8
01
 10
360.3947794586759
 20
-387.9420580523305
 30
0.0
 11
360.8947797484203
 21
-387.8420583376496
 31
0.0
  0
LINE
  5
16389
  8
01
 10
360.3947840945684
 20
-386.3420580523374
 30
0.0
 11
360.894784384313
 21
-386.2420583376564
 31
0.0
  0
LINE
  5
1638A
  8
01
 10
363.8947953945656
 20
-382.4420600495839
 30
0.0
 11
364.39479568431
 21
-382.3420603349039
 31
0.0
  0
LINE
  5
1638B
  8
01
 10
363.8947907586729
 20
-384.0420600495779
 30
0.0
 11
364.3947910484175
 21
-383.9420603348971
 31
0.0
  0
LINE
  5
1638C
  8
01
 10
363.8947814868878
 20
-387.2420600495643
 30
0.0
 11
364.3947817766323
 21
-387.1420603348835
 31
0.0
  0
LINE
  5
1638D
  8
01
 10
363.8947861227804
 20
-385.6420600495711
 30
0.0
 11
364.3947864125249
 21
-385.5420603348903
 31
0.0
  0
LINE
  5
1638E
  8
01
 10
364.3947864125249
 20
-385.5420603348903
 30
0.0
 11
360.3947887304611
 21
-384.7420580523437
 31
0.0
  0
LINE
  5
1638F
  8
01
 10
364.3947910484175
 20
-383.9420603348971
 30
0.0
 11
360.3947933663536
 21
-383.1420580523464
 31
0.0
  0
LINE
  5
16390
  8
01
 10
364.3947817766323
 20
-387.1420603348835
 30
0.0
 11
360.3947840945684
 21
-386.3420580523374
 31
0.0
  0
LINE
  5
16391
  8
01
 10
364.3947771407397
 20
-388.7420603348767
 30
0.0
 11
360.3947794586759
 21
-387.9420580523305
 31
0.0
  0
LINE
  5
16392
  8
01
 10
360.8947472971724
 20
-399.0420583374934
 30
0.0
 11
363.8947472971801
 21
-399.0420600494073
 31
0.0
  0
LINE
  5
16393
  8
01
 10
362.8947560110785
 20
-398.0420606421878
 30
0.0
 11
360.3947516433204
 21
-397.5420580522988
 31
0.0
  0
LINE
  5
16394
  8
01
 10
360.3947516433204
 20
-397.5420580522988
 30
0.0
 11
360.894751933065
 21
-397.4420583376179
 31
0.0
  0
LINE
  5
16395
  8
01
 10
363.8947536715324
 20
-396.8420600495326
 30
0.0
 11
364.3947539612769
 21
-396.7420603348518
 31
0.0
  0
LINE
  5
16396
  8
01
 10
363.8947583074249
 20
-395.2420600495394
 30
0.0
 11
364.3947585971695
 21
-395.1420603348586
 31
0.0
  0
LINE
  5
16397
  8
01
 10
364.3947585971695
 20
-395.1420603348586
 30
0.0
 11
360.3947609151056
 21
-394.3420580523124
 31
0.0
  0
LINE
  5
16398
  8
01
 10
360.3947562792131
 20
-395.9420580523056
 30
0.0
 11
360.8947565689575
 21
-395.8420583376247
 31
0.0
  0
LINE
  5
16399
  8
01
 10
360.3947609151056
 20
-394.3420580523124
 30
0.0
 11
360.8947612048501
 21
-394.2420583376315
 31
0.0
  0
LINE
  5
1639A
  8
01
 10
364.3947539612769
 20
-396.7420603348518
 30
0.0
 11
360.3947562792131
 21
-395.9420580523056
 31
0.0
  0
LINE
  5
1639B
  8
01
 10
363.8947629433176
 20
-393.6420600495417
 30
0.0
 11
364.394763233062
 21
-393.5420603348613
 31
0.0
  0
LINE
  5
1639D
  8
01
 10
360.3948072740313
 20
-378.3420580523664
 30
0.0
 11
360.8948075637758
 21
-378.242058337686
 31
0.0
  0
LINE
  5
1639E
  8
01
 10
363.8948046663506
 20
-379.2420600495971
 30
0.0
 11
364.3948049560952
 21
-379.142060334917
 31
0.0
  0
LINE
  5
1639F
  8
01
 10
364.3948049560952
 20
-379.142060334917
 30
0.0
 11
360.3948072740313
 21
-378.3420580523664
 31
0.0
  0
LINE
  5
163A0
  8
01
 10
360.3948119099239
 20
-376.7420580523727
 30
0.0
 11
360.8948121996683
 21
-376.6420583376928
 31
0.0
  0
LINE
  5
163A1
  8
01
 10
363.8948093022432
 20
-377.6420600496039
 30
0.0
 11
364.3948095919877
 21
-377.5420603349233
 31
0.0
  0
LINE
  5
163A2
  8
01
 10
364.3948095919877
 20
-377.5420603349233
 30
0.0
 11
360.3948119099239
 21
-376.7420580523727
 31
0.0
  0
LINE
  5
163A3
  8
01
 10
360.3948165458164
 20
-375.1420580523795
 30
0.0
 11
360.894816835561
 21
-375.0420583376991
 31
0.0
  0
LINE
  5
163A4
  8
01
 10
363.8948139381358
 20
-376.0420600496102
 30
0.0
 11
364.3948142278803
 21
-375.9420603349303
 31
0.0
  0
LINE
  5
163A5
  8
01
 10
364.3948142278803
 20
-375.9420603349303
 30
0.0
 11
360.3948165458164
 21
-375.1420580523795
 31
0.0
  0
LINE
  5
163A6
  8
01
 10
360.3948263970882
 20
-371.7420580523942
 30
0.0
 11
360.8948266868326
 21
-371.6420583377142
 31
0.0
  0
LINE
  5
163A7
  8
01
 10
364.394824079152
 20
-372.5420603349448
 30
0.0
 11
360.3948263970882
 21
-371.7420580523942
 31
0.0
  0
LINE
  5
163A8
  8
01
 10
360.3948310329807
 20
-370.142058052401
 30
0.0
 11
360.8948313227252
 21
-370.0420583377205
 31
0.0
  0
LINE
  5
163A9
  8
01
 10
363.8948284253
 20
-371.0420600496316
 30
0.0
 11
364.3948287150446
 21
-370.9420603349516
 31
0.0
  0
LINE
  5
163AA
  8
01
 10
364.3948287150446
 20
-370.9420603349516
 30
0.0
 11
360.3948310329807
 21
-370.142058052401
 31
0.0
  0
LINE
  5
163AB
  8
01
 10
360.3948356688733
 20
-368.5420580524078
 30
0.0
 11
360.8948359586178
 21
-368.4420583377273
 31
0.0
  0
LINE
  5
163AC
  8
01
 10
363.8948330611927
 20
-369.4420600496385
 30
0.0
 11
364.3948333509371
 21
-369.3420603349584
 31
0.0
  0
LINE
  5
163AD
  8
01
 10
364.3948333509371
 20
-369.3420603349584
 30
0.0
 11
360.3948356688733
 21
-368.5420580524078
 31
0.0
  0
LINE
  5
163AE
  8
01
 10
363.8948382770482
 20
-367.6418956228599
 30
0.0
 11
364.3948385667927
 21
-367.54189590818
 31
0.0
  0
LINE
  5
163B0
  8
01
 10
316.3946406227734
 20
-359.0418947668869
 30
0.0
 11
314.8946559791636
 21
-364.3418956228754
 31
0.0
  0
LINE
  5
163B1
  8
01
 10
314.8946559791636
 20
-364.3418956228754
 30
0.0
 11
314.8947536231375
 21
-398.0420635396038
 31
0.0
  0
LINE
  5
163B2
  8
01
 10
314.8947565205602
 20
-399.0420600494073
 30
0.0
 11
312.8947099846571
 21
-399.0420611907099
 31
0.0
  0
LINE
  5
163B3
  8
01
 10
312.8947099846571
 20
-399.0420611907099
 30
0.0
 11
312.8947131718434
 21
-400.1420646809006
 31
0.0
  0
ARC
  5
163B4
  8
01
 10
314.3947131718371
 20
-400.1420603347514
 30
0.0
 40
1.5
 50
180.000166010668
 51
270.0000326951495
  0
LINE
  5
163B5
  8
01
 10
314.3947140277941
 20
-401.6420603347511
 30
0.0
 11
318.3947140278042
 21
-401.6420580521991
 31
0.0
  0
ARC
  5
163B6
  8
01
 10
318.3947131718472
 20
-400.1420580521993
 30
0.0
 40
1.5
 50
270.0000326951495
 51
0.0001660106680402
  0
LINE
  5
163B7
  8
01
 10
319.894713171841
 20
-400.1420537060501
 30
0.0
 11
319.8947099846749
 21
-399.0420571962439
 31
0.0
  0
LINE
  5
163B8
  8
01
 10
319.8947099846749
 20
-399.0420571962439
 30
0.0
 11
317.8947565205679
 21
-399.0420583374934
 31
0.0
  0
LINE
  5
163B9
  8
01
 10
317.894753623125
 20
-398.0420548473053
 30
0.0
 11
317.8946559791714
 21
-364.3418939109606
 31
0.0
  0
LINE
  5
163BA
  8
01
 10
317.8946559791714
 20
-364.3418939109606
 30
0.0
 11
316.3946406227734
 21
-359.0418947668869
 31
0.0
  0
LINE
  5
163BB
  8
1CENTER
 10
316.3945855078241
 20
-356.0809801757259
 30
0.0
 11
316.3947266463081
 21
-404.7925434507212
 31
0.0
  0
LINE
  5
163BC
  8
01
 10
315.3002763574863
 20
-361.1418953914207
 30
0.0
 11
317.2626091284205
 21
-360.3418942716388
 31
0.0
  0
LINE
  5
163BD
  8
01
 10
317.2626091284205
 20
-360.3418942716388
 30
0.0
 11
316.6743316500483
 21
-360.03012611988
 31
0.0
  0
LINE
  5
163BE
  8
01
 10
314.3947405846783
 20
-393.5420603348613
 30
0.0
 11
318.3947382667421
 21
-392.7420580523146
 31
0.0
  0
LINE
  5
163BF
  8
01
 10
314.3947081334303
 20
-382.3420603349039
 30
0.0
 11
318.3947058154941
 21
-381.5420580523532
 31
0.0
  0
LINE
  5
163C0
  8
01
 10
314.3946843744809
 20
-374.142060334938
 30
0.0
 11
318.3946820565448
 21
-373.3420580523874
 31
0.0
  0
LINE
  5
163C1
  8
01
 10
318.3946820565448
 20
-373.3420580523874
 30
0.0
 11
317.8946817668002
 21
-373.2420583377069
 31
0.0
  0
LINE
  5
163C2
  8
01
 10
314.8946800283328
 20
-372.6420600496252
 30
0.0
 11
314.3946797385883
 21
-372.5420603349448
 31
0.0
  0
LINE
  5
163C3
  8
01
 10
318.3947058154941
 20
-381.5420580523532
 30
0.0
 11
317.8947055257496
 21
-381.4420583376727
 31
0.0
  0
LINE
  5
163C4
  8
01
 10
318.3947011796016
 20
-379.9420580523596
 30
0.0
 11
317.8947008898571
 21
-379.8420583376796
 31
0.0
  0
LINE
  5
163C5
  8
01
 10
314.8946846642253
 20
-374.2420600496184
 30
0.0
 11
314.3946843744809
 21
-374.142060334938
 31
0.0
  0
LINE
  5
163C6
  8
01
 10
314.8947037872822
 20
-380.8420600495907
 30
0.0
 11
314.3947034975378
 21
-380.7420603349102
 31
0.0
  0
LINE
  5
163C7
  8
01
 10
314.3947034975378
 20
-380.7420603349102
 30
0.0
 11
318.3947011796016
 21
-379.9420580523596
 31
0.0
  0
LINE
  5
163C8
  8
01
 10
317.7154278687212
 20
-361.9418940132389
 30
0.0
 11
317.1636778753734
 21
-361.7591314692687
 31
0.0
  0
LINE
  5
163C9
  8
01
 10
318.3946582971189
 20
-365.1418936256365
 30
0.0
 11
317.8946580073743
 21
-365.0418939109557
 31
0.0
  0
LINE
  5
163CA
  8
01
 10
318.3946629330114
 20
-366.7418936256292
 30
0.0
 11
317.894662643267
 21
-366.6418939109493
 31
0.0
  0
LINE
  5
163CB
  8
01
 10
318.1682466090215
 20
-363.5418937548391
 30
0.0
 11
317.6316524991994
 21
-363.4126246119548
 31
0.0
  0
LINE
  5
163CC
  8
01
 10
315.3155662672202
 20
-362.8546638058723
 30
0.0
 11
314.8474674853295
 21
-362.741895649806
 31
0.0
  0
LINE
  5
163CD
  8
01
 10
314.8946609047995
 20
-366.0418956228672
 30
0.0
 11
314.394660615055
 21
-365.9418959081872
 31
0.0
  0
LINE
  5
163CE
  8
01
 10
314.8946562689069
 20
-364.4418956228735
 30
0.0
 11
314.3946559791625
 21
-364.3418959081936
 31
0.0
  0
LINE
  5
163CF
  8
01
 10
315.7574486368908
 20
-361.293329863235
 30
0.0
 11
315.3002763574863
 21
-361.1418953914207
 31
0.0
  0
LINE
  5
163D0
  8
01
 10
314.8474674853295
 20
-362.741895649806
 30
0.0
 11
317.7154278687212
 21
-361.9418940132389
 31
0.0
  0
LINE
  5
163D1
  8
01
 10
314.394660615055
 20
-365.9418959081872
 30
0.0
 11
318.3946582971189
 21
-365.1418936256365
 31
0.0
  0
LINE
  5
163D2
  8
01
 10
314.3946559791625
 20
-364.3418959081936
 30
0.0
 11
318.1682466090215
 21
-363.5418937548391
 31
0.0
  0
LINE
  5
163D3
  8
01
 10
314.3946652509476
 20
-367.54189590818
 30
0.0
 11
318.3946629330114
 21
-366.7418936256292
 31
0.0
  0
LINE
  5
163D4
  8
01
 10
314.3947313128931
 20
-390.3420603348744
 30
0.0
 11
318.3947289949569
 21
-389.5420580523282
 31
0.0
  0
LINE
  5
163D5
  8
01
 10
318.3947289949569
 20
-389.5420580523282
 30
0.0
 11
317.8947287052125
 21
-389.4420583376474
 31
0.0
  0
LINE
  5
163D6
  8
01
 10
314.8947269667451
 20
-388.8420600495575
 30
0.0
 11
314.3947266770006
 21
-388.7420603348767
 31
0.0
  0
LINE
  5
163D7
  8
01
 10
318.3947336308496
 20
-391.1420580523214
 30
0.0
 11
317.8947333411051
 21
-391.0420583376406
 31
0.0
  0
LINE
  5
163D8
  8
01
 10
318.3947382667421
 20
-392.7420580523146
 30
0.0
 11
317.8947379769976
 21
-392.6420583376338
 31
0.0
  0
LINE
  5
163D9
  8
01
 10
314.8947316026376
 20
-390.4420600495553
 30
0.0
 11
314.3947313128931
 21
-390.3420603348744
 31
0.0
  0
LINE
  5
163DA
  8
01
 10
314.8947362385302
 20
-392.0420600495485
 30
0.0
 11
314.3947359487858
 21
-391.9420603348681
 31
0.0
  0
LINE
  5
163DB
  8
01
 10
314.3947359487858
 20
-391.9420603348681
 30
0.0
 11
318.3947336308496
 21
-391.1420580523214
 31
0.0
  0
LINE
  5
163DC
  8
01
 10
318.3947150872792
 20
-384.7420580523437
 30
0.0
 11
317.8947147975348
 21
-384.6420583376632
 31
0.0
  0
LINE
  5
163DD
  8
01
 10
318.3947104513867
 20
-383.1420580523464
 30
0.0
 11
317.8947101616423
 21
-383.0420583376659
 31
0.0
  0
LINE
  5
163DE
  8
01
 10
318.3947243590644
 20
-387.9420580523305
 30
0.0
 11
317.89472406932
 21
-387.8420583376496
 31
0.0
  0
LINE
  5
163DF
  8
01
 10
318.3947197231719
 20
-386.3420580523374
 30
0.0
 11
317.8947194334273
 21
-386.2420583376564
 31
0.0
  0
LINE
  5
163E0
  8
01
 10
314.8947084231747
 20
-382.4420600495839
 30
0.0
 11
314.3947081334303
 21
-382.3420603349039
 31
0.0
  0
LINE
  5
163E1
  8
01
 10
314.8947130590674
 20
-384.0420600495779
 30
0.0
 11
314.3947127693228
 21
-383.9420603348971
 31
0.0
  0
LINE
  5
163E2
  8
01
 10
314.8947223308525
 20
-387.2420600495643
 30
0.0
 11
314.394722041108
 21
-387.1420603348835
 31
0.0
  0
LINE
  5
163E3
  8
01
 10
314.8947176949599
 20
-385.6420600495711
 30
0.0
 11
314.3947174052154
 21
-385.5420603348903
 31
0.0
  0
LINE
  5
163E4
  8
01
 10
314.3947174052154
 20
-385.5420603348903
 30
0.0
 11
318.3947150872792
 21
-384.7420580523437
 31
0.0
  0
LINE
  5
163E5
  8
01
 10
314.3947127693228
 20
-383.9420603348971
 30
0.0
 11
318.3947104513867
 21
-383.1420580523464
 31
0.0
  0
LINE
  5
163E6
  8
01
 10
314.394722041108
 20
-387.1420603348835
 30
0.0
 11
318.3947197231719
 21
-386.3420580523374
 31
0.0
  0
LINE
  5
163E7
  8
01
 10
314.3947266770006
 20
-388.7420603348767
 30
0.0
 11
318.3947243590644
 21
-387.9420580523305
 31
0.0
  0
LINE
  5
163E8
  8
01
 10
317.8947565205679
 20
-399.0420583374934
 30
0.0
 11
314.8947565205602
 21
-399.0420600494073
 31
0.0
  0
LINE
  5
163E9
  8
01
 10
315.8947478066618
 20
-398.0420606421878
 30
0.0
 11
318.3947521744199
 21
-397.5420580522988
 31
0.0
  0
LINE
  5
163EA
  8
01
 10
318.3947521744199
 20
-397.5420580522988
 30
0.0
 11
317.8947518846753
 21
-397.4420583376179
 31
0.0
  0
LINE
  5
163EB
  8
01
 10
314.8947501462079
 20
-396.8420600495326
 30
0.0
 11
314.3947498564634
 21
-396.7420603348518
 31
0.0
  0
LINE
  5
163EC
  8
01
 10
314.8947455103154
 20
-395.2420600495394
 30
0.0
 11
314.3947452205708
 21
-395.1420603348586
 31
0.0
  0
LINE
  5
163ED
  8
01
 10
314.3947452205708
 20
-395.1420603348586
 30
0.0
 11
318.3947429026347
 21
-394.3420580523124
 31
0.0
  0
LINE
  5
163EE
  8
01
 10
318.3947475385272
 20
-395.9420580523056
 30
0.0
 11
317.8947472487828
 21
-395.8420583376247
 31
0.0
  0
LINE
  5
163EF
  8
01
 10
318.3947429026347
 20
-394.3420580523124
 30
0.0
 11
317.8947426128902
 21
-394.2420583376315
 31
0.0
  0
LINE
  5
163F0
  8
01
 10
314.3947498564634
 20
-396.7420603348518
 30
0.0
 11
318.3947475385272
 21
-395.9420580523056
 31
0.0
  0
LINE
  5
163F1
  8
01
 10
314.8947408744227
 20
-393.6420600495417
 30
0.0
 11
314.3947405846783
 21
-393.5420603348613
 31
0.0
  0
LINE
  5
163F3
  8
01
 10
318.394696543709
 20
-378.3420580523664
 30
0.0
 11
317.8946962539645
 21
-378.242058337686
 31
0.0
  0
LINE
  5
163F4
  8
01
 10
314.8946991513897
 20
-379.2420600495971
 30
0.0
 11
314.3946988616451
 21
-379.142060334917
 31
0.0
  0
LINE
  5
163F5
  8
01
 10
314.3946988616451
 20
-379.142060334917
 30
0.0
 11
318.394696543709
 21
-378.3420580523664
 31
0.0
  0
LINE
  5
163F6
  8
01
 10
318.3946919078164
 20
-376.7420580523727
 30
0.0
 11
317.894691618072
 21
-376.6420583376928
 31
0.0
  0
LINE
  5
163F7
  8
01
 10
314.8946945154971
 20
-377.6420600496039
 30
0.0
 11
314.3946942257526
 21
-377.5420603349233
 31
0.0
  0
LINE
  5
163F8
  8
01
 10
314.3946942257526
 20
-377.5420603349233
 30
0.0
 11
318.3946919078164
 21
-376.7420580523727
 31
0.0
  0
LINE
  5
163F9
  8
01
 10
318.3946872719239
 20
-375.1420580523795
 30
0.0
 11
317.8946869821793
 21
-375.0420583376991
 31
0.0
  0
LINE
  5
163FA
  8
01
 10
314.8946898796045
 20
-376.0420600496102
 30
0.0
 11
314.39468958986
 21
-375.9420603349303
 31
0.0
  0
LINE
  5
163FB
  8
01
 10
314.39468958986
 20
-375.9420603349303
 30
0.0
 11
318.3946872719239
 21
-375.1420580523795
 31
0.0
  0
LINE
  5
163FC
  8
01
 10
318.3946774206521
 20
-371.7420580523942
 30
0.0
 11
317.8946771309077
 21
-371.6420583377142
 31
0.0
  0
LINE
  5
163FD
  8
01
 10
314.3946797385883
 20
-372.5420603349448
 30
0.0
 11
318.3946774206521
 21
-371.7420580523942
 31
0.0
  0
LINE
  5
163FE
  8
01
 10
318.3946727847596
 20
-370.142058052401
 30
0.0
 11
317.8946724950151
 21
-370.0420583377205
 31
0.0
  0
LINE
  5
163FF
  8
01
 10
314.8946753924403
 20
-371.0420600496316
 30
0.0
 11
314.3946751026957
 21
-370.9420603349516
 31
0.0
  0
LINE
  5
16400
  8
01
 10
314.3946751026957
 20
-370.9420603349516
 30
0.0
 11
318.3946727847596
 21
-370.142058052401
 31
0.0
  0
LINE
  5
16401
  8
01
 10
318.394668148867
 20
-368.5420580524078
 30
0.0
 11
317.8946678591225
 21
-368.4420583377273
 31
0.0
  0
LINE
  5
16402
  8
01
 10
314.8946707565476
 20
-369.4420600496385
 30
0.0
 11
314.3946704668032
 21
-369.3420603349584
 31
0.0
  0
LINE
  5
16403
  8
01
 10
314.3946704668032
 20
-369.3420603349584
 30
0.0
 11
318.394668148867
 21
-368.5420580524078
 31
0.0
  0
LINE
  5
16404
  8
01
 10
314.8946655406921
 20
-367.6418956228599
 30
0.0
 11
314.3946652509476
 21
-367.54189590818
 31
0.0
  0
ARC
  5
16407
  8
01
 10
1184.286182157842
 20
-400.6531667906404
 30
0.0
 40
0.4994816069481559
 50
180.2612937758196
 51
270.0600609194627
  0
ARC
  5
16408
  8
01
 10
1178.287229331537
 20
-400.6531667912043
 30
0.0
 40
0.4994816069406965
 50
269.9399390906075
 51
359.7387165298629
  0
LINE
  5
16409
  8
01
 10
1304.286705744875
 20
-401.1549249544898
 30
0.0
 11
1184.286705744646
 21
-401.1549249656312
 31
0.0
  0
LINE
  5
1640A
  8
01
 10
1211.286705744456
 20
-393.1526159310981
 30
0.0
 11
1304.286649152834
 21
-393.1535835532443
 31
0.0
  0
ARC
  5
1640B
  8
01
 10
1058.285501765389
 20
-480.7862890658346
 30
0.0
 40
10.6289562201105
 50
179.9937306711092
 51
270.0062661224586
  0
ARC
  5
1640C
  8
01
 10
1304.288816056428
 20
-480.7871953981578
 30
0.0
 40
18.62939131756706
 50
269.9935096112683
 51
0.0064903868036936
  0
LINE
  5
1640D
  8
01
 10
1304.286649139307
 20
-499.4165866190399
 30
0.0
 11
1058.286762321009
 21
-499.4165865961988
 31
0.0
  0
LINE
  5
1640E
  8
01
 10
1047.65654564184
 20
-411.7850850866037
 30
0.0
 11
1047.656545635433
 21
-480.7850850864372
 31
0.0
  0
LINE
  5
1640F
  8
01
 10
1322.918207248231
 20
-411.7851408518566
 30
0.0
 11
1322.918207254638
 21
-480.7850293205722
 31
0.0
  0
ARC
  5
16410
  8
01
 10
1058.284595432354
 20
-411.7829747742528
 30
0.0
 40
18.62939131756669
 50
89.99350961126822
 51
180.0064903868036
  0
ARC
  5
16411
  8
01
 10
1304.287909723393
 20
-411.7838811065769
 30
0.0
 40
10.62895622011185
 50
359.9937306712134
 51
90.00626611869357
  0
LINE
  5
16412
  8
01
 10
1178.286705745218
 20
-401.1549249661887
 30
0.0
 11
1058.286705744707
 21
-401.1549249773309
 31
0.0
  0
ARC
  5
16413
  8
01
 10
1058.284595432355
 20
-480.7871953981578
 30
0.0
 40
18.62939131756686
 50
179.9935096131963
 51
270.0064903887318
  0
ARC
  5
16414
  8
01
 10
1304.287909723393
 20
-480.7862890658337
 30
0.0
 40
10.6289562201117
 50
269.9937338813064
 51
0.0062693289429611
  0
LINE
  5
16415
  8
01
 10
1058.286705744707
 20
-491.4152451950797
 30
0.0
 11
1304.286705744875
 21
-491.4152452179217
 31
0.0
  0
LINE
  5
16416
  8
01
 10
1039.655204234314
 20
-480.7850293205722
 30
0.0
 11
1039.655204240721
 21
-411.7851408518566
 31
0.0
  0
LINE
  5
16417
  8
01
 10
1314.916865853519
 20
-480.7850850864372
 30
0.0
 11
1314.916865847112
 21
-411.7850850866037
 31
0.0
  0
ARC
  5
16418
  8
01
 10
1058.285501765389
 20
-411.783881106576
 30
0.0
 40
10.62895622011022
 50
89.99373387745025
 51
180.0062693288908
  0
ARC
  5
16419
  8
01
 10
1304.288816056428
 20
-411.7829747742528
 30
0.0
 40
18.62939131756715
 50
359.9935096131963
 51
90.00649038873176
  0
LINE
  5
1641A
  8
01
 10
1058.286762336644
 20
-393.1535835760862
 30
0.0
 11
1151.286705744456
 21
-393.1526159280404
 31
0.0
  0
LINE
  5
1641B
  8
01
 10
1205.315435563458
 20
-488.8050308895838
 30
0.0
 11
1205.267604937498
 21
-488.7878720284082
 31
0.0
  0
LINE
  5
1641C
  8
01
 10
1205.774519776138
 20
-489.0785191122579
 30
0.0
 11
1205.73708733698
 21
-489.0470053916754
 31
0.0
  0
LINE
  5
1641D
  8
01
 10
1206.277725654999
 20
-490.0391145635397
 30
0.0
 11
1206.273916717339
 21
-490.0093883474003
 31
0.0
  0
LINE
  5
1641E
  8
01
 10
1205.70217323056
 20
-491.3972099789537
 30
0.0
 11
1206.132634452253
 21
-490.8685812906917
 31
0.0
  0
LINE
  5
1641F
  8
01
 10
1156.440779095772
 20
-490.8685858069459
 30
0.0
 11
1156.871237699281
 21
-491.3972096555983
 31
0.0
  0
ARC
  5
16420
  8
01
 10
1157.78902746599
 20
-490.2138223546765
 30
0.0
 40
1.503353679366481
 50
157.2257729394246
 51
179.6469075518175
  0
ARC
  5
16421
  8
01
 10
1157.783539616162
 20
-490.2115765351075
 30
0.0
 40
1.501116571177877
 50
117.9047890824294
 51
130.9904227504661
  0
LINE
  5
16422
  8
01
 10
1157.124660630803
 20
-488.8627277333401
 30
0.0
 11
1157.09789766993
 21
-488.8761745184722
 31
0.0
  0
ARC
  5
16423
  8
01
 10
1179.286861462414
 20
-400.6587959007004
 30
0.0
 40
0.5001557158598733
 50
179.9889141899345
 51
269.9821615502403
  0
LINE
  5
16424
  8
01
 10
1178.286705749512
 20
-394.8990111711139
 30
0.0
 11
1152.286705744717
 21
-394.8990764536613
 31
0.0
  0
ARC
  5
16425
  8
01
 10
1152.250961791245
 20
-393.9321229705249
 30
0.0
 40
0.9676138446746716
 50
184.7775102034596
 51
272.1169103344598
  0
LINE
  5
16426
  8
01
 10
1178.786705744436
 20
-397.5161309369898
 30
0.0
 11
1178.786705744453
 21
-397.322155859136
 31
0.0
  0
ARC
  5
16427
  8
01
 10
1177.855898593763
 20
-395.7419977913162
 30
0.0
 40
0.9469512167261702
 50
349.4050429496275
 51
62.93884710043101
  0
LINE
  5
16428
  8
01
 10
1183.786705744912
 20
-397.4497450662168
 30
0.0
 11
1183.786705744912
 21
-397.5100053325971
 31
0.0
  0
LINE
  5
16429
  8
01
 10
1210.286705744718
 20
-394.8990764548473
 30
0.0
 11
1184.286705750042
 21
-394.8990399084225
 31
0.0
  0
ARC
  5
1642A
  8
01
 10
1210.322450109228
 20
-393.9321232663153
 30
0.0
 40
0.9676134100020507
 50
267.8833096598235
 51
355.2225051226653
  0
ARC
  5
1642B
  8
01
 10
1183.286551055426
 20
-400.6588171920769
 30
0.0
 40
0.5001344241572887
 50
270.0177213186173
 51
0.0139291390631112
  0
ARC
  5
1642C
  8
01
 10
1184.688135561523
 20
-395.7189593669739
 30
0.0
 40
0.913204670076403
 50
116.0773176141999
 51
189.3679351091052
  0
LINE
  5
1642D
  8
01
 10
1183.286705745146
 20
-401.1566852734015
 30
0.0
 11
1179.28670574405
 21
-401.1566852734015
 31
0.0
  0
LINE
  5
1642E
  8
01
 10
1183.786705744919
 20
-397.7871582586524
 30
0.0
 11
1183.78670574489
 21
-400.6554446369976
 31
0.0
  0
LINE
  5
1642F
  8
01
 10
1183.786705744919
 20
-397.7845042606643
 30
0.0
 11
1183.786705744921
 21
-397.5599922782187
 31
0.0
  0
LINE
  5
16430
  8
01
 10
1178.786705744919
 20
-397.7871582609007
 30
0.0
 11
1178.786705744891
 21
-400.6587959006958
 31
0.0
  0
LINE
  5
16431
  8
01
 10
1178.786705744919
 20
-397.7845042596548
 30
0.0
 11
1178.786705744921
 21
-397.5599922787753
 31
0.0
  0
LINE
  5
16432
  8
01
 10
1178.797689935336
 20
-397.5599958033123
 30
0.0
 11
1304.286663122267
 21
-397.5599920005118
 31
0.0
  0
LINE
  5
16433
  8
01
 10
1183.786705744913
 20
-396.073612047291
 30
0.0
 11
1304.28675988108
 21
-396.0736118459865
 31
0.0
  0
LINE
  5
16434
  8
01
 10
1178.786705744921
 20
-397.0898351301441
 30
0.0
 11
1178.786705744921
 21
-397.322155859136
 31
0.0
  0
ARC
  5
16435
  8
01
 10
1058.276447211043
 20
-480.7953436250057
 30
0.0
 40
14.21483826308048
 50
179.9584815433523
 51
270.0415208937516
  0
ARC
  5
16436
  8
01
 10
1058.275764167646
 20
-480.7960266667117
 30
0.0
 40
15.70053541831234
 50
179.9602657458346
 51
270.0397314106279
  0
ARC
  5
16437
  8
01
 10
1304.297647307316
 20
-480.7960266690973
 30
0.0
 40
15.70053543224196
 50
269.9602686402316
 51
0.0397342629199233
  0
ARC
  5
16438
  8
01
 10
1304.296964265464
 20
-480.7953436258224
 30
0.0
 40
14.21483827702395
 50
269.9584791561049
 51
0.0415184599305954
  0
LINE
  5
16439
  8
01
 10
1304.286759881103
 20
-496.4965583264341
 30
0.0
 11
1058.286651607787
 21
-496.4965583101095
 31
0.0
  0
LINE
  5
1643A
  8
01
 10
1304.286663122267
 20
-495.0101781703536
 30
0.0
 11
1058.286748366601
 21
-495.0101781555843
 31
0.0
  0
LINE
  5
1643B
  8
01
 10
1044.061612680026
 20
-480.7850430740784
 30
0.0
 11
1044.061612635043
 21
-411.7851270983322
 31
0.0
  0
LINE
  5
1643C
  8
01
 10
1042.575232524789
 20
-480.7851384473681
 30
0.0
 11
1042.575232580535
 21
-411.7850317250643
 31
0.0
  0
LINE
  5
1643D
  8
01
 10
1319.99817890833
 20
-411.7850317250416
 30
0.0
 11
1319.998178964101
 21
-480.7851384473463
 31
0.0
  0
LINE
  5
1643E
  8
01
 10
1318.511798849922
 20
-411.7851270983322
 30
0.0
 11
1318.511798810423
 21
-480.7850430740784
 31
0.0
  0
ARC
  5
1643F
  8
01
 10
1058.275764175821
 20
-411.7741434581569
 30
0.0
 40
15.70053537077426
 50
89.96026861916609
 51
180.0397344278487
  0
ARC
  5
16440
  8
01
 10
1058.276447203127
 20
-411.7748265859848
 30
0.0
 40
14.21483830012013
 50
89.95847907444822
 51
180.0415183010465
  0
ARC
  5
16441
  8
01
 10
1304.296964269941
 20
-411.7748265800358
 30
0.0
 40
14.21483831202098
 50
359.9584816749828
 51
90.04152086183402
  0
ARC
  5
16442
  8
01
 10
1304.297647299133
 20
-411.7741434557731
 30
0.0
 40
15.70053538468634
 50
359.960265563553
 51
90.03973133010462
  0
LINE
  5
16443
  8
01
 10
1058.286651607764
 20
-396.073611862292
 30
0.0
 11
1178.786705744556
 21
-396.0736118723228
 31
0.0
  0
ARC
  5
16444
  8
01
 10
1204.789882932957
 20
-490.1828063089308
 30
0.0
 40
1.474469373024714
 50
71.09542471328484
 51
90.1225183203788
  0
ARC
  5
16445
  8
01
 10
1204.779434071828
 20
-490.2273993876399
 30
0.0
 40
1.520009790088048
 50
50.94759141549672
 51
69.3517199399729
  0
ARC
  5
16446
  8
01
 10
1204.76736618133
 20
-490.2181935799838
 30
0.0
 40
1.520951722673212
 50
7.890823506694203
 51
48.39839930018415
  0
ARC
  5
16447
  8
01
 10
1204.793840918891
 20
-490.2069749732138
 30
0.0
 40
1.49334893016525
 50
333.702341032909
 51
6.453992037680496
  0
LINE
  5
16448
  8
01
 10
1205.678092230146
 20
-491.4152452054898
 30
0.0
 11
1205.702173233551
 21
-491.3972099766663
 31
0.0
  0
LINE
  5
16449
  8
01
 10
1157.786705672646
 20
-488.7083404268672
 30
0.0
 11
1204.786705672646
 21
-488.7083404268672
 31
0.0
  0
LINE
  5
1644A
  8
01
 10
1156.87123769628
 20
-491.3972096533018
 30
0.0
 11
1156.895319120827
 21
-491.4152452042101
 31
0.0
  0
ARC
  5
1644B
  8
01
 10
1157.798533887364
 20
-490.2013349192914
 30
0.0
 40
1.512852213918245
 50
180.2653244950237
 51
206.171207492569
  0
ARC
  5
1644C
  8
01
 10
1157.786539062712
 20
-490.2037195251153
 30
0.0
 40
1.497171760065617
 50
131.2742948151287
 51
157.5453972818994
  0
LINE
  5
1644D
  8
01
 10
1157.09789766176
 20
-488.8761744950837
 30
0.0
 11
1157.081011510261
 21
-488.8849999724091
 31
0.0
  0
ARC
  5
1644E
  8
01
 10
1157.786301719721
 20
-490.2032956090627
 30
0.0
 40
1.494955236772356
 50
89.98451806621559
 51
116.2687738437508
  0
LINE
  5
1644F
  8
01
 10
1151.286705744434
 20
-390.5420702036993
 30
0.0
 11
1152.286705744434
 21
-390.5420702036993
 31
0.0
  0
LINE
  5
16450
  8
01
 10
1178.786707335574
 20
-400.636269425014
 30
0.0
 11
1178.786707502046
 21
-400.6582649727509
 31
0.0
  0
LINE
  5
16451
  8
01
 10
1178.78670575109
 20
-397.8256247378388
 30
0.0
 11
1178.786705760393
 21
-397.880934213523
 31
0.0
  0
LINE
  5
16452
  8
01
 10
1178.786705744433
 20
-397.557817750557
 30
0.0
 11
1178.786705744569
 21
-395.9162162227624
 31
0.0
  0
LINE
  5
16453
  8
01
 10
1211.286705744463
 20
-394.0110555960675
 30
0.0
 11
1211.286705744434
 21
-390.5420702036993
 31
0.0
  0
LINE
  5
16454
  8
01
 10
1210.286705744434
 20
-390.5420702036993
 30
0.0
 11
1211.286705744434
 21
-390.5420702036993
 31
0.0
  0
LINE
  5
16455
  8
01
 10
1183.786705744913
 20
-395.9162162228079
 30
0.0
 11
1183.786705744912
 21
-397.557888337654
 31
0.0
  0
LINE
  5
16456
  8
1DIM
 10
1210.286705744659
 20
-394.8892211398145
 30
0.0
 11
1210.286705744694
 21
-394.8971647065757
 31
0.0
  0
LINE
  5
16457
  8
1DIM
 10
1210.286705744694
 20
-394.8971647065757
 30
0.0
 11
1210.28670574471
 21
-394.8988441676595
 31
0.0
  0
LINE
  5
16458
  8
1DIM
 10
1210.28670574471
 20
-394.8988441676595
 30
0.0
 11
1210.286705744717
 21
-394.8990757356189
 31
0.0
  0
LINE
  5
16459
  8
1DIM
 10
1210.286705744717
 20
-394.8990757356189
 30
0.0
 11
1210.286705744719
 21
-394.8990688117631
 31
0.0
  0
LINE
  5
1645A
  8
1DIM
 10
1210.286705744719
 20
-394.8990688117631
 30
0.0
 11
1210.286705744721
 21
-394.8990357143414
 31
0.0
  0
LINE
  5
1645B
  8
1DIM
 10
1210.286705744721
 20
-394.8990357143414
 30
0.0
 11
1210.286705744724
 21
-394.8988905326116
 31
0.0
  0
LINE
  5
1645C
  8
1DIM
 10
1210.286705744724
 20
-394.8988905326116
 30
0.0
 11
1210.286705744763
 21
-394.8817313625771
 31
0.0
  0
LINE
  5
1645D
  8
01
 10
1183.786705728937
 20
-397.8808306036137
 30
0.0
 11
1183.786705738229
 21
-397.8256247387937
 31
0.0
  0
LINE
  5
1645E
  8
01
 10
1152.286705744434
 20
-390.5420702036993
 30
0.0
 11
1210.286705744434
 21
-390.5420702036993
 31
0.0
  0
LINE
  5
1645F
  8
01
 10
1151.286705744463
 20
-394.0110555943731
 30
0.0
 11
1151.286705744434
 21
-390.5420702036993
 31
0.0
  0
LINE
  5
16463
  8
01
 10
1058.297635798544
 20
-397.5599957932815
 30
0.0
 11
1178.797689935336
 21
-397.5599958033123
 31
0.0
  0
LINE
  5
16464
  8
01
 10
1204.286817030695
 20
-359.0418947668869
 30
0.0
 11
1205.786801674304
 21
-364.3418956228754
 31
0.0
  0
LINE
  5
16465
  8
01
 10
1205.786801674304
 20
-364.3418956228754
 30
0.0
 11
1205.78670403033
 21
-398.0420635396038
 31
0.0
  0
LINE
  5
16466
  8
01
 10
1205.786701132908
 20
-399.0420600494073
 30
0.0
 11
1207.786747668811
 21
-399.0420611907099
 31
0.0
  0
LINE
  5
16467
  8
01
 10
1207.786747668811
 20
-399.0420611907099
 30
0.0
 11
1207.786744481625
 21
-400.1420646809006
 31
0.0
  0
ARC
  5
16468
  8
01
 10
1206.286744481631
 20
-400.1420603347514
 30
0.0
 40
1.5
 50
269.9999673048505
 51
359.9998339893319
  0
LINE
  5
16469
  8
01
 10
1206.286743625674
 20
-401.6420603347511
 30
0.0
 11
1202.286743625664
 21
-401.6420580521991
 31
0.0
  0
ARC
  5
1646A
  8
01
 10
1202.286744481621
 20
-400.1420580521993
 30
0.0
 40
1.5
 50
179.999833989332
 51
269.9999673048505
  0
LINE
  5
1646B
  8
01
 10
1200.786744481627
 20
-400.1420537060501
 30
0.0
 11
1200.786747668793
 21
-399.0420571962439
 31
0.0
  0
LINE
  5
1646C
  8
01
 10
1200.786747668793
 20
-399.0420571962439
 30
0.0
 11
1202.7867011329
 21
-399.0420583374934
 31
0.0
  0
LINE
  5
1646D
  8
01
 10
1202.786704030343
 20
-398.0420548473053
 30
0.0
 11
1202.786801674297
 21
-364.3418939109606
 31
0.0
  0
LINE
  5
1646E
  8
01
 10
1202.786801674297
 20
-364.3418939109606
 30
0.0
 11
1204.286817030695
 21
-359.0418947668869
 31
0.0
  0
LINE
  5
1646F
  8
1CENTER
 10
1204.286872145644
 20
-356.0809801757259
 30
0.0
 11
1204.28673100716
 21
-404.7925434507212
 31
0.0
  0
LINE
  5
16470
  8
01
 10
1205.381181295982
 20
-361.1418953914207
 30
0.0
 11
1203.418848525047
 21
-360.3418942716388
 31
0.0
  0
LINE
  5
16471
  8
01
 10
1203.418848525047
 20
-360.3418942716388
 30
0.0
 11
1204.00712600342
 21
-360.03012611988
 31
0.0
  0
LINE
  5
16472
  8
01
 10
1206.28671706879
 20
-393.5420603348613
 30
0.0
 11
1202.286719386726
 21
-392.7420580523146
 31
0.0
  0
LINE
  5
16473
  8
01
 10
1206.286749520038
 20
-382.3420603349039
 30
0.0
 11
1202.286751837974
 21
-381.5420580523532
 31
0.0
  0
LINE
  5
16474
  8
01
 10
1206.286773278987
 20
-374.142060334938
 30
0.0
 11
1202.286775596923
 21
-373.3420580523874
 31
0.0
  0
LINE
  5
16475
  8
01
 10
1202.286775596923
 20
-373.3420580523874
 30
0.0
 11
1202.786775886668
 21
-373.2420583377069
 31
0.0
  0
LINE
  5
16476
  8
01
 10
1205.786777625135
 20
-372.6420600496252
 30
0.0
 11
1206.28677791488
 21
-372.5420603349448
 31
0.0
  0
LINE
  5
16477
  8
01
 10
1202.286751837974
 20
-381.5420580523532
 30
0.0
 11
1202.786752127719
 21
-381.4420583376727
 31
0.0
  0
LINE
  5
16478
  8
01
 10
1202.286756473866
 20
-379.9420580523596
 30
0.0
 11
1202.786756763611
 21
-379.8420583376796
 31
0.0
  0
LINE
  5
16479
  8
01
 10
1205.786772989243
 20
-374.2420600496184
 30
0.0
 11
1206.286773278987
 21
-374.142060334938
 31
0.0
  0
LINE
  5
1647A
  8
01
 10
1205.786753866186
 20
-380.8420600495907
 30
0.0
 11
1206.28675415593
 21
-380.7420603349102
 31
0.0
  0
LINE
  5
1647B
  8
01
 10
1206.28675415593
 20
-380.7420603349102
 30
0.0
 11
1202.286756473866
 21
-379.9420580523596
 31
0.0
  0
LINE
  5
1647C
  8
01
 10
1202.966029784747
 20
-361.9418940132389
 30
0.0
 11
1203.517779778095
 21
-361.7591314692687
 31
0.0
  0
LINE
  5
1647D
  8
01
 10
1202.286799356349
 20
-365.1418936256365
 30
0.0
 11
1202.786799646094
 21
-365.0418939109557
 31
0.0
  0
LINE
  5
1647E
  8
01
 10
1202.286794720457
 20
-366.7418936256292
 30
0.0
 11
1202.786795010201
 21
-366.6418939109493
 31
0.0
  0
LINE
  5
1647F
  8
01
 10
1202.513211044447
 20
-363.5418937548391
 30
0.0
 11
1203.049805154269
 21
-363.4126246119548
 31
0.0
  0
LINE
  5
16480
  8
01
 10
1205.365891386248
 20
-362.8546638058723
 30
0.0
 11
1205.833990168138
 21
-362.741895649806
 31
0.0
  0
LINE
  5
16481
  8
01
 10
1205.786796748669
 20
-366.0418956228672
 30
0.0
 11
1206.286797038413
 21
-365.9418959081872
 31
0.0
  0
LINE
  5
16482
  8
01
 10
1205.786801384561
 20
-364.4418956228735
 30
0.0
 11
1206.286801674305
 21
-364.3418959081936
 31
0.0
  0
LINE
  5
16483
  8
01
 10
1204.924009016577
 20
-361.293329863235
 30
0.0
 11
1205.381181295982
 21
-361.1418953914207
 31
0.0
  0
LINE
  5
16484
  8
01
 10
1205.833990168138
 20
-362.741895649806
 30
0.0
 11
1202.966029784747
 21
-361.9418940132389
 31
0.0
  0
LINE
  5
16485
  8
01
 10
1206.286797038413
 20
-365.9418959081872
 30
0.0
 11
1202.286799356349
 21
-365.1418936256365
 31
0.0
  0
LINE
  5
16486
  8
01
 10
1206.286801674305
 20
-364.3418959081936
 30
0.0
 11
1202.513211044447
 21
-363.5418937548391
 31
0.0
  0
LINE
  5
16487
  8
01
 10
1206.28679240252
 20
-367.54189590818
 30
0.0
 11
1202.286794720457
 21
-366.7418936256292
 31
0.0
  0
LINE
  5
16488
  8
01
 10
1206.286726340575
 20
-390.3420603348744
 30
0.0
 11
1202.286728658511
 21
-389.5420580523282
 31
0.0
  0
LINE
  5
16489
  8
01
 10
1202.286728658511
 20
-389.5420580523282
 30
0.0
 11
1202.786728948256
 21
-389.4420583376474
 31
0.0
  0
LINE
  5
1648A
  8
01
 10
1205.786730686723
 20
-388.8420600495575
 30
0.0
 11
1206.286730976467
 21
-388.7420603348767
 31
0.0
  0
LINE
  5
1648B
  8
01
 10
1202.286724022618
 20
-391.1420580523214
 30
0.0
 11
1202.786724312363
 21
-391.0420583376406
 31
0.0
  0
LINE
  5
1648C
  8
01
 10
1202.286719386726
 20
-392.7420580523146
 30
0.0
 11
1202.786719676471
 21
-392.6420583376338
 31
0.0
  0
LINE
  5
1648D
  8
01
 10
1205.78672605083
 20
-390.4420600495553
 30
0.0
 11
1206.286726340575
 21
-390.3420603348744
 31
0.0
  0
LINE
  5
1648E
  8
01
 10
1205.786721414938
 20
-392.0420600495485
 30
0.0
 11
1206.286721704682
 21
-391.9420603348681
 31
0.0
  0
LINE
  5
1648F
  8
01
 10
1206.286721704682
 20
-391.9420603348681
 30
0.0
 11
1202.286724022618
 21
-391.1420580523214
 31
0.0
  0
LINE
  5
16490
  8
01
 10
1202.286742566189
 20
-384.7420580523437
 30
0.0
 11
1202.786742855933
 21
-384.6420583376632
 31
0.0
  0
LINE
  5
16491
  8
01
 10
1202.286747202081
 20
-383.1420580523464
 30
0.0
 11
1202.786747491826
 21
-383.0420583376659
 31
0.0
  0
LINE
  5
16492
  8
01
 10
1202.286733294404
 20
-387.9420580523305
 30
0.0
 11
1202.786733584148
 21
-387.8420583376496
 31
0.0
  0
LINE
  5
16493
  8
01
 10
1202.286737930296
 20
-386.3420580523374
 30
0.0
 11
1202.786738220041
 21
-386.2420583376564
 31
0.0
  0
LINE
  5
16494
  8
01
 10
1205.786749230293
 20
-382.4420600495839
 30
0.0
 11
1206.286749520038
 21
-382.3420603349039
 31
0.0
  0
LINE
  5
16495
  8
01
 10
1205.786744594401
 20
-384.0420600495779
 30
0.0
 11
1206.286744884145
 21
-383.9420603348971
 31
0.0
  0
LINE
  5
16496
  8
01
 10
1205.786735322616
 20
-387.2420600495643
 30
0.0
 11
1206.28673561236
 21
-387.1420603348835
 31
0.0
  0
LINE
  5
16497
  8
01
 10
1205.786739958508
 20
-385.6420600495711
 30
0.0
 11
1206.286740248252
 21
-385.5420603348903
 31
0.0
  0
LINE
  5
16498
  8
01
 10
1206.286740248252
 20
-385.5420603348903
 30
0.0
 11
1202.286742566189
 21
-384.7420580523437
 31
0.0
  0
LINE
  5
16499
  8
01
 10
1206.286744884145
 20
-383.9420603348971
 30
0.0
 11
1202.286747202081
 21
-383.1420580523464
 31
0.0
  0
LINE
  5
1649A
  8
01
 10
1206.28673561236
 20
-387.1420603348835
 30
0.0
 11
1202.286737930296
 21
-386.3420580523374
 31
0.0
  0
LINE
  5
1649B
  8
01
 10
1206.286730976467
 20
-388.7420603348767
 30
0.0
 11
1202.286733294404
 21
-387.9420580523305
 31
0.0
  0
LINE
  5
1649C
  8
01
 10
1202.7867011329
 20
-399.0420583374934
 30
0.0
 11
1205.786701132908
 21
-399.0420600494073
 31
0.0
  0
LINE
  5
1649D
  8
01
 10
1204.786709846806
 20
-398.0420606421878
 30
0.0
 11
1202.286705479048
 21
-397.5420580522988
 31
0.0
  0
LINE
  5
1649E
  8
01
 10
1202.286705479048
 20
-397.5420580522988
 30
0.0
 11
1202.786705768793
 21
-397.4420583376179
 31
0.0
  0
LINE
  5
1649F
  8
01
 10
1205.78670750726
 20
-396.8420600495326
 30
0.0
 11
1206.286707797005
 21
-396.7420603348518
 31
0.0
  0
LINE
  5
164A0
  8
01
 10
1205.786712143153
 20
-395.2420600495394
 30
0.0
 11
1206.286712432897
 21
-395.1420603348586
 31
0.0
  0
LINE
  5
164A1
  8
01
 10
1206.286712432897
 20
-395.1420603348586
 30
0.0
 11
1202.286714750833
 21
-394.3420580523124
 31
0.0
  0
LINE
  5
164A2
  8
01
 10
1202.286710114941
 20
-395.9420580523056
 30
0.0
 11
1202.786710404685
 21
-395.8420583376247
 31
0.0
  0
LINE
  5
164A3
  8
01
 10
1202.286714750833
 20
-394.3420580523124
 30
0.0
 11
1202.786715040578
 21
-394.2420583376315
 31
0.0
  0
LINE
  5
164A4
  8
01
 10
1206.286707797005
 20
-396.7420603348518
 30
0.0
 11
1202.286710114941
 21
-395.9420580523056
 31
0.0
  0
LINE
  5
164A5
  8
01
 10
1205.786716779045
 20
-393.6420600495417
 30
0.0
 11
1206.28671706879
 21
-393.5420603348613
 31
0.0
  0
LINE
  5
164A7
  8
01
 10
1202.286761109759
 20
-378.3420580523664
 30
0.0
 11
1202.786761399504
 21
-378.242058337686
 31
0.0
  0
LINE
  5
164A8
  8
01
 10
1205.786758502078
 20
-379.2420600495971
 30
0.0
 11
1206.286758791823
 21
-379.142060334917
 31
0.0
  0
LINE
  5
164A9
  8
01
 10
1206.286758791823
 20
-379.142060334917
 30
0.0
 11
1202.286761109759
 21
-378.3420580523664
 31
0.0
  0
LINE
  5
164AA
  8
01
 10
1202.286765745652
 20
-376.7420580523727
 30
0.0
 11
1202.786766035396
 21
-376.6420583376928
 31
0.0
  0
LINE
  5
164AB
  8
01
 10
1205.786763137971
 20
-377.6420600496039
 30
0.0
 11
1206.286763427715
 21
-377.5420603349233
 31
0.0
  0
LINE
  5
164AC
  8
01
 10
1206.286763427715
 20
-377.5420603349233
 30
0.0
 11
1202.286765745652
 21
-376.7420580523727
 31
0.0
  0
LINE
  5
164AD
  8
01
 10
1202.286770381544
 20
-375.1420580523795
 30
0.0
 11
1202.786770671289
 21
-375.0420583376991
 31
0.0
  0
LINE
  5
164AE
  8
01
 10
1205.786767773864
 20
-376.0420600496102
 30
0.0
 11
1206.286768063608
 21
-375.9420603349303
 31
0.0
  0
LINE
  5
164AF
  8
01
 10
1206.286768063608
 20
-375.9420603349303
 30
0.0
 11
1202.286770381544
 21
-375.1420580523795
 31
0.0
  0
LINE
  5
164B0
  8
01
 10
1202.286780232816
 20
-371.7420580523942
 30
0.0
 11
1202.78678052256
 21
-371.6420583377142
 31
0.0
  0
LINE
  5
164B1
  8
01
 10
1206.28677791488
 20
-372.5420603349448
 30
0.0
 11
1202.286780232816
 21
-371.7420580523942
 31
0.0
  0
LINE
  5
164B2
  8
01
 10
1202.286784868708
 20
-370.142058052401
 30
0.0
 11
1202.786785158453
 21
-370.0420583377205
 31
0.0
  0
LINE
  5
164B3
  8
01
 10
1205.786782261028
 20
-371.0420600496316
 30
0.0
 11
1206.286782550772
 21
-370.9420603349516
 31
0.0
  0
LINE
  5
164B4
  8
01
 10
1206.286782550772
 20
-370.9420603349516
 30
0.0
 11
1202.286784868708
 21
-370.142058052401
 31
0.0
  0
LINE
  5
164B5
  8
01
 10
1202.286789504601
 20
-368.5420580524078
 30
0.0
 11
1202.786789794346
 21
-368.4420583377273
 31
0.0
  0
LINE
  5
164B6
  8
01
 10
1205.78678689692
 20
-369.4420600496385
 30
0.0
 11
1206.286787186665
 21
-369.3420603349584
 31
0.0
  0
LINE
  5
164B7
  8
01
 10
1206.286787186665
 20
-369.3420603349584
 30
0.0
 11
1202.286789504601
 21
-368.5420580524078
 31
0.0
  0
LINE
  5
164B8
  8
01
 10
1205.786792112776
 20
-367.6418956228599
 30
0.0
 11
1206.28679240252
 21
-367.54189590818
 31
0.0
  0
LINE
  5
164B9
  8
01
 10
1158.286594458501
 20
-359.0418947668869
 30
0.0
 11
1156.786609814891
 21
-364.3418956228754
 31
0.0
  0
LINE
  5
164BA
  8
01
 10
1156.786609814891
 20
-364.3418956228754
 30
0.0
 11
1156.786707458865
 21
-398.0420635396038
 31
0.0
  0
LINE
  5
164BB
  8
01
 10
1156.786710356288
 20
-399.0420600494073
 30
0.0
 11
1154.786663820385
 21
-399.0420611907099
 31
0.0
  0
LINE
  5
164BC
  8
01
 10
1154.786663820385
 20
-399.0420611907099
 30
0.0
 11
1154.786667007571
 21
-400.1420646809006
 31
0.0
  0
ARC
  5
164BD
  8
01
 10
1156.286667007565
 20
-400.1420603347514
 30
0.0
 40
1.5
 50
180.000166010668
 51
270.0000326951495
  0
LINE
  5
164BE
  8
01
 10
1156.286667863522
 20
-401.6420603347511
 30
0.0
 11
1160.286667863532
 21
-401.6420580521991
 31
0.0
  0
ARC
  5
164BF
  8
01
 10
1160.286667007575
 20
-400.1420580521993
 30
0.0
 40
1.5
 50
270.0000326951495
 51
0.0001660106680402
  0
LINE
  5
164C0
  8
01
 10
1161.786667007569
 20
-400.1420537060501
 30
0.0
 11
1161.786663820403
 21
-399.0420571962439
 31
0.0
  0
LINE
  5
164C1
  8
01
 10
1161.786663820403
 20
-399.0420571962439
 30
0.0
 11
1159.786710356296
 21
-399.0420583374934
 31
0.0
  0
LINE
  5
164C2
  8
01
 10
1159.786707458853
 20
-398.0420548473053
 30
0.0
 11
1159.786609814899
 21
-364.3418939109606
 31
0.0
  0
LINE
  5
164C3
  8
01
 10
1159.786609814899
 20
-364.3418939109606
 30
0.0
 11
1158.286594458501
 21
-359.0418947668869
 31
0.0
  0
LINE
  5
164C4
  8
1CENTER
 10
1158.286539343552
 20
-356.0809801757259
 30
0.0
 11
1158.286680482036
 21
-404.7925434507212
 31
0.0
  0
LINE
  5
164C5
  8
01
 10
1157.192230193214
 20
-361.1418953914207
 30
0.0
 11
1159.154562964148
 21
-360.3418942716388
 31
0.0
  0
LINE
  5
164C6
  8
01
 10
1159.154562964148
 20
-360.3418942716388
 30
0.0
 11
1158.566285485776
 21
-360.03012611988
 31
0.0
  0
LINE
  5
164C7
  8
01
 10
1156.286694420406
 20
-393.5420603348613
 30
0.0
 11
1160.28669210247
 21
-392.7420580523146
 31
0.0
  0
LINE
  5
164C8
  8
01
 10
1156.286661969158
 20
-382.3420603349039
 30
0.0
 11
1160.286659651222
 21
-381.5420580523532
 31
0.0
  0
LINE
  5
164C9
  8
01
 10
1156.286638210209
 20
-374.142060334938
 30
0.0
 11
1160.286635892272
 21
-373.3420580523874
 31
0.0
  0
LINE
  5
164CA
  8
01
 10
1160.286635892272
 20
-373.3420580523874
 30
0.0
 11
1159.786635602528
 21
-373.2420583377069
 31
0.0
  0
LINE
  5
164CB
  8
01
 10
1156.786633864061
 20
-372.6420600496252
 30
0.0
 11
1156.286633574316
 21
-372.5420603349448
 31
0.0
  0
LINE
  5
164CC
  8
01
 10
1160.286659651222
 20
-381.5420580523532
 30
0.0
 11
1159.786659361477
 21
-381.4420583376727
 31
0.0
  0
LINE
  5
164CD
  8
01
 10
1160.286655015329
 20
-379.9420580523596
 30
0.0
 11
1159.786654725585
 21
-379.8420583376796
 31
0.0
  0
LINE
  5
164CE
  8
01
 10
1156.786638499953
 20
-374.2420600496184
 30
0.0
 11
1156.286638210209
 21
-374.142060334938
 31
0.0
  0
LINE
  5
164CF
  8
01
 10
1156.78665762301
 20
-380.8420600495907
 30
0.0
 11
1156.286657333265
 21
-380.7420603349102
 31
0.0
  0
LINE
  5
164D0
  8
01
 10
1156.286657333265
 20
-380.7420603349102
 30
0.0
 11
1160.286655015329
 21
-379.9420580523596
 31
0.0
  0
LINE
  5
164D1
  8
01
 10
1159.607381704449
 20
-361.9418940132389
 30
0.0
 11
1159.055631711101
 21
-361.7591314692687
 31
0.0
  0
LINE
  5
164D2
  8
01
 10
1160.286612132847
 20
-365.1418936256365
 30
0.0
 11
1159.786611843102
 21
-365.0418939109557
 31
0.0
  0
LINE
  5
164D3
  8
01
 10
1160.286616768739
 20
-366.7418936256292
 30
0.0
 11
1159.786616478995
 21
-366.6418939109493
 31
0.0
  0
LINE
  5
164D4
  8
01
 10
1160.060200444749
 20
-363.5418937548391
 30
0.0
 11
1159.523606334927
 21
-363.4126246119548
 31
0.0
  0
LINE
  5
164D5
  8
01
 10
1157.207520102948
 20
-362.8546638058723
 30
0.0
 11
1156.739421321057
 21
-362.741895649806
 31
0.0
  0
LINE
  5
164D6
  8
01
 10
1156.786614740527
 20
-366.0418956228672
 30
0.0
 11
1156.286614450783
 21
-365.9418959081872
 31
0.0
  0
LINE
  5
164D7
  8
01
 10
1156.786610104635
 20
-364.4418956228735
 30
0.0
 11
1156.28660981489
 21
-364.3418959081936
 31
0.0
  0
LINE
  5
164D8
  8
01
 10
1157.649402472618
 20
-361.293329863235
 30
0.0
 11
1157.192230193214
 21
-361.1418953914207
 31
0.0
  0
LINE
  5
164D9
  8
01
 10
1156.739421321057
 20
-362.741895649806
 30
0.0
 11
1159.607381704449
 21
-361.9418940132389
 31
0.0
  0
LINE
  5
164DA
  8
01
 10
1156.286614450783
 20
-365.9418959081872
 30
0.0
 11
1160.286612132847
 21
-365.1418936256365
 31
0.0
  0
LINE
  5
164DB
  8
01
 10
1156.28660981489
 20
-364.3418959081936
 30
0.0
 11
1160.060200444749
 21
-363.5418937548391
 31
0.0
  0
LINE
  5
164DC
  8
01
 10
1156.286619086675
 20
-367.54189590818
 30
0.0
 11
1160.286616768739
 21
-366.7418936256292
 31
0.0
  0
LINE
  5
164DD
  8
01
 10
1156.286685148621
 20
-390.3420603348744
 30
0.0
 11
1160.286682830685
 21
-389.5420580523282
 31
0.0
  0
LINE
  5
164DE
  8
01
 10
1160.286682830685
 20
-389.5420580523282
 30
0.0
 11
1159.78668254094
 21
-389.4420583376474
 31
0.0
  0
LINE
  5
164DF
  8
01
 10
1156.786680802473
 20
-388.8420600495575
 30
0.0
 11
1156.286680512728
 21
-388.7420603348767
 31
0.0
  0
LINE
  5
164E0
  8
01
 10
1160.286687466577
 20
-391.1420580523214
 30
0.0
 11
1159.786687176833
 21
-391.0420583376406
 31
0.0
  0
LINE
  5
164E1
  8
01
 10
1160.28669210247
 20
-392.7420580523146
 30
0.0
 11
1159.786691812725
 21
-392.6420583376338
 31
0.0
  0
LINE
  5
164E2
  8
01
 10
1156.786685438365
 20
-390.4420600495553
 30
0.0
 11
1156.286685148621
 21
-390.3420603348744
 31
0.0
  0
LINE
  5
164E3
  8
01
 10
1156.786690074258
 20
-392.0420600495485
 30
0.0
 11
1156.286689784513
 21
-391.9420603348681
 31
0.0
  0
LINE
  5
164E4
  8
01
 10
1156.286689784513
 20
-391.9420603348681
 30
0.0
 11
1160.286687466577
 21
-391.1420580523214
 31
0.0
  0
LINE
  5
164E5
  8
01
 10
1160.286668923007
 20
-384.7420580523437
 30
0.0
 11
1159.786668633262
 21
-384.6420583376632
 31
0.0
  0
LINE
  5
164E6
  8
01
 10
1160.286664287114
 20
-383.1420580523464
 30
0.0
 11
1159.78666399737
 21
-383.0420583376659
 31
0.0
  0
LINE
  5
164E7
  8
01
 10
1160.286678194792
 20
-387.9420580523305
 30
0.0
 11
1159.786677905048
 21
-387.8420583376496
 31
0.0
  0
LINE
  5
164E8
  8
01
 10
1160.2866735589
 20
-386.3420580523374
 30
0.0
 11
1159.786673269155
 21
-386.2420583376564
 31
0.0
  0
LINE
  5
164E9
  8
01
 10
1156.786662258902
 20
-382.4420600495839
 30
0.0
 11
1156.286661969158
 21
-382.3420603349039
 31
0.0
  0
LINE
  5
164EA
  8
01
 10
1156.786666894795
 20
-384.0420600495779
 30
0.0
 11
1156.28666660505
 21
-383.9420603348971
 31
0.0
  0
LINE
  5
164EB
  8
01
 10
1156.78667616658
 20
-387.2420600495643
 30
0.0
 11
1156.286675876836
 21
-387.1420603348835
 31
0.0
  0
LINE
  5
164EC
  8
01
 10
1156.786671530688
 20
-385.6420600495711
 30
0.0
 11
1156.286671240943
 21
-385.5420603348903
 31
0.0
  0
LINE
  5
164ED
  8
01
 10
1156.286671240943
 20
-385.5420603348903
 30
0.0
 11
1160.286668923007
 21
-384.7420580523437
 31
0.0
  0
LINE
  5
164EE
  8
01
 10
1156.28666660505
 20
-383.9420603348971
 30
0.0
 11
1160.286664287114
 21
-383.1420580523464
 31
0.0
  0
LINE
  5
164EF
  8
01
 10
1156.286675876836
 20
-387.1420603348835
 30
0.0
 11
1160.2866735589
 21
-386.3420580523374
 31
0.0
  0
LINE
  5
164F0
  8
01
 10
1156.286680512728
 20
-388.7420603348767
 30
0.0
 11
1160.286678194792
 21
-387.9420580523305
 31
0.0
  0
LINE
  5
164F1
  8
01
 10
1159.786710356296
 20
-399.0420583374934
 30
0.0
 11
1156.786710356288
 21
-399.0420600494073
 31
0.0
  0
LINE
  5
164F2
  8
01
 10
1157.78670164239
 20
-398.0420606421878
 30
0.0
 11
1160.286706010148
 21
-397.5420580522988
 31
0.0
  0
LINE
  5
164F3
  8
01
 10
1160.286706010148
 20
-397.5420580522988
 30
0.0
 11
1159.786705720403
 21
-397.4420583376179
 31
0.0
  0
LINE
  5
164F4
  8
01
 10
1156.786703981936
 20
-396.8420600495326
 30
0.0
 11
1156.286703692191
 21
-396.7420603348518
 31
0.0
  0
LINE
  5
164F5
  8
01
 10
1156.786699346043
 20
-395.2420600495394
 30
0.0
 11
1156.286699056298
 21
-395.1420603348586
 31
0.0
  0
LINE
  5
164F6
  8
01
 10
1156.286699056298
 20
-395.1420603348586
 30
0.0
 11
1160.286696738362
 21
-394.3420580523124
 31
0.0
  0
LINE
  5
164F7
  8
01
 10
1160.286701374255
 20
-395.9420580523056
 30
0.0
 11
1159.78670108451
 21
-395.8420583376247
 31
0.0
  0
LINE
  5
164F8
  8
01
 10
1160.286696738362
 20
-394.3420580523124
 30
0.0
 11
1159.786696448618
 21
-394.2420583376315
 31
0.0
  0
LINE
  5
164F9
  8
01
 10
1156.286703692191
 20
-396.7420603348518
 30
0.0
 11
1160.286701374255
 21
-395.9420580523056
 31
0.0
  0
LINE
  5
164FA
  8
01
 10
1156.78669471015
 20
-393.6420600495417
 30
0.0
 11
1156.286694420406
 21
-393.5420603348613
 31
0.0
  0
LINE
  5
164FC
  8
01
 10
1160.286650379437
 20
-378.3420580523664
 30
0.0
 11
1159.786650089692
 21
-378.242058337686
 31
0.0
  0
LINE
  5
164FD
  8
01
 10
1156.786652987117
 20
-379.2420600495971
 30
0.0
 11
1156.286652697373
 21
-379.142060334917
 31
0.0
  0
LINE
  5
164FE
  8
01
 10
1156.286652697373
 20
-379.142060334917
 30
0.0
 11
1160.286650379437
 21
-378.3420580523664
 31
0.0
  0
LINE
  5
164FF
  8
01
 10
1160.286645743544
 20
-376.7420580523727
 30
0.0
 11
1159.7866454538
 21
-376.6420583376928
 31
0.0
  0
LINE
  5
16500
  8
01
 10
1156.786648351225
 20
-377.6420600496039
 30
0.0
 11
1156.28664806148
 21
-377.5420603349233
 31
0.0
  0
LINE
  5
16501
  8
01
 10
1156.28664806148
 20
-377.5420603349233
 30
0.0
 11
1160.286645743544
 21
-376.7420580523727
 31
0.0
  0
LINE
  5
16502
  8
01
 10
1160.286641107652
 20
-375.1420580523795
 30
0.0
 11
1159.786640817907
 21
-375.0420583376991
 31
0.0
  0
LINE
  5
16503
  8
01
 10
1156.786643715332
 20
-376.0420600496102
 30
0.0
 11
1156.286643425588
 21
-375.9420603349303
 31
0.0
  0
LINE
  5
16504
  8
01
 10
1156.286643425588
 20
-375.9420603349303
 30
0.0
 11
1160.286641107652
 21
-375.1420580523795
 31
0.0
  0
LINE
  5
16505
  8
01
 10
1160.28663125638
 20
-371.7420580523942
 30
0.0
 11
1159.786630966635
 21
-371.6420583377142
 31
0.0
  0
LINE
  5
16506
  8
01
 10
1156.286633574316
 20
-372.5420603349448
 30
0.0
 11
1160.28663125638
 21
-371.7420580523942
 31
0.0
  0
LINE
  5
16507
  8
01
 10
1160.286626620487
 20
-370.142058052401
 30
0.0
 11
1159.786626330743
 21
-370.0420583377205
 31
0.0
  0
LINE
  5
16508
  8
01
 10
1156.786629228168
 20
-371.0420600496316
 30
0.0
 11
1156.286628938423
 21
-370.9420603349516
 31
0.0
  0
LINE
  5
16509
  8
01
 10
1156.286628938423
 20
-370.9420603349516
 30
0.0
 11
1160.286626620487
 21
-370.142058052401
 31
0.0
  0
LINE
  5
1650A
  8
01
 10
1160.286621984595
 20
-368.5420580524078
 30
0.0
 11
1159.78662169485
 21
-368.4420583377273
 31
0.0
  0
LINE
  5
1650B
  8
01
 10
1156.786624592275
 20
-369.4420600496385
 30
0.0
 11
1156.286624302531
 21
-369.3420603349584
 31
0.0
  0
LINE
  5
1650C
  8
01
 10
1156.286624302531
 20
-369.3420603349584
 30
0.0
 11
1160.286621984595
 21
-368.5420580524078
 31
0.0
  0
LINE
  5
1650D
  8
01
 10
1156.78661937642
 20
-367.6418956228599
 30
0.0
 11
1156.286619086675
 21
-367.54189590818
 31
0.0
  0
TEXT
  5
166A8
  8
01
  6
CONTINUOUS
 10
637.8437287074205
 20
-494.9591814016559
 30
0.0
 40
3.5
  1
PB
  0
TEXT
  5
166A9
  8
01
  6
CONTINUOUS
 10
650.9791468525857
 20
-489.1209869572115
 30
0.0
 40
3.5
  1
Plywood 9mm
  0
TEXT
  5
166AA
  8
01
  6
CONTINUOUS
 10
650.9791468525857
 20
-494.9543202905448
 30
0.0
 40
3.5
  1
and above
  0
LINE
  5
166AC
  8
1CENTER
 10
617.4622037867475
 20
-572.2402844929829
 30
0.0
 11
617.4622037867475
 21
-581.400728392983
 31
0.0
  0
LINE
  5
166AD
  8
1HATCH
 10
619.1122037867475
 20
-573.8419594929829
 30
0.0
 11
619.1122037867475
 21
-578.191959492983
 31
0.0
  0
LINE
  5
166AE
  8
1HATCH
 10
615.8122037867475
 20
-573.8419594929829
 30
0.0
 11
615.8122037867475
 21
-578.191959492983
 31
0.0
  0
LINE
  5
166AF
  8
1HATCH
 10
619.4622037867475
 20
-574.191959492983
 30
0.0
 11
615.4622037867475
 21
-574.191959492983
 31
0.0
  0
LINE
  5
166B0
  8
1HATCH
 10
620.4622037867475
 20
-579.541959482983
 30
0.0
 11
614.4622037867475
 21
-579.541959482983
 31
0.0
  0
LINE
  5
166B1
  8
1HATCH
 10
619.1122037867475
 20
-578.191959492983
 30
0.0
 11
619.4622037867475
 21
-578.541959318909
 31
0.0
  0
LINE
  5
166B2
  8
1HATCH
 10
615.4622037867475
 20
-578.5419593189089
 30
0.0
 11
615.8122037867475
 21
-578.191959492983
 31
0.0
  0
LINE
  5
166B3
  8
01
 10
622.4625363834202
 20
-571.4704098134822
 30
0.0
 11
622.46255840391
 21
-563.870409813514
 31
0.0
  0
LINE
  5
166B4
  8
01
 10
622.46255840391
 20
-563.870409813514
 30
0.0
 11
621.462558403914
 21
-563.8704069160812
 31
0.0
  0
LINE
  5
166B5
  8
01
 10
621.4625363834243
 20
-571.4704069160493
 30
0.0
 11
621.462558403914
 21
-563.8704069160812
 31
0.0
  0
LINE
  5
166B6
  8
01
 10
622.4625363834202
 20
-571.4704098134822
 30
0.0
 11
621.4625363834243
 21
-571.4704069160493
 31
0.0
  0
LINE
  5
166B7
  8
01
 10
366.1947501945931
 20
-398.0420702036993
 30
0.0
 11
358.5947501946249
 21
-398.0420481832096
 31
0.0
  0
LINE
  5
166B8
  8
01
 10
358.5947501946249
 20
-398.0420481832096
 30
0.0
 11
358.594747297192
 21
-399.0420481832054
 31
0.0
  0
LINE
  5
166B9
  8
01
 10
366.1947472971602
 20
-399.0420702036951
 30
0.0
 11
358.594747297192
 21
-399.0420481832054
 31
0.0
  0
LINE
  5
166BA
  8
01
 10
366.1947501945931
 20
-398.0420702036993
 30
0.0
 11
366.1947472971602
 21
-399.0420702036951
 31
0.0
  0
LINE
  5
166BB
  8
01
 10
312.5947536231472
 20
-398.0420702036993
 30
0.0
 11
320.1947536231155
 21
-398.0420481832096
 31
0.0
  0
LINE
  5
166BC
  8
01
 10
312.5947536231472
 20
-398.0420702036993
 30
0.0
 11
312.5947565205802
 21
-399.0420702036951
 31
0.0
  0
LINE
  5
166BD
  8
01
 10
312.5947565205802
 20
-399.0420702036951
 30
0.0
 11
320.1947565205485
 21
-399.0420481832054
 31
0.0
  0
LINE
  5
166BE
  8
01
 10
320.1947536231155
 20
-398.0420481832096
 30
0.0
 11
320.1947565205485
 21
-399.0420481832054
 31
0.0
  0
LINE
  5
166BF
  8
01
 10
1208.086704030321
 20
-398.0420702036993
 30
0.0
 11
1200.486704030352
 21
-398.0420481832096
 31
0.0
  0
LINE
  5
166C0
  8
01
 10
1200.486704030352
 20
-398.0420481832096
 30
0.0
 11
1200.48670113292
 21
-399.0420481832054
 31
0.0
  0
LINE
  5
166C1
  8
01
 10
1208.086701132888
 20
-399.0420702036951
 30
0.0
 11
1200.48670113292
 21
-399.0420481832054
 31
0.0
  0
LINE
  5
166C2
  8
01
 10
1208.086704030321
 20
-398.0420702036993
 30
0.0
 11
1208.086701132888
 21
-399.0420702036951
 31
0.0
  0
LINE
  5
166C3
  8
01
 10
1154.486707458875
 20
-398.0420702036993
 30
0.0
 11
1162.086707458843
 21
-398.0420481832096
 31
0.0
  0
LINE
  5
166C4
  8
01
 10
1154.486707458875
 20
-398.0420702036993
 30
0.0
 11
1154.486710356308
 21
-399.0420702036951
 31
0.0
  0
LINE
  5
166C5
  8
01
 10
1154.486710356308
 20
-399.0420702036951
 30
0.0
 11
1162.086710356276
 21
-399.0420481832054
 31
0.0
  0
LINE
  5
166C6
  8
01
 10
1162.086707458843
 20
-398.0420481832096
 30
0.0
 11
1162.086710356276
 21
-399.0420481832054
 31
0.0
  0
LINE
  5
166C7
  8
01
 10
615.4622037867475
 20
-574.191959492983
 30
0.0
 11
615.4622037867475
 21
-578.541959318909
 31
0.0
  0
LINE
  5
166C8
  8
01
 10
615.4622037867475
 20
-578.541959318909
 30
0.0
 11
614.4622037867475
 21
-579.541959392983
 31
0.0
  0
LINE
  5
166C9
  8
01
 10
614.4622037867475
 20
-579.541959392983
 30
0.0
 11
614.4622037867475
 21
-579.8419594929829
 31
0.0
  0
LINE
  5
166CA
  8
01
 10
614.4622037867475
 20
-579.8419594929829
 30
0.0
 11
620.4622037867475
 21
-579.8419594929829
 31
0.0
  0
LINE
  5
166CB
  8
01
 10
620.4622037867475
 20
-579.8419594929829
 30
0.0
 11
620.4622037867475
 21
-579.541959482983
 31
0.0
  0
LINE
  5
166CC
  8
01
 10
620.4622037867475
 20
-579.541959482983
 30
0.0
 11
619.4622037867475
 21
-578.541959318909
 31
0.0
  0
LINE
  5
166CD
  8
01
 10
619.4622037867475
 20
-578.541959318909
 30
0.0
 11
619.4622037867475
 21
-574.191959492983
 31
0.0
  0
LINE
  5
166CE
  8
01
 10
619.4622037867475
 20
-574.191959492983
 30
0.0
 11
619.1122037867475
 21
-573.8419594929829
 31
0.0
  0
LINE
  5
166CF
  8
01
 10
619.1122037867475
 20
-573.8419594929829
 30
0.0
 11
615.8122037867477
 21
-573.8419594929829
 31
0.0
  0
LINE
  5
166D0
  8
01
 10
615.8122037867477
 20
-573.8419594929829
 30
0.0
 11
615.4622037867475
 21
-574.191959492983
 31
0.0
  0
LINE
  5
166D1
  8
1DIM
 10
369.394751908706
 20
-390.5420702036993
 30
0.0
 11
507.0788730305779
 21
-390.5420702036993
 31
0.0
1001
ACAD
1000
DSTYLE
1002
{
1070
   271
1070
     1
1070
    40
1040
1.3
1002
}
  0
LINE
  5
166D2
  8
1DIM
 10
462.3968622207008
 20
-499.4165867157249
 30
0.0
 11
507.0788730305779
 21
-499.4165867157249
 31
0.0
1001
ACAD
1000
DSTYLE
1002
{
1070
   271
1070
     1
1070
    40
1040
1.3
1002
}
  0
LINE
  5
166D3
  8
1DIM
 10
505.7788730305779
 20
-393.1420702036993
 30
0.0
 11
505.7788730305779
 21
-496.8165867157248
 31
0.0
1001
ACAD
1000
DSTYLE
1002
{
1070
   271
1070
     1
1070
    40
1040
1.3
1002
}
  0
SOLID
  5
166D7
  8
1DIM
 10
634.7608195009983
 20
-508.5043493113402
 30
0.0
 11
634.0198847743054
 21
-510.3917090655714
 31
0.0
 12
634.1086522981832
 22
-508.3660656029118
 32
0.0
 13
634.1086522981832
 23
-508.3660656029118
 33
0.0
1001
ACAD
1000
DSTYLE
1002
{
1070
    45
1040
0.5
1002
}
  0
LINE
  5
166D8
  8
1DIM
 10
634.4347358995907
 20
-508.435207457126
 30
0.0
 11
637.1437287074205
 21
-495.6591814016559
 31
0.0
1001
ACAD
1000
DSTYLE
1002
{
1070
    45
1040
0.5
1002
}
  0
SOLID
  5
166D9
  8
1DIM
 10
647.8962376461635
 20
-508.5043493113402
 30
0.0
 11
647.1553029194706
 21
-510.3917090655714
 31
0.0
 12
647.2440704433484
 22
-508.3660656029118
 32
0.0
 13
647.2440704433484
 23
-508.3660656029118
 33
0.0
1001
ACAD
1000
DSTYLE
1002
{
1070
    45
1040
0.5
1002
}
  0
LINE
  5
166DA
  8
1DIM
 10
647.5701540447559
 20
-508.435207457126
 30
0.0
 11
650.2791468525857
 21
-495.6591814016559
 31
0.0
1001
ACAD
1000
DSTYLE
1002
{
1070
    45
1040
0.5
1002
}
  0
LINE
  5
166DB
  8
1DIM
 10
664.4236264113936
 20
-567.6705779288054
 30
0.0
 11
671.214723250791
 21
-567.6705779288054
 31
0.0
1001
ACAD
1000
DSTYLE
1002
{
1070
    45
1040
0.5
1070
   271
1070
     0
1002
}
  0
LINE
  5
166DC
  8
1DIM
 10
630.0188362345458
 20
-516.5015265897189
 30
0.0
 11
671.214723250791
 21
-516.5015265897189
 31
0.0
1001
ACAD
1000
DSTYLE
1002
{
1070
    45
1040
0.5
1070
   271
1070
     0
1002
}
  0
LINE
  5
166DD
  8
1DIM
 10
670.214723250791
 20
-565.6705779288054
 30
0.0
 11
670.214723250791
 21
-518.5015265897189
 31
0.0
1001
ACAD
1000
DSTYLE
1002
{
1070
    45
1040
0.5
1070
   271
1070
     0
1002
}
  0
LINE
  5
166E1
  8
1DIM
 10
630.0188362703013
 20
-579.7959045826817
 30
0.0
 11
682.8423438717932
 21
-579.7959045826817
 31
0.0
1001
ACAD
1000
DSTYLE
1002
{
1070
    45
1040
0.5
1002
}
  0
LINE
  5
166E2
  8
1DIM
 10
670.214723250791
 20
-516.5015265900981
 30
0.0
 11
682.8423438717932
 21
-516.5015265900981
 31
0.0
1001
ACAD
1000
DSTYLE
1002
{
1070
    45
1040
0.5
1002
}
  0
LINE
  5
166E3
  8
1DIM
 10
681.8423438717932
 20
-577.7959045826817
 30
0.0
 11
681.8423438717932
 21
-518.5015265900981
 31
0.0
1001
ACAD
1000
DSTYLE
1002
{
1070
    45
1040
0.5
1002
}
  0
SOLID
  5
166E7
  8
1DIM
 10
444.0085601591028
 20
-552.240796574213
 30
0.0
 11
444.6375393508688
 21
-554.1683588397278
 31
0.0
 12
443.4174037049772
 22
-552.5489823804893
 32
0.0
 13
443.4174037049772
 23
-552.5489823804893
 33
0.0
1001
ACAD
1000
DSTYLE
1002
{
1070
    45
1040
0.5
1002
}
  0
LINE
  5
166E8
  8
1DIM
 10
443.71298193204
 20
-552.3948894773512
 30
0.0
 11
439.0441080236635
 21
-543.4391397697832
 31
0.0
1001
ACAD
1000
DSTYLE
1002
{
1070
    45
1040
0.5
1002
}
  0
LINE
  5
166E9
  8
1DIM
 10
439.0441080236635
 20
-543.4391397697832
 30
0.0
 11
383.7107746903301
 21
-543.4391397697832
 31
0.0
1001
ACAD
1000
DSTYLE
1002
{
1070
    45
1040
0.5
1002
}
  0
TEXT
  5
166EA
  8
1DIM
  6
CONTINUOUS
 10
384.3691080236634
 20
-536.9009453253387
 30
0.0
 40
3.5
  1
Material\U+FF1AAluminium
  0
TEXT
  5
166EB
  8
1DIM
  6
CONTINUOUS
 10
376.4098487644042
 20
-542.7342786586721
 30
0.0
 40
3.5
  1
Finish\U+FF1ABlasted black
  0
LINE
  5
166EC
  8
1DIM
 10
617.4622037867475
 20
-581.400728392983
 30
0.0
 11
617.4622037867475
 21
-595.0672481429885
 31
0.0
  0
LINE
  5
166ED
  8
1DIM
 10
630.0188362773939
 20
-590.28244564021
 30
0.0
 11
630.0188362773939
 21
-595.0672481429885
 31
0.0
  0
LINE
  5
166EE
  8
1DIM
 10
619.4622037867475
 20
-594.0672481429885
 30
0.0
 11
628.0188362773939
 21
-594.0672481429885
 31
0.0
  0
LINE
  5
166F2
  8
1DIM
 10
1039.657490664599
 20
-522.2795993071766
 30
0.0
 11
1039.657490664599
 21
-624.7466064923137
 31
0.0
  0
LINE
  5
166F3
  8
1DIM
 10
1322.915920824184
 20
-522.2795993071929
 30
0.0
 11
1322.915920824184
 21
-624.7466064923137
 31
0.0
  0
LINE
  5
166F4
  8
1DIM
 10
1041.657490664599
 20
-623.7466064923137
 30
0.0
 11
1320.915920824184
 21
-623.7466064923137
 31
0.0
  0
LINE
  5
166F8
  8
1DIM
 10
1158.286804201826
 20
-572.3625783541813
 30
0.0
 11
1158.286804201826
 21
-601.4336546353541
 31
0.0
  0
LINE
  5
166F9
  8
1DIM
 10
1204.286704045878
 20
-572.3625783541813
 30
0.0
 11
1204.286704045878
 21
-601.4336546353541
 31
0.0
  0
LINE
  5
166FA
  8
1DIM
 10
1160.286804201826
 20
-600.4336546353541
 30
0.0
 11
1202.286704045878
 21
-600.4336546353541
 31
0.0
  0
SOLID
  5
166FE
  8
1DIM
 10
441.7427417725343
 20
-515.0267215040552
 30
0.0
 11
443.1349124278239
 21
-516.5008219001143
 31
0.0
 12
441.3399076254497
 22
-515.5579174136658
 32
0.0
 13
441.3399076254497
 23
-515.5579174136658
 33
0.0
1001
ACAD
1000
DSTYLE
1002
{
1070
    45
1040
0.5
1002
}
  0
LINE
  5
166FF
  8
1DIM
 10
441.541324698992
 20
-515.2923194588604
 30
0.0
 11
439.0441080236635
 21
-513.3985470647381
 31
0.0
1001
ACAD
1000
DSTYLE
1002
{
1070
    45
1040
0.5
1002
}
  0
LINE
  5
16700
  8
1DIM
 10
439.0441080236635
 20
-513.3985470647381
 30
0.0
 11
383.7107746903301
 21
-513.3985470647381
 31
0.0
1001
ACAD
1000
DSTYLE
1002
{
1070
    45
1040
0.5
1002
}
  0
TEXT
  5
16701
  8
1DIM
  6
CONTINUOUS
 10
384.3691080236634
 20
-506.8603526202936
 30
0.0
 40
3.5
  1
Material\U+FF1AAluminium
  0
TEXT
  5
16702
  8
1DIM
  6
CONTINUOUS
 10
376.4098487644042
 20
-512.6936859536269
 30
0.0
 40
3.5
  1
Finish\U+FF1ABlasted black
  0
LINE
  5
16703
  8
0
  6
BYBLOCK
 10
505.0822051365779
 20
-393.1420702036993
 30
0.0
 11
505.7788730305779
 21
-390.5420702036993
 31
0.0
  0
LINE
  5
16704
  8
0
  6
BYBLOCK
 10
505.7788730305779
 20
-390.5420702036993
 30
0.0
 11
506.4755409245778
 21
-393.1420702036993
 31
0.0
  0
LINE
  5
16705
  8
0
  6
BYBLOCK
 10
505.7788730305779
 20
-390.5420702036993
 30
0.0
 11
505.7788730305779
 21
-393.1420702036993
 31
0.0
  0
LINE
  5
16706
  8
0
  6
BYBLOCK
 10
506.4755409245778
 20
-496.8165867157248
 30
0.0
 11
505.7788730305779
 21
-499.4165867157249
 31
0.0
  0
LINE
  5
16707
  8
0
  6
BYBLOCK
 10
505.7788730305779
 20
-499.4165867157249
 30
0.0
 11
505.0822051365779
 21
-496.8165867157248
 31
0.0
  0
LINE
  5
16708
  8
0
  6
BYBLOCK
 10
505.7788730305779
 20
-499.4165867157249
 30
0.0
 11
505.7788730305779
 21
-496.8165867157248
 31
0.0
  0
TEXT
  5
16709
  8
1DIM
  6
CONTINUOUS
 10
504.8688730305779
 20
-449.9095483671194
 30
0.0
 40
4.55
  1
109
 50
90.0
1001
ACAD
1000
DSTYLE
1002
{
1070
   271
1070
     1
1070
    40
1040
1.3
1002
}
  0
LINE
  5
1670A
  8
0
  6
BYBLOCK
 10
670.7506216307911
 20
-565.6705779288054
 30
0.0
 11
670.214723250791
 21
-567.6705779288054
 31
0.0
  0
LINE
  5
1670B
  8
0
  6
BYBLOCK
 10
670.214723250791
 20
-567.6705779288054
 30
0.0
 11
669.678824870791
 21
-565.6705779288054
 31
0.0
  0
LINE
  5
1670C
  8
0
  6
BYBLOCK
 10
670.214723250791
 20
-567.6705779288054
 30
0.0
 11
670.214723250791
 21
-565.6705779288054
 31
0.0
  0
LINE
  5
1670D
  8
0
  6
BYBLOCK
 10
669.678824870791
 20
-518.5015265897189
 30
0.0
 11
670.214723250791
 21
-516.5015265897189
 31
0.0
  0
LINE
  5
1670E
  8
0
  6
BYBLOCK
 10
670.214723250791
 20
-516.5015265897189
 30
0.0
 11
670.7506216307911
 21
-518.5015265897189
 31
0.0
  0
LINE
  5
1670F
  8
0
  6
BYBLOCK
 10
670.214723250791
 20
-516.5015265897189
 30
0.0
 11
670.214723250791
 21
-518.5015265897189
 31
0.0
  0
TEXT
  5
16710
  8
1DIM
  6
CONTINUOUS
 10
669.5147232507912
 20
-544.4315383703731
 30
0.0
 40
3.5
  1
51
 50
90.0
1001
ACAD
1000
DSTYLE
1002
{
1070
    45
1040
0.5
1070
   271
1070
     0
1002
}
  0
LINE
  5
16711
  8
0
  6
BYBLOCK
 10
682.3782422517933
 20
-577.7959045826817
 30
0.0
 11
681.8423438717932
 21
-579.7959045826817
 31
0.0
  0
LINE
  5
16712
  8
0
  6
BYBLOCK
 10
681.8423438717932
 20
-579.7959045826817
 30
0.0
 11
681.3064454917932
 21
-577.7959045826817
 31
0.0
  0
LINE
  5
16713
  8
0
  6
BYBLOCK
 10
681.8423438717932
 20
-579.7959045826817
 30
0.0
 11
681.8423438717932
 21
-577.7959045826817
 31
0.0
  0
LINE
  5
16714
  8
0
  6
BYBLOCK
 10
681.3064454917932
 20
-518.5015265900981
 30
0.0
 11
681.8423438717932
 21
-516.5015265900981
 31
0.0
  0
LINE
  5
16715
  8
0
  6
BYBLOCK
 10
681.8423438717932
 20
-516.5015265900981
 30
0.0
 11
682.3782422517933
 21
-518.5015265900981
 31
0.0
  0
LINE
  5
16716
  8
0
  6
BYBLOCK
 10
681.8423438717932
 20
-516.5015265900981
 30
0.0
 11
681.8423438717932
 21
-518.5015265900981
 31
0.0
  0
TEXT
  5
16717
  8
1DIM
  6
CONTINUOUS
 10
681.1423438717934
 20
-553.4108683641676
 30
0.0
 40
3.5
  1
63.5
 50
90.0
1001
ACAD
1000
DSTYLE
1002
{
1070
    45
1040
0.5
1002
}
  0
LINE
  5
16718
  8
0
  6
BYBLOCK
 10
619.4622037867475
 20
-594.6031465229886
 30
0.0
 11
617.4622037867475
 21
-594.0672481429885
 31
0.0
  0
LINE
  5
16719
  8
0
  6
BYBLOCK
 10
617.4622037867475
 20
-594.0672481429885
 30
0.0
 11
619.4622037867475
 21
-593.5313497629885
 31
0.0
  0
LINE
  5
1671A
  8
0
  6
BYBLOCK
 10
617.4622037867475
 20
-594.0672481429885
 30
0.0
 11
619.4622037867475
 21
-594.0672481429885
 31
0.0
  0
LINE
  5
1671B
  8
0
  6
BYBLOCK
 10
628.0188362773939
 20
-593.5313497629885
 30
0.0
 11
630.0188362773939
 21
-594.0672481429885
 31
0.0
  0
LINE
  5
1671C
  8
0
  6
BYBLOCK
 10
630.0188362773939
 20
-594.0672481429885
 30
0.0
 11
628.0188362773939
 21
-594.6031465229886
 31
0.0
  0
LINE
  5
1671D
  8
0
  6
BYBLOCK
 10
630.0188362773939
 20
-594.0672481429885
 30
0.0
 11
628.0188362773939
 21
-594.0672481429885
 31
0.0
  0
TEXT
  5
1671E
  8
1DIM
  6
CONTINUOUS
 10
619.073853365404
 20
-593.3672481429886
 30
0.0
 40
3.5
  1
12.5
  0
LINE
  5
1671F
  8
0
  6
BYBLOCK
 10
1041.657490664599
 20
-624.2825048723138
 30
0.0
 11
1039.657490664599
 21
-623.7466064923137
 31
0.0
  0
LINE
  5
16720
  8
0
  6
BYBLOCK
 10
1039.657490664599
 20
-623.7466064923137
 30
0.0
 11
1041.657490664599
 21
-623.2107081123137
 31
0.0
  0
LINE
  5
16721
  8
0
  6
BYBLOCK
 10
1039.657490664599
 20
-623.7466064923137
 30
0.0
 11
1041.657490664599
 21
-623.7466064923137
 31
0.0
  0
LINE
  5
16722
  8
0
  6
BYBLOCK
 10
1320.915920824184
 20
-623.2107081123137
 30
0.0
 11
1322.915920824184
 21
-623.7466064923137
 31
0.0
  0
LINE
  5
16723
  8
0
  6
BYBLOCK
 10
1322.915920824184
 20
-623.7466064923137
 30
0.0
 11
1320.915920824184
 21
-624.2825048723138
 31
0.0
  0
LINE
  5
16724
  8
0
  6
BYBLOCK
 10
1322.915920824184
 20
-623.7466064923137
 30
0.0
 11
1320.915920824184
 21
-623.7466064923137
 31
0.0
  0
TEXT
  5
16725
  8
1DIM
  6
CONTINUOUS
 10
1160.286705744392
 20
-623.0466064923137
 30
0.0
 40
10.5
  1
283.2
  0
LINE
  5
16726
  8
0
  6
BYBLOCK
 10
1160.286804201826
 20
-600.9695530153541
 30
0.0
 11
1158.286804201826
 21
-600.4336546353541
 31
0.0
  0
LINE
  5
16727
  8
0
  6
BYBLOCK
 10
1158.286804201826
 20
-600.4336546353541
 30
0.0
 11
1160.286804201826
 21
-599.897756255354
 31
0.0
  0
LINE
  5
16728
  8
0
  6
BYBLOCK
 10
1158.286804201826
 20
-600.4336546353541
 30
0.0
 11
1160.286804201826
 21
-600.4336546353541
 31
0.0
  0
LINE
  5
16729
  8
0
  6
BYBLOCK
 10
1202.286704045878
 20
-599.897756255354
 30
0.0
 11
1204.286704045878
 21
-600.4336546353541
 31
0.0
  0
LINE
  5
1672A
  8
0
  6
BYBLOCK
 10
1204.286704045878
 20
-600.4336546353541
 30
0.0
 11
1202.286704045878
 21
-600.9695530153541
 31
0.0
  0
LINE
  5
1672B
  8
0
  6
BYBLOCK
 10
1204.286704045878
 20
-600.4336546353541
 30
0.0
 11
1202.286704045878
 21
-600.4336546353541
 31
0.0
  0
TEXT
  5
1672C
  8
1DIM
  6
CONTINUOUS
 10
1167.286754123852
 20
-599.733654635354
 30
0.0
 40
10.5
  1
P46
  0
VIEWPORT
  5
57
 67
     1
  8
0
 10
0.0
 20
0.0
 30
0.0
 40
615.2903225806451
 41
297.0
 68
     1
 69
     1
1001
ACAD
1000
MVIEW
1002
{
1070
    16
1010
0.0
1020
0.0
1030
0.0
1010
0.0
1020
0.0
1030
1.0
1040
0.0
1040
297.0
1040
-4.171999999925305
1040
12.83903210976956
1040
50.0
1040
0.0
1040
0.0
1070
    16
1070
   100
1070
     0
1070
     1
1070
     0
1070
     0
1070
     0
1070
     0
1040
0.0
1040
0.0
1040
0.0
1040
10.0
1040
10.0
1040
10.0
1040
10.0
1070
     0
1002
{
1002
}
1002
}
  0
ENDSEC
  0
EOF
