  0
SECTION
  2
HEADER
  9
$ACADVER
  1
AC1009
  9
$DWGCODEPAGE
  3
ansi_1252
  9
$INSBASE
 10
0.0
 20
0.0
 30
0.0
  9
$EXTMIN
 10
2038.680858148198
 20
-710.8136900779627
 30
0.0
  9
$EXTMAX
 10
2770.012119651259
 20
-264.7692246386775
 30
0.0
  9
$LIMMIN
 10
0.0
 20
0.0
  9
$LIMMAX
 10
420.0
 20
297.0
  9
$ORTHOMODE
 70
     0
  9
$REGENMODE
 70
     1
  9
$FILLMODE
 70
     1
  9
$QTEXTMODE
 70
     0
  9
$MIRRTEXT
 70
     0
  9
$DRAGMODE
 70
     2
  9
$LTSCALE
 40
0.5
  9
$OSMODE
 70
 15199
  9
$ATTMODE
 70
     1
  9
$TEXTSIZE
 40
4.0
  9
$TRACEWID
 40
1.0
  9
$TEXTSTYLE
  7
STANDARD
  9
$CLAYER
  8
1TEXT
  9
$CELTYPE
  6
BYLAYER
  9
$CECOLOR
 62
   256
  9
$DIMSCALE
 40
1.0
  9
$DIMASZ
 40
2.0
  9
$DIMEXO
 40
0.0
  9
$DIMDLI
 40
7.0
  9
$DIMRND
 40
0.0
  9
$DIMDLE
 40
0.0
  9
$DIMEXE
 40
1.0
  9
$DIMTP
 40
0.0
  9
$DIMTM
 40
0.0
  9
$DIMTXT
 40
3.5
  9
$DIMCEN
 40
0.0
  9
$DIMTSZ
 40
0.0
  9
$DIMTOL
 70
     0
  9
$DIMLIM
 70
     0
  9
$DIMTIH
 70
     0
  9
$DIMTOH
 70
     0
  9
$DIMSE1
 70
     0
  9
$DIMSE2
 70
     0
  9
$DIMTAD
 70
     1
  9
$DIMZIN
 70
     8
  9
$DIMBLK
  1

  9
$DIMASO
 70
     1
  9
$DIMSHO
 70
     1
  9
$DIMPOST
  1
 
  9
$DIMAPOST
  1

  9
$DIMALT
 70
     0
  9
$DIMALTD
 70
     2
  9
$DIMALTF
 40
25.4
  9
$DIMLFAC
 40
1.0
  9
$DIMTOFL
 70
     1
  9
$DIMTVP
 40
0.0
  9
$DIMTIX
 70
     0
  9
$DIMSOXD
 70
     0
  9
$DIMSAH
 70
     1
  9
$DIMBLK1
  1
OPEN30
  9
$DIMBLK2
  1
OPEN30
  9
$DIMSTYLE
  2
NEWX10
  9
$DIMCLRD
 70
   256
  9
$DIMCLRE
 70
   256
  9
$DIMCLRT
 70
   201
  9
$DIMTFAC
 40
0.7
  9
$DIMGAP
 40
0.7
  9
$LUNITS
 70
     2
  9
$LUPREC
 70
     4
  9
$SKETCHINC
 40
1.0
  9
$FILLETRAD
 40
0.0
  9
$AUNITS
 70
     0
  9
$AUPREC
 70
     2
  9
$MENU
  1
acad
  9
$ELEVATION
 40
0.0
  9
$PELEVATION
 40
0.0
  9
$THICKNESS
 40
0.0
  9
$LIMCHECK
 70
     0
  9
$CHAMFERA
 40
10.0
  9
$CHAMFERB
 40
10.0
  9
$SKPOLY
 70
     0
  9
$TDCREATE
 40
2451318.57968625
  9
$TDUPDATE
 40
2459102.737717743
  9
$TDINDWG
 40
1.7886127199
  9
$TDUSRTIMER
 40
1.7886127199
  9
$USRTIMER
 70
     1
  9
$ANGBASE
 50
0.0
  9
$ANGDIR
 70
     0
  9
$PDMODE
 70
     0
  9
$PDSIZE
 40
0.0
  9
$PLINEWID
 40
0.0
  9
$COORDS
 70
     2
  9
$SPLFRAME
 70
     0
  9
$SPLINETYPE
 70
     6
  9
$SPLINESEGS
 70
     8
  9
$ATTDIA
 70
     0
  9
$ATTREQ
 70
     1
  9
$HANDLING
 70
     1
  9
$HANDSEED
  5
1B1A4
  9
$SURFTAB1
 70
     6
  9
$SURFTAB2
 70
     6
  9
$SURFTYPE
 70
     6
  9
$SURFU
 70
     6
  9
$SURFV
 70
     6
  9
$UCSNAME
  2

  9
$UCSORG
 10
0.0
 20
0.0
 30
0.0
  9
$UCSXDIR
 10
1.0
 20
0.0
 30
0.0
  9
$UCSYDIR
 10
0.0
 20
1.0
 30
0.0
  9
$PUCSNAME
  2

  9
$PUCSORG
 10
0.0
 20
0.0
 30
0.0
  9
$PUCSXDIR
 10
1.0
 20
0.0
 30
0.0
  9
$PUCSYDIR
 10
0.0
 20
1.0
 30
0.0
  9
$USERI1
 70
     0
  9
$USERI2
 70
     0
  9
$USERI3
 70
     0
  9
$USERI4
 70
     0
  9
$USERI5
 70
     0
  9
$USERR1
 40
0.0
  9
$USERR2
 40
0.0
  9
$USERR3
 40
0.0
  9
$USERR4
 40
0.0
  9
$USERR5
 40
0.0
  9
$WORLDVIEW
 70
     1
  9
$SHADEDGE
 70
     3
  9
$SHADEDIF
 70
    70
  9
$TILEMODE
 70
     1
  9
$MAXACTVP
 70
    48
  9
$PLIMCHECK
 70
     0
  9
$PEXTMIN
 10
1.000000000000000E+20
 20
1.000000000000000E+20
 30
1.000000000000000E+20
  9
$PEXTMAX
 10
-1.000000000000000E+20
 20
-1.000000000000000E+20
 30
-1.000000000000000E+20
  9
$PLIMMIN
 10
0.0
 20
0.0
  9
$PLIMMAX
 10
420.0
 20
297.0
  9
$UNITMODE
 70
     0
  9
$VISRETAIN
 70
     1
  9
$PLINEGEN
 70
     0
  9
$PSLTSCALE
 70
     1
  0
ENDSEC
  0
SECTION
  2
TABLES
  0
TABLE
  2
VPORT
 70
     1
  0
VPORT
  2
*ACTIVE
 70
     0
 10
0.0
 20
0.0
 11
1.0
 21
1.0
 12
2404.346488899729
 22
-487.7914573583201
 13
0.0
 23
0.0
 14
10.0
 24
10.0
 15
10.0
 25
10.0
 16
0.0
 26
0.0
 36
1.0
 17
0.0
 27
0.0
 37
0.0
 40
478.9108997348116
 41
2.07168458781362
 42
50.0
 43
0.0
 44
0.0
 50
0.0
 51
0.0
 71
    16
 72
   100
 73
     1
 74
     1
 75
     0
 76
     0
 77
     0
 78
     0
  0
ENDTAB
  0
TABLE
  2
LTYPE
 70
    14
  0
LTYPE
  2
CONTINUOUS
 70
     0
  3
Solid line
 72
    65
 73
     0
 40
0.0
  0
LTYPE
  2
CENTER2
 70
     0
  3
Center (.5x) ___ _ ___ _ ___ _ ___ _ ___ _ ___
 72
    65
 73
     4
 40
28.575
 49
19.05
 49
-3.175
 49
3.175
 49
-3.175
  0
LTYPE
  2
DASHED2
 70
     0
  3
Dashed (0.5x) _ _ _ _ _ _ _ _ _ _ _ _ _ _ _ _ _
 72
    65
 73
     2
 40
9.524999999999999
 49
6.35
 49
-3.175
  0
ENDTAB
  0
TABLE
  2
LAYER
 70
    55
  0
LAYER
  2
0
 70
     0
 62
     7
  6
CONTINUOUS
  0
LAYER
  2
1CENTER
 70
     0
 62
     7
  6
CENTER2
  0
LAYER
  2
1TEXT
 70
     0
 62
     7
  6
CONTINUOUS
  0
LAYER
  2
1DIM
 70
     0
 62
     7
  6
CONTINUOUS
  0
LAYER
  2
1HATCH
 70
     0
 62
     7
  6
CONTINUOUS
  0
LAYER
  2
01
 70
     0
 62
     1
  6
CONTINUOUS
  0
ENDTAB
  0
TABLE
  2
STYLE
 70
    19
  0
STYLE
  2
STANDARD
 70
     0
 40
0.0
 41
1.0
 50
0.0
 71
     0
 42
4.0
  3
txt.shx
  4
extfont.shx
  0
STYLE
  2
STANDARD06
 70
     0
 40
0.0
 41
0.6
 50
0.0
 71
     0
 42
2.0
  3
romans.shx
  4
extfont2.shx
  0
ENDTAB
  0
TABLE
  2
VIEW
 70
     0
  0
ENDTAB
  0
TABLE
  2
UCS
 70
     0
  0
ENDTAB
  0
TABLE
  2
APPID
 70
    25
  0
APPID
  2
ACAD
 70
     0
  0
APPID
  2
DRAWINGVARIABLESXDATA
 70
     0
  0
APPID
  2
CONTENTTABDATA
 70
     0
  0
APPID
  2
CONTENTCURRENTTAB
 70
     0
  0
APPID
  2
CONTENTBLOCKDESCRIPTION
 70
     0
  0
APPID
  2
CONTENTBLOCKICON
 70
     0
  0
APPID
  2
CONTENTLONGBLOCKNAME
 70
     0
  0
APPID
  2
ACAD_PSEXT
 70
     0
  0
APPID
  2
ACAD_MLEADERVER
 70
     0
  0
APPID
  2
ACAD_EXEMPT_FROM_CAD_STAND
 70
     0
  0
APPID
  2
ACAECLAYERSTANDARD
 70
     0
  0
APPID
  2
ACADANNOTATIVE
 70
     0
  0
APPID
  2
ACDBBLOCKREPETAG
 70
     0
  0
APPID
  2
ACAD_OBJECT_CHANGE_GUID
 70
     0
  0
APPID
  2
ACLAYERTOOLS
 70
     0
  0
APPID
  2
ACAD_NAV_VCDISPLAY
 70
     0
  0
APPID
  2
ACADSTRINGINFO
 70
     0
  0
APPID
  2
GRADIENTCOLOR1ACI
 70
     0
  0
APPID
  2
GRADIENTCOLOR2ACI
 70
     0
  0
APPID
  2
ACADANNOMONITORALERTICONDI
 70
     0
  0
APPID
  2
ACAD_DSTYLE_DIMRADIAL_EXTE
 70
     0
  0
APPID
  2
ACAD_DSTYLE_DIMJOGGED_JOGA
 70
     0
  0
APPID
  2
ACAD_DSTYLE_DIM_LINETYPE
 70
     0
  0
APPID
  2
ACAD_DSTYLE_DIM_EXT1_LINET
 70
     0
  0
APPID
  2
ACAD_DSTYLE_DIM_EXT2_LINET
 70
     0
  0
ENDTAB
  0
TABLE
  2
DIMSTYLE
 70
     3
  0
DIMSTYLE
  2
NEWX10
 70
     0
  3
 
  4

  5

  6
OPEN30
  7
OPEN30
 40
1.0
 41
2.0
 42
0.0
 43
7.0
 44
1.0
 45
0.0
 46
0.0
 47
0.0
 48
0.0
140
3.5
141
0.0
142
0.0
143
25.4
144
1.0
145
0.0
146
0.7
147
0.7
 71
     0
 72
     0
 73
     0
 74
     0
 75
     0
 76
     0
 77
     1
 78
     8
170
     0
171
     2
172
     1
173
     1
174
     0
175
     0
176
   256
177
   256
178
   201
  0
ENDTAB
  0
ENDSEC
  0
SECTION
  2
BLOCKS
  0
BLOCK
  8
0
  2
$MODEL_SPACE
 70
     0
 10
0.0
 20
0.0
 30
0.0
  3
$MODEL_SPACE
  1

  0
ENDBLK
  5
1A
  8
0
  0
BLOCK
 67
     1
  8
0
  2
$PAPER_SPACE
 70
     0
 10
0.0
 20
0.0
 30
0.0
  3
$PAPER_SPACE
  1

  0
ENDBLK
  5
17
 67
     1
  8
0
  0
BLOCK
  8
0
  2
_OPEN30
 70
     0
 10
0.0
 20
0.0
 30
0.0
  3
_OPEN30
  1

  0
LINE
  5
44
  8
0
  6
BYBLOCK
 62
     0
 10
-1.0
 20
0.26794919
 30
0.0
 11
0.0
 21
0.0
 31
0.0
  0
LINE
  5
45
  8
0
  6
BYBLOCK
 62
     0
 10
0.0
 20
0.0
 30
0.0
 11
-1.0
 21
-0.26794919
 31
0.0
  0
LINE
  5
46
  8
0
  6
BYBLOCK
 62
     0
 10
0.0
 20
0.0
 30
0.0
 11
-1.0
 21
0.0
 31
0.0
  0
ENDBLK
  5
47
  8
0
  0
BLOCK
  8
0
  2
A3WAKUKAWAJUN2017_HYOUDAI_
 70
     0
 10
0.0
 20
0.0
 30
0.0
  3
A3WAKUKAWAJUN2017_HYOUDAI_
  1

  0
LINE
  5
1057F
  8
0
 10
13.26299999998673
 20
-0.0001000000000317
 30
0.0
 11
9.236999999990758
 21
8.999899999990987
 31
0.0
1001
ACAD
1000
ASC_BOUNDS
1002
{
1070
    19
1005
105C0
1002
}
  0
LINE
  5
10580
  8
0
 10
5.657999999994331
 20
0.9999999999989768
 30
0.0
 11
9.236999999990758
 21
8.999999999991019
 31
0.0
1001
ACAD
1000
ASC_BOUNDS
1002
{
1070
    19
1005
105C0
1002
}
  0
LINE
  5
10581
  8
0
 10
18.59199999998134
 20
-0.2368999999997641
 30
0.0
 11
16.46099999998353
 21
5.432899999994561
 31
0.0
1001
ACAD
1000
ASC_BOUNDS
1002
{
1070
    19
1005
105C1
1002
}
  0
LINE
  5
10582
  8
0
 10
18.59199999998134
 20
-0.2368999999997641
 30
0.0
 11
22.38199999997767
 21
8.763099999991255
 31
0.0
1001
ACAD
1000
ASC_BOUNDS
1002
{
1070
    19
1005
105C1
1002
}
  0
LINE
  5
10583
  8
0
 10
14.32899999998563
 20
-0.2368999999997641
 30
0.0
 11
16.46099999998353
 21
5.432899999994561
 31
0.0
1001
ACAD
1000
ASC_BOUNDS
1002
{
1070
    19
1005
105C1
1002
}
  0
LINE
  5
10584
  8
0
 10
14.32899999998563
 20
-0.2368999999997641
 30
0.0
 11
10.53899999998941
 21
8.763099999991255
 31
0.0
1001
ACAD
1000
ASC_BOUNDS
1002
{
1070
    19
1005
105C1
1002
}
  0
LINE
  5
10585
  8
0
 10
19.53899999998043
 20
-0.0001000000000317
 30
0.0
 11
23.56599999997638
 21
8.999899999990987
 31
0.0
1001
ACAD
1000
ASC_BOUNDS
1002
{
1070
    19
1005
105C2
1002
}
  0
LINE
  5
10586
  8
0
 10
26.97358892824991
 20
1.383099999991202
 30
0.0
 11
23.56599999997638
 21
8.999899999990987
 31
0.0
1001
ACAD
1000
ASC_BOUNDS
1002
{
1070
    19
1005
105C2
1002
}
  0
LINE
  5
10587
  8
0
 10
5.657999999994331
 20
0.9999999999989768
 30
0.0
 11
3.181999999996833
 21
4.668599999995308
 31
0.0
1001
ACAD
1000
ASC_BOUNDS
1002
{
1070
    19
1005
105C0
1002
}
  0
LINE
  5
10588
  8
0
 10
4.617999999995391
 20
-0.0001000000000317
 30
0.0
 11
1.420999999998571
 21
4.736799999995242
 31
0.0
1001
ACAD
1000
ASC_BOUNDS
1002
{
1070
    19
1005
105C0
1002
}
  0
LINE
  5
10589
  8
0
 10
1.420999999998571
 20
8.763099999991255
 30
0.0
 11
1.420999999998571
 21
0.0
 31
0.0
1001
ACAD
1000
ASC_BOUNDS
1002
{
1070
    19
1005
105C5
1002
}
  0
LINE
  5
1058A
  8
0
 10
0.0
 20
8.763099999991255
 30
0.0
 11
0.0
 21
0.0
 31
0.0
1001
ACAD
1000
ASC_BOUNDS
1002
{
1070
    19
1005
105C5
1002
}
  0
LINE
  5
1058B
  8
0
 10
6.766999999993232
 20
-0.0001000000000317
 30
0.0
 11
7.826999999992154
 21
2.368399999997621
 31
0.0
1001
ACAD
1000
ASC_BOUNDS
1002
{
1070
    19
1005
105C0
1002
}
  0
LINE
  5
1058C
  8
0
 10
0.0
 20
0.0
 30
0.0
 11
1.420999999998571
 21
0.0
 31
0.0
1001
ACAD
1000
ASC_BOUNDS
1002
{
1070
    19
1005
105C5
1002
}
  0
LINE
  5
1058D
  8
0
 10
4.617999999995391
 20
0.0
 30
0.0
 11
6.766999999993232
 21
0.0
 31
0.0
1001
ACAD
1000
ASC_BOUNDS
1002
{
1070
    19
1005
105C0
1002
}
  0
LINE
  5
1058E
  8
0
 10
11.70599999998831
 20
-0.0001000000000317
 30
0.0
 11
10.64699999998936
 21
2.368399999997621
 31
0.0
1001
ACAD
1000
ASC_BOUNDS
1002
{
1070
    19
1005
105C0
1002
}
  0
LINE
  5
1058F
  8
0
 10
7.826999999992154
 20
2.368399999997621
 30
0.0
 11
10.64699999998936
 21
2.368399999997621
 31
0.0
1001
ACAD
1000
ASC_BOUNDS
1002
{
1070
    19
1005
105C0
1002
}
  0
LINE
  5
10590
  8
0
 10
11.70599999998831
 20
0.0
 30
0.0
 11
13.26299999998673
 21
0.0
 31
0.0
1001
ACAD
1000
ASC_BOUNDS
1002
{
1070
    19
1005
105C0
1002
}
  0
LINE
  5
10591
  8
0
 10
22.15599999997789
 20
2.368399999997621
 30
0.0
 11
24.97599999997499
 21
2.368399999997621
 31
0.0
1001
ACAD
1000
ASC_BOUNDS
1002
{
1070
    19
1005
105C2
1002
}
  0
LINE
  5
10592
  8
0
 10
19.53899999998043
 20
0.0
 30
0.0
 11
21.09599999997886
 21
0.0
 31
0.0
1001
ACAD
1000
ASC_BOUNDS
1002
{
1070
    19
1005
105C2
1002
}
  0
LINE
  5
10593
  8
0
 10
21.09599999997886
 20
-0.0001000000000317
 30
0.0
 11
22.15599999997789
 21
2.368399999997621
 31
0.0
1001
ACAD
1000
ASC_BOUNDS
1002
{
1070
    19
1005
105C2
1002
}
  0
LINE
  5
10594
  8
0
 10
26.02015566812236
 20
0.0330999999912365
 30
0.0
 11
24.97599999997499
 21
2.368399999997621
 31
0.0
1001
ACAD
1000
ASC_BOUNDS
1002
{
1070
    19
1005
105C2
1002
}
  0
LINE
  5
10595
  8
0
 10
14.32399999998563
 20
3.315799999996671
 30
0.0
 11
16.46099999998353
 21
8.999899999990987
 31
0.0
1001
ACAD
1000
ASC_BOUNDS
1002
{
1070
    19
1005
105C1
1002
}
  0
LINE
  5
10596
  8
0
 10
6.432999999993513
 20
8.763099999991255
 30
0.0
 11
3.181999999996833
 21
4.668599999995308
 31
0.0
1001
ACAD
1000
ASC_BOUNDS
1002
{
1070
    19
1005
105C0
1002
}
  0
LINE
  5
10597
  8
0
 10
4.617999999995391
 20
8.763099999991255
 30
0.0
 11
1.420999999998571
 21
4.736799999995242
 31
0.0
1001
ACAD
1000
ASC_BOUNDS
1002
{
1070
    19
1005
105C0
1002
}
  0
LINE
  5
10598
  8
0
 10
0.0
 20
8.763099999991255
 30
0.0
 11
1.420999999998571
 21
8.763099999991255
 31
0.0
1001
ACAD
1000
ASC_BOUNDS
1002
{
1070
    19
1005
105C5
1002
}
  0
LINE
  5
10599
  8
0
 10
4.617999999995391
 20
8.763099999991255
 30
0.0
 11
6.432999999993513
 21
8.763099999991255
 31
0.0
1001
ACAD
1000
ASC_BOUNDS
1002
{
1070
    19
1005
105C0
1002
}
  0
LINE
  5
1059A
  8
0
 10
14.32399999998563
 20
3.315799999996671
 30
0.0
 11
12.02999999998792
 21
8.763099999991255
 31
0.0
1001
ACAD
1000
ASC_BOUNDS
1002
{
1070
    19
1005
105C1
1002
}
  0
LINE
  5
1059B
  8
0
 10
10.06399999998996
 20
3.670999999996297
 30
0.0
 11
9.236999999990758
 21
5.5200999999945
 31
0.0
1001
ACAD
1000
ASC_BOUNDS
1002
{
1070
    19
1005
105C0
1002
}
  0
LINE
  5
1059C
  8
0
 10
8.409999999991555
 20
3.670999999996297
 30
0.0
 11
9.236999999990758
 21
5.5200999999945
 31
0.0
1001
ACAD
1000
ASC_BOUNDS
1002
{
1070
    19
1005
105C0
1002
}
  0
LINE
  5
1059D
  8
0
 10
8.409999999991555
 20
3.670999999996297
 30
0.0
 11
10.06399999998996
 21
3.670999999996297
 31
0.0
1001
ACAD
1000
ASC_BOUNDS
1002
{
1070
    19
1005
105C0
1002
}
  0
LINE
  5
1059E
  8
0
 10
10.53899999998941
 20
8.763099999991255
 30
0.0
 11
12.02999999998792
 21
8.763099999991255
 31
0.0
1001
ACAD
1000
ASC_BOUNDS
1002
{
1070
    19
1005
105C1
1002
}
  0
LINE
  5
1059F
  8
0
 10
22.7389999999773
 20
3.670999999996297
 30
0.0
 11
23.56599999997638
 21
5.5200999999945
 31
0.0
1001
ACAD
1000
ASC_BOUNDS
1002
{
1070
    19
1005
105C2
1002
}
  0
LINE
  5
105A0
  8
0
 10
22.7389999999773
 20
3.670999999996297
 30
0.0
 11
24.39299999997559
 21
3.670999999996297
 31
0.0
1001
ACAD
1000
ASC_BOUNDS
1002
{
1070
    19
1005
105C2
1002
}
  0
LINE
  5
105A1
  8
0
 10
18.59799999998143
 20
3.315799999996671
 30
0.0
 11
20.89099999997916
 21
8.763099999991255
 31
0.0
1001
ACAD
1000
ASC_BOUNDS
1002
{
1070
    19
1005
105C1
1002
}
  0
LINE
  5
105A2
  8
0
 10
18.59799999998143
 20
3.315799999996671
 30
0.0
 11
16.46099999998353
 21
8.999899999990987
 31
0.0
1001
ACAD
1000
ASC_BOUNDS
1002
{
1070
    19
1005
105C1
1002
}
  0
LINE
  5
105A3
  8
0
 10
20.89099999997916
 20
8.763099999991255
 30
0.0
 11
22.38199999997767
 21
8.763099999991255
 31
0.0
1001
ACAD
1000
ASC_BOUNDS
1002
{
1070
    19
1005
105C1
1002
}
  0
LINE
  5
105A4
  8
0
 10
24.39299999997559
 20
3.670999999996297
 30
0.0
 11
23.56599999997638
 21
5.5200999999945
 31
0.0
1001
ACAD
1000
ASC_BOUNDS
1002
{
1070
    19
1005
105C2
1002
}
  0
LINE
  5
105A5
  8
0
 10
44.99999999995498
 20
-0.2368999999997641
 30
0.0
 11
40.02599999995994
 21
5.341799999994635
 31
0.0
1001
ACAD
1000
ASC_BOUNDS
1002
{
1070
    19
1005
105C4
1002
}
  0
LINE
  5
105A6
  8
0
 10
40.02599999995994
 20
5.341799999994635
 30
0.0
 11
40.02599999995994
 21
0.0
 31
0.0
1001
ACAD
1000
ASC_BOUNDS
1002
{
1070
    19
1005
105C4
1002
}
  0
LINE
  5
105A7
  8
0
 10
38.60499999996136
 20
8.999999999991019
 30
0.0
 11
38.60499999996136
 21
0.0
 31
0.0
1001
ACAD
1000
ASC_BOUNDS
1002
{
1070
    19
1005
105C4
1002
}
  0
LINE
  5
105A8
  8
0
 10
44.99999999995498
 20
8.763099999991255
 30
0.0
 11
44.99999999995498
 21
-0.2368999999997641
 31
0.0
1001
ACAD
1000
ASC_BOUNDS
1002
{
1070
    19
1005
105C4
1002
}
  0
LINE
  5
105A9
  8
0
 10
38.60499999996136
 20
0.0
 30
0.0
 11
40.02599999995994
 21
0.0
 31
0.0
1001
ACAD
1000
ASC_BOUNDS
1002
{
1070
    19
1005
105C4
1002
}
  0
LINE
  5
105AA
  8
0
 10
43.57899999995641
 20
3.421199999996588
 30
0.0
 11
38.60499999996136
 21
8.999899999990987
 31
0.0
1001
ACAD
1000
ASC_BOUNDS
1002
{
1070
    19
1005
105C4
1002
}
  0
LINE
  5
105AB
  8
0
 10
43.57899999995641
 20
8.763099999991255
 30
0.0
 11
43.57899999995641
 21
3.421199999996588
 31
0.0
1001
ACAD
1000
ASC_BOUNDS
1002
{
1070
    19
1005
105C4
1002
}
  0
LINE
  5
105AC
  8
0
 10
43.57899999995641
 20
8.763099999991255
 30
0.0
 11
44.99999999995498
 21
8.763099999991255
 31
0.0
1001
ACAD
1000
ASC_BOUNDS
1002
{
1070
    19
1005
105C4
1002
}
  0
LINE
  5
105AD
  8
0
 10
37.67199999996831
 20
8.763099999991255
 30
0.0
 11
36.23199999996837
 21
8.763099999991255
 31
0.0
  0
LINE
  5
105AE
  8
0
 10
31.64199999996833
 20
8.763099999991255
 30
0.0
 11
31.64199999996833
 21
2.481619422925121
 31
0.0
  0
LINE
  5
105AF
  8
0
 10
37.67199999996831
 20
8.763099999991255
 30
0.0
 11
37.67199999996831
 21
2.481619422925121
 31
0.0
  0
LINE
  5
105B0
  8
0
 10
36.23199999996837
 20
8.763099999991255
 30
0.0
 11
36.23199999996837
 21
2.481619422925064
 31
0.0
  0
LINE
  5
105B1
  8
0
 10
33.08199999996839
 20
8.763099999991255
 30
0.0
 11
33.08199999996839
 21
2.481619422925121
 31
0.0
  0
ARC
  5
105B2
  8
0
 10
34.65699999996832
 20
3.183099999991214
 30
0.0
 40
3.420000000000007
 50
240.0000000000255
 51
299.9999999999766
  0
ARC
  5
105B3
  8
0
 10
34.65699999996832
 20
3.183099999991214
 30
0.0
 40
1.97999999999999
 50
240.000000000026
 51
299.9999999999703
  0
LINE
  5
105B4
  8
0
 10
33.08199999996828
 20
8.763099999991255
 30
0.0
 11
31.64199999996833
 21
8.763099999991255
 31
0.0
  0
ARC
  5
105B5
  8
0
 10
35.06199999996829
 20
2.481619422925064
 30
0.0
 40
1.17
 50
299.9999999999699
 51
0.0
  0
ARC
  5
105B6
  8
0
 10
34.25199999996835
 20
2.481619422925121
 30
0.0
 40
1.17
 50
180.0
 51
240.0000000000238
  0
ARC
  5
105B7
  8
0
 10
35.06199999996841
 20
2.481619422925121
 30
0.0
 40
2.61
 50
299.9999999999756
 51
0.0
  0
ARC
  5
105B8
  8
0
 10
34.25199999996835
 20
2.481619422925121
 30
0.0
 40
2.61
 50
180.0
 51
240.0000000000244
  0
LINE
  5
105B9
  8
0
 10
29.30199999996933
 20
8.763099999991255
 30
0.0
 11
30.74199999996927
 21
8.763099999991255
 31
0.0
1001
ACAD
1000
ASC_BOUNDS
1002
{
1070
    19
1005
105C2
1002
}
  0
LINE
  5
105BA
  8
0
 10
30.74199999996927
 20
8.763099999991255
 30
0.0
 11
30.74199999996927
 21
2.373099999991211
 31
0.0
1001
ACAD
1000
ASC_BOUNDS
1002
{
1070
    19
1005
105C2
1002
}
  0
LINE
  5
105BB
  8
0
 10
26.02015566812236
 20
0.0330999999912365
 30
0.0
 11
28.40199999996923
 21
0.0330999999912365
 31
0.0
1001
ACAD
1000
ASC_BOUNDS
1002
{
1070
    19
1005
105C2
1002
}
  0
LINE
  5
105BC
  8
0
 10
29.30199999996933
 20
8.763099999991255
 30
0.0
 11
29.30199999996933
 21
2.283099999991236
 31
0.0
1001
ACAD
1000
ASC_BOUNDS
1002
{
1070
    19
1005
105C2
1002
}
  0
LINE
  5
105BD
  8
0
 10
26.97358892824991
 20
1.383099999991202
 30
0.0
 11
28.40199999996923
 21
1.383099999991202
 31
0.0
1001
ACAD
1000
ASC_BOUNDS
1002
{
1070
    19
1005
105C2
1002
}
  0
ARC
  5
105BE
  8
0
 10
28.40199999996923
 20
2.283099999991236
 30
0.0
 40
0.9
 50
270.0
 51
0.0
1001
ACAD
1000
ASC_BOUNDS
1002
{
1070
    19
1005
105C2
1002
}
  0
ARC
  5
105BF
  8
0
 10
28.40199999996923
 20
2.373099999991211
 30
0.0
 40
2.34
 50
270.0
 51
0.0
1001
ACAD
1000
ASC_BOUNDS
1002
{
1070
    19
1005
105C2
1002
}
  0
INSERT
  5
105C0
  8
0
  2
*X70
 10
0.0
 20
0.0
 30
0.0
1001
ACAD
1000
HATCH
1002
{
1070
    19
1000
ANSI37
1040
0.15
1040
0.0
1000
ASC_BOUNDS
1070
     2
1070
     2
1070
    12
1005
1057F
1005
10580
1005
10587
1005
10596
1005
10599
1005
10597
1005
10588
1005
1058D
1005
1058B
1005
1058F
1005
1058E
1005
10590
1070
     2
1070
     3
1005
1059B
1005
1059D
1005
1059C
1000
ASC_SEEDPOINT
1011
3.614004224891801
1021
2.996669441146025
1031
0.0
1021
2.996669441146025
1031
0.0
1000
R14_HATCH_DATA
1000
105C0
1011
1.0
1021
0.0
1031
0.0
1021
0.0
1031
0.0
1011
0.0
1021
1.0
1031
0.0
1021
1.0
1031
0.0
1011
0.0
1021
0.0
1031
1.0
1021
0.0
1031
1.0
1040
0.0
1010
0.0
1020
0.0
1030
1.0
1000
ANSI37
1070
     0
1070
     1
1071
        2
1071
        7
1070
     0
1070
     1
1071
       17
1040
13.26299999998673
1040
-0.0001000000000317
1040
9.236999999990758
1040
8.999899999990987
1040
9.236999999990758
1040
8.999999999991019
1040
5.657999999994331
1040
0.9999999999989768
1040
3.181999999996833
1040
4.668599999995308
1040
6.432999999993513
1040
8.763099999991255
1040
4.617999999995391
1040
8.763099999991255
1040
1.420999999998571
1040
4.736799999995242
1040
4.617999999995391
1040
-0.0001000000000317
1040
4.617999999995391
1040
0.0
1040
6.766999999993232
1040
0.0
1040
6.766999999993232
1040
-0.0001000000000317
1040
7.826999999992154
1040
2.368399999997621
1040
10.64699999998936
1040
2.368399999997621
1040
11.70599999998831
1040
-0.0001000000000317
1040
11.70599999998831
1040
0.0
1040
13.26299999998673
1040
0.0
1071
       12
1005
1057F
1005
10580
1005
10587
1005
10596
1005
10599
1005
10597
1005
10588
1005
1058D
1005
1058B
1005
1058F
1005
1058E
1005
10590
1071
       22
1070
     0
1070
     1
1071
        3
1040
9.236999999990758
1040
5.5200999999945
1040
10.06399999998996
1040
3.670999999996297
1040
8.409999999991555
1040
3.670999999996297
1071
        3
1005
1059B
1005
1059D
1005
1059C
1070
     0
1070
     1
1040
0.0
1040
0.15
1070
     0
1070
     2
1040
0.7853981633974483
1040
49.29960901727088
1040
-10.17736998311392
1040
-0.3367596045400932
1040
0.3367596045400932
1070
     0
1040
2.356194490192345
1040
49.29960901727088
1040
-10.17736998311392
1040
-0.3367596045400932
1040
-0.3367596045400932
1070
     0
1040
0.0110235143455945
1071
        2
1040
3.614004224891801
1040
2.996669441146025
1040
0.0
1040
3.614004224891801
1040
2.996669441146025
1040
0.0
1002
}
  0
INSERT
  5
105C1
  8
0
  2
*X71
 10
0.0
 20
0.0
 30
0.0
1001
ACAD
1000
HATCH
1002
{
1070
    19
1000
ANSI37
1040
0.15
1040
0.0
1000
ASC_BOUNDS
1070
     1
1070
     2
1070
    10
1005
10581
1005
10582
1005
105A3
1005
105A1
1005
105A2
1005
10595
1005
1059A
1005
1059E
1005
10584
1005
10583
1000
ASC_SEEDPOINT
1011
14.73245321214324
1021
2.798246178283421
1031
0.0
1021
2.798246178283421
1031
0.0
1000
R14_HATCH_DATA
1000
105C1
1011
1.0
1021
0.0
1031
0.0
1021
0.0
1031
0.0
1011
0.0
1021
1.0
1031
0.0
1021
1.0
1031
0.0
1011
0.0
1021
0.0
1031
1.0
1021
0.0
1031
1.0
1040
0.0
1010
0.0
1020
0.0
1030
1.0
1000
ANSI37
1070
     0
1070
     1
1071
        1
1071
        7
1070
     0
1070
     1
1071
       10
1040
16.46099999998353
1040
5.432899999994561
1040
18.59199999998134
1040
-0.2368999999997641
1040
22.38199999997767
1040
8.763099999991255
1040
20.89099999997916
1040
8.763099999991255
1040
18.59799999998143
1040
3.315799999996671
1040
16.46099999998353
1040
8.999899999990987
1040
14.32399999998563
1040
3.315799999996671
1040
12.02999999998792
1040
8.763099999991255
1040
10.53899999998941
1040
8.763099999991255
1040
14.32899999998563
1040
-0.2368999999997641
1071
       10
1005
10581
1005
10582
1005
105A3
1005
105A1
1005
105A2
1005
10595
1005
1059A
1005
1059E
1005
10584
1005
10583
1070
     0
1070
     1
1040
0.0
1040
0.15
1070
     0
1070
     2
1040
0.7853981633974483
1040
49.29960901727088
1040
-10.17736998311392
1040
-0.3367596045400932
1040
0.3367596045400932
1070
     0
1040
2.356194490192345
1040
49.29960901727088
1040
-10.17736998311392
1040
-0.3367596045400932
1040
-0.3367596045400932
1070
     0
1040
0.0110235143455945
1071
        1
1040
14.73245321214324
1040
2.798246178283421
1040
0.0
1002
}
  0
INSERT
  5
105C2
  8
0
  2
*X72
 10
0.0
 20
0.0
 30
0.0
1001
ACAD
1000
HATCH
1002
{
1070
    19
1000
ANSI37
1040
0.15
1040
0.0
1000
ASC_BOUNDS
1070
     2
1070
     2
1070
    13
1005
10585
1005
10592
1005
10593
1005
10591
1005
10594
1005
105BB
1005
105BF
1005
105BA
1005
105B9
1005
105BC
1005
105BE
1005
105BD
1005
10586
1070
     2
1070
     3
1005
1059F
1005
105A4
1005
105A0
1000
ASC_SEEDPOINT
1011
21.97929957367762
1021
3.294304244259308
1031
0.0
1021
3.294304244259308
1031
0.0
1000
R14_HATCH_DATA
1000
105C2
1011
1.0
1021
0.0
1031
0.0
1021
0.0
1031
0.0
1011
0.0
1021
1.0
1031
0.0
1021
1.0
1031
0.0
1011
0.0
1021
0.0
1031
1.0
1021
0.0
1031
1.0
1040
0.0
1010
0.0
1020
0.0
1030
1.0
1000
ANSI37
1070
     0
1070
     1
1071
        2
1071
        7
1070
     1
1070
     1
1071
       15
1040
23.56599999997638
1040
8.999899999990987
1040
0.0
1040
19.53899999998043
1040
-0.0001000000000317
1040
0.0
1040
19.53899999998043
1040
0.0
1040
0.0
1040
21.09599999997886
1040
0.0
1040
0.0
1040
21.09599999997886
1040
-0.0001000000000317
1040
0.0
1040
22.15599999997789
1040
2.368399999997621
1040
0.0
1040
24.97599999997499
1040
2.368399999997621
1040
0.0
1040
26.02015566812236
1040
0.0330999999912365
1040
0.0
1040
28.40199999996923
1040
0.0330999999912365
1040
0.414213562373095
1040
30.74199999996923
1040
2.373099999991211
1040
0.0
1040
30.74199999996927
1040
8.763099999991255
1040
0.0
1040
29.30199999996933
1040
8.763099999991255
1040
0.0
1040
29.30199999996933
1040
2.283099999991236
1040
-0.414213562373095
1040
28.40199999996923
1040
1.383099999991237
1040
0.0
1040
26.97358892824991
1040
1.383099999991202
1040
0.0
1071
       13
1005
10585
1005
10592
1005
10593
1005
10591
1005
10594
1005
105BB
1005
105BF
1005
105BA
1005
105B9
1005
105BC
1005
105BE
1005
105BD
1005
10586
1071
       22
1070
     0
1070
     1
1071
        3
1040
22.7389999999773
1040
3.670999999996297
1040
23.56599999997638
1040
5.5200999999945
1040
24.39299999997559
1040
3.670999999996297
1071
        3
1005
1059F
1005
105A4
1005
105A0
1070
     0
1070
     1
1040
0.0
1040
0.15
1070
     0
1070
     2
1040
0.7853981633974483
1040
49.29960901727088
1040
-10.17736998311392
1040
-0.3367596045400932
1040
0.3367596045400932
1070
     0
1040
2.356194490192345
1040
49.29960901727088
1040
-10.17736998311392
1040
-0.3367596045400932
1040
-0.3367596045400932
1070
     0
1040
0.0110235143455945
1071
        2
1040
21.97929957367762
1040
3.294304244259308
1040
0.0
1040
21.97929957367762
1040
3.294304244259308
1040
0.0
1002
}
  0
INSERT
  5
105C3
  8
0
  2
*X73
 10
0.0
 20
0.0
 30
0.0
1001
ACAD
1000
HATCH
1002
{
1070
    19
1000
ANSI37
1040
0.15
1040
0.0
1000
R14_HATCH_DATA
1000
105C3
1011
1.0
1021
0.0
1031
0.0
1021
0.0
1031
0.0
1011
0.0
1021
1.0
1031
0.0
1021
1.0
1031
0.0
1011
0.0
1021
0.0
1031
1.0
1021
0.0
1031
1.0
1040
0.0
1010
0.0
1020
0.0
1030
1.0
1000
ANSI37
1070
     0
1070
     1
1071
        1
1071
        7
1070
     1
1070
     1
1071
       12
1040
31.64199999996833
1040
2.481619422925121
1040
0.2679491924310942
1040
32.94699999997067
1040
0.2212931190493919
1040
0.2679491924301353
1040
36.36699999995983
1040
0.2212931190459813
1040
0.2679491924321411
1040
37.67199999996831
1040
2.481619422928361
1040
0.0
1040
37.67199999996831
1040
8.763099999991255
1040
0.0
1040
36.23199999996837
1040
8.763099999991255
1040
0.0
1040
36.23199999996837
1040
2.481619422925064
1040
-0.2679491924310291
1040
35.64699999996708
1040
1.468369700498386
1040
-0.267949192430519
1040
33.66699999997093
1040
1.468369700497703
1040
-0.267949192431809
1040
33.08199999996839
1040
2.481619422926997
1040
0.0
1040
33.08199999996839
1040
8.763099999991255
1040
0.0
1040
31.64199999996833
1040
8.763099999991255
1040
0.0
1071
        0
1070
     0
1070
     1
1040
0.0
1040
0.15
1070
     0
1070
     2
1040
0.7853981633974483
1040
49.29960901727088
1040
-10.17736998311392
1040
-0.3367596045400932
1040
0.3367596045400932
1070
     0
1040
2.356194490192345
1040
49.29960901727088
1040
-10.17736998311392
1040
-0.3367596045400932
1040
-0.3367596045400932
1070
     0
1040
0.0110235143455945
1071
        1
1040
32.30357378967278
1040
3.988785755459219
1040
0.0
1002
}
  0
INSERT
  5
105C4
  8
0
  2
*X74
 10
0.0
 20
0.0
 30
0.0
1001
ACAD
1000
HATCH
1002
{
1070
    19
1000
ANSI37
1040
0.15
1040
0.0
1000
ASC_BOUNDS
1070
     1
1070
     2
1070
     8
1005
105A5
1005
105A8
1005
105AC
1005
105AB
1005
105AA
1005
105A7
1005
105A9
1005
105A6
1000
ASC_SEEDPOINT
1011
39.74896370716704
1021
4.484843821435049
1031
0.0
1021
4.484843821435049
1031
0.0
1000
R14_HATCH_DATA
1000
105C4
1011
1.0
1021
0.0
1031
0.0
1021
0.0
1031
0.0
1011
0.0
1021
1.0
1031
0.0
1021
1.0
1031
0.0
1011
0.0
1021
0.0
1031
1.0
1021
0.0
1031
1.0
1040
0.0
1010
0.0
1020
0.0
1030
1.0
1000
ANSI37
1070
     0
1070
     1
1071
        1
1071
        7
1070
     0
1070
     1
1071
        9
1040
40.02599999995994
1040
5.341799999994635
1040
44.99999999995498
1040
-0.2368999999997641
1040
44.99999999995498
1040
8.763099999991255
1040
43.57899999995641
1040
8.763099999991255
1040
43.57899999995641
1040
3.421199999996588
1040
38.60499999996136
1040
8.999899999990987
1040
38.60499999996136
1040
8.999999999991019
1040
38.60499999996136
1040
0.0
1040
40.02599999995994
1040
0.0
1071
        8
1005
105A5
1005
105A8
1005
105AC
1005
105AB
1005
105AA
1005
105A7
1005
105A9
1005
105A6
1070
     0
1070
     1
1040
0.0
1040
0.15
1070
     0
1070
     2
1040
0.7853981633974483
1040
49.29960901727088
1040
-10.17736998311392
1040
-0.3367596045400932
1040
0.3367596045400932
1070
     0
1040
2.356194490192345
1040
49.29960901727088
1040
-10.17736998311392
1040
-0.3367596045400932
1040
-0.3367596045400932
1070
     0
1040
0.0110235143455945
1071
        1
1040
39.74896370716704
1040
4.484843821435049
1040
0.0
1002
}
  0
INSERT
  5
105C5
  8
0
  2
*X75
 10
0.0
 20
0.0
 30
0.0
1001
ACAD
1000
HATCH
1002
{
1070
    19
1000
ANSI37
1040
0.15
1040
0.0
1000
ASC_BOUNDS
1070
     1
1070
     2
1070
     4
1005
10589
1005
10598
1005
1058A
1005
1058C
1000
ASC_SEEDPOINT
1011
1.079051535452663
1021
4.148538732891836
1031
0.0
1021
4.148538732891836
1031
0.0
1000
R14_HATCH_DATA
1000
105C5
1011
1.0
1021
0.0
1031
0.0
1021
0.0
1031
0.0
1011
0.0
1021
1.0
1031
0.0
1021
1.0
1031
0.0
1011
0.0
1021
0.0
1031
1.0
1021
0.0
1031
1.0
1040
0.0
1010
0.0
1020
0.0
1030
1.0
1000
ANSI37
1070
     0
1070
     1
1071
        1
1071
        7
1070
     0
1070
     1
1071
        4
1040
1.420999999998571
1040
0.0
1040
1.420999999998571
1040
8.763099999991255
1040
0.0
1040
8.763099999991255
1040
0.0
1040
0.0
1071
        4
1005
10589
1005
10598
1005
1058A
1005
1058C
1070
     0
1070
     1
1040
0.0
1040
0.15
1070
     0
1070
     2
1040
0.7853981633974483
1040
49.29960901727088
1040
-10.17736998311392
1040
-0.3367596045400932
1040
0.3367596045400932
1070
     0
1040
2.356194490192345
1040
49.29960901727088
1040
-10.17736998311392
1040
-0.3367596045400932
1040
-0.3367596045400932
1070
     0
1040
0.0053004257112761
1071
        1
1040
1.079051535452663
1040
4.148538732891836
1040
0.0
1002
}
  0
ENDBLK
  5
10C7D
  8
0
  0
BLOCK
  8
0
  2
NO3CIRCLE
 70
     2
 10
0.0
 20
0.0
 30
0.0
  3
NO3CIRCLE
  1

  0
CIRCLE
  5
14C11
  8
0
  6
BYBLOCK
 62
     0
 10
0.0
 20
0.0
 30
0.0
 40
4.2
  0
ATTDEF
  5
14C12
  8
1TEXT
 10
-3.428571428571427
 20
-2.0
 30
0.0
 40
4.0
  1
000
 41
0.6
  7
STANDARD06
 72
     4
 11
0.0
 21
0.0
 31
0.0
  3
NO3
  2
NO3
 70
     0
  0
ENDBLK
  5
14C13
  8
0
  0
BLOCK
  8
0
  2
*X70
 70
     1
 10
0.0
 20
0.0
 30
0.0
  3
*X70
  1

  0
LINE
  5
1B00B
  8
0
  6
CONTINUOUS
 10
3.418023043697893
 20
7.251849696850613
 30
0.0
 11
4.929273346838536
 21
8.763099999991255
 31
0.0
  0
LINE
  5
1B00C
  8
0
  6
CONTINUOUS
 10
1.483656411257782
 20
4.643963855330318
 30
0.0
 11
5.60279255591872
 21
8.763099999991255
 31
0.0
  0
LINE
  5
1B00D
  8
0
  6
CONTINUOUS
 10
1.755053947328235
 20
4.241842182320584
 30
0.0
 11
6.276311764998907
 21
8.763099999991255
 31
0.0
  0
LINE
  5
1B00E
  8
0
  6
CONTINUOUS
 10
2.026451483398688
 20
3.839720509310849
 30
0.0
 11
4.441040904851878
 21
6.254309930764039
 31
0.0
  0
LINE
  5
1B00F
  8
0
  6
CONTINUOUS
 10
2.297849019469139
 20
3.437598836301114
 30
0.0
 11
3.321765168359338
 21
4.461514985191313
 31
0.0
  0
LINE
  5
1B010
  8
0
  6
CONTINUOUS
 10
2.569246555539591
 20
3.03547716329138
 30
0.0
 11
3.593163397972743
 21
4.059394005724531
 31
0.0
  0
LINE
  5
1B011
  8
0
  6
CONTINUOUS
 10
2.840644091610043
 20
2.633355490281646
 30
0.0
 11
3.864561627586149
 21
3.657273026257751
 31
0.0
  0
LINE
  5
1B012
  8
0
  6
CONTINUOUS
 10
3.112041627680496
 20
2.231233817271911
 30
0.0
 11
4.135959857199554
 21
3.25515204679097
 31
0.0
  0
LINE
  5
1B013
  8
0
  6
CONTINUOUS
 10
3.383439163750948
 20
1.829112144262177
 30
0.0
 11
4.40735808681296
 21
2.853031067324189
 31
0.0
  0
LINE
  5
1B014
  8
0
  6
CONTINUOUS
 10
3.654836699821399
 20
1.426990471252442
 30
0.0
 11
4.678756316426365
 21
2.450910087857407
 31
0.0
  0
LINE
  5
1B015
  8
0
  6
CONTINUOUS
 10
3.926234235891853
 20
1.024868798242709
 30
0.0
 11
4.95015454603977
 21
2.048789108390626
 31
0.0
  0
LINE
  5
1B016
  8
0
  6
CONTINUOUS
 10
4.197631771962304
 20
0.6227471252329737
 30
0.0
 11
5.221552775653176
 21
1.646668128923846
 31
0.0
  0
LINE
  5
1B017
  8
0
  6
CONTINUOUS
 10
8.715877546767851
 20
7.835069736359266
 30
0.0
 11
9.435953450375058
 21
8.555145639966472
 31
0.0
  0
LINE
  5
1B018
  8
0
  6
CONTINUOUS
 10
8.170620868422267
 20
6.616293848933497
 30
0.0
 11
9.644120833743461
 21
8.08979381425469
 31
0.0
  0
LINE
  5
1B019
  8
0
  6
CONTINUOUS
 10
7.625364190076684
 20
5.397517961507727
 30
0.0
 11
9.852288217111864
 21
7.624441988542907
 31
0.0
  0
LINE
  5
1B01A
  8
0
  6
CONTINUOUS
 10
7.080107511731101
 20
4.178742074081957
 30
0.0
 11
10.06045560048027
 21
7.159090162831124
 31
0.0
  0
LINE
  5
1B01B
  8
0
  6
CONTINUOUS
 10
6.534850833385518
 20
2.959966186656187
 30
0.0
 11
10.26862298384867
 21
6.693738337119342
 31
0.0
  0
LINE
  5
1B01C
  8
0
  6
CONTINUOUS
 10
4.469029308032756
 20
0.2206254522232385
 30
0.0
 11
5.492951005266582
 21
1.244547149457064
 31
0.0
  0
LINE
  5
1B01D
  8
0
  6
CONTINUOUS
 10
5.989594155039935
 20
1.741190299230417
 30
0.0
 11
8.806950407233131
 21
4.558546551423613
 31
0.0
  0
LINE
  5
1B01E
  8
0
  6
CONTINUOUS
 10
9.401251593263643
 20
5.152847737454126
 30
0.0
 11
10.47679036721708
 21
6.228386511407559
 31
0.0
  0
LINE
  5
1B01F
  8
0
  6
CONTINUOUS
 10
4.921837203428691
 20
-0.0000858614610131
 30
0.0
 11
8.592923064886001
 21
3.670999999996297
 31
0.0
  0
LINE
  5
1B020
  8
0
  6
CONTINUOUS
 10
9.609390446785305
 20
4.6874673818956
 30
0.0
 11
10.68495775058548
 21
5.763034685695775
 31
0.0
  0
LINE
  5
1B021
  8
0
  6
CONTINUOUS
 10
5.595387755019432
 20
-0.0000545189504582
 30
0.0
 11
7.716137258923768
 21
2.120694984953879
 31
0.0
  0
LINE
  5
1B022
  8
0
  6
CONTINUOUS
 10
6.268938306610172
 20
-0.000023176439905
 30
0.0
 11
7.170485805526503
 21
0.9015243224764267
 31
0.0
  0
LINE
  5
1B023
  8
0
  6
CONTINUOUS
 10
7.963842273967511
 20
2.368399999997621
 30
0.0
 11
9.266442273966188
 21
3.670999999996297
 31
0.0
  0
LINE
  5
1B024
  8
0
  6
CONTINUOUS
 10
8.637361483047696
 20
2.368399999997621
 30
0.0
 11
9.939961483046375
 21
3.670999999996297
 31
0.0
  0
LINE
  5
1B025
  8
0
  6
CONTINUOUS
 10
9.817529300306965
 20
4.222087026337075
 30
0.0
 11
10.89312513395388
 21
5.297682859983993
 31
0.0
  0
LINE
  5
1B026
  8
0
  6
CONTINUOUS
 10
10.02566815382863
 20
3.756706670778549
 30
0.0
 11
11.10129251732229
 21
4.832331034272211
 31
0.0
  0
LINE
  5
1B027
  8
0
  6
CONTINUOUS
 10
9.310880692127883
 20
2.368399999997621
 30
0.0
 11
11.30945990069069
 21
4.366979208560428
 31
0.0
  0
LINE
  5
1B028
  8
0
  6
CONTINUOUS
 10
9.98439990120807
 20
2.36839999999762
 30
0.0
 11
11.5176272840591
 21
3.901627382848645
 31
0.0
  0
LINE
  5
1B029
  8
0
  6
CONTINUOUS
 10
10.65037369446246
 20
2.36085458417182
 30
0.0
 11
11.7257946674275
 21
3.436275557136862
 31
0.0
  0
LINE
  5
1B02A
  8
0
  6
CONTINUOUS
 10
10.85847197087848
 20
1.895433651507656
 30
0.0
 11
11.9339620507959
 21
2.97092373142508
 31
0.0
  0
LINE
  5
1B02B
  8
0
  6
CONTINUOUS
 10
11.0665702472945
 20
1.430012718843491
 30
0.0
 11
12.14212943416431
 21
2.505571905713296
 31
0.0
  0
LINE
  5
1B02C
  8
0
  6
CONTINUOUS
 10
11.27466852371052
 20
0.9645917861793256
 30
0.0
 11
12.35029681753271
 21
2.040220080001513
 31
0.0
  0
LINE
  5
1B02D
  8
0
  6
CONTINUOUS
 10
11.48276680012654
 20
0.4991708535151611
 30
0.0
 11
12.55846420090111
 21
1.57486825428973
 31
0.0
  0
LINE
  5
1B02E
  8
0
  6
CONTINUOUS
 10
11.69086507654257
 20
0.0337499208509957
 30
0.0
 11
12.76663158426952
 21
1.109516428577947
 31
0.0
  0
LINE
  5
1B02F
  8
0
  6
CONTINUOUS
 10
12.33057447873954
 20
-0.0000598860322123
 30
0.0
 11
12.97479896763792
 21
0.6441646028661663
 31
0.0
  0
LINE
  5
1B030
  8
0
  6
CONTINUOUS
 10
13.00413694809395
 20
-0.0000166257579952
 30
0.0
 11
13.18296635100632
 21
0.1788127771543824
 31
0.0
  0
LINE
  5
1B031
  8
0
  6
CONTINUOUS
 10
4.772852165289667
 20
-0.000092794222212
 30
0.0
 11
4.296495091028902
 21
0.4762642800385528
 31
0.0
  0
LINE
  5
1B032
  8
0
  6
CONTINUOUS
 10
5.446340034776103
 20
-0.0000614546284616
 30
0.0
 11
2.898195908335625
 21
2.548082671812017
 31
0.0
  0
LINE
  5
1B033
  8
0
  6
CONTINUOUS
 10
6.119827904262539
 20
-0.0000301150347113
 30
0.0
 11
1.499896725642348
 21
4.61990106358548
 31
0.0
  0
LINE
  5
1B034
  8
0
  6
CONTINUOUS
 10
6.775136745476159
 20
0.0181802528318542
 30
0.0
 11
5.699826040202669
 21
1.093490958105344
 31
0.0
  0
LINE
  5
1B035
  8
0
  6
CONTINUOUS
 10
6.983376846288489
 20
0.4834593610997118
 30
0.0
 11
5.908008617934405
 21
1.558827589453796
 31
0.0
  0
LINE
  5
1B036
  8
0
  6
CONTINUOUS
 10
5.377063484962296
 20
1.416253513345719
 30
0.0
 11
1.702276957014131
 21
5.091040041293883
 31
0.0
  0
LINE
  5
1B037
  8
0
  6
CONTINUOUS
 10
3.978745891735324
 20
3.488090315652877
 30
0.0
 11
2.000373521109399
 21
5.466462686278803
 31
0.0
  0
LINE
  5
1B038
  8
0
  6
CONTINUOUS
 10
7.191616947100819
 20
0.948738469367568
 30
0.0
 11
6.11619119566614
 21
2.024164220802247
 31
0.0
  0
LINE
  5
1B039
  8
0
  6
CONTINUOUS
 10
7.399857047913149
 20
1.414017577635424
 30
0.0
 11
6.324373773397875
 21
2.489500852150698
 31
0.0
  0
LINE
  5
1B03A
  8
0
  6
CONTINUOUS
 10
7.608097148725479
 20
1.879296685903281
 30
0.0
 11
6.53255635112961
 21
2.95483748349915
 31
0.0
  0
LINE
  5
1B03B
  8
0
  6
CONTINUOUS
 10
7.816337249537808
 20
2.344575794171138
 30
0.0
 11
6.740738928861345
 21
3.420174114847601
 31
0.0
  0
LINE
  5
1B03C
  8
0
  6
CONTINUOUS
 10
3.310241080789734
 20
4.830114335678653
 30
0.0
 11
2.298470085204666
 21
5.84188533126372
 31
0.0
  0
LINE
  5
1B03D
  8
0
  6
CONTINUOUS
 10
3.60832983563551
 20
5.205544789913063
 30
0.0
 11
2.596566649299935
 21
6.217307976248638
 31
0.0
  0
LINE
  5
1B03E
  8
0
  6
CONTINUOUS
 10
3.906418590481286
 20
5.580975244147473
 30
0.0
 11
2.894663213395203
 21
6.592730621233557
 31
0.0
  0
LINE
  5
1B03F
  8
0
  6
CONTINUOUS
 10
4.204507345327062
 20
5.956405698381884
 30
0.0
 11
3.192759777490472
 21
6.968153266218474
 31
0.0
  0
LINE
  5
1B040
  8
0
  6
CONTINUOUS
 10
8.466032252791512
 20
2.368399999997621
 30
0.0
 11
6.948921506593081
 21
3.885510746196053
 31
0.0
  0
LINE
  5
1B041
  8
0
  6
CONTINUOUS
 10
9.139551461871699
 20
2.36839999999762
 30
0.0
 11
7.157104084324816
 21
4.350847377544504
 31
0.0
  0
LINE
  5
1B042
  8
0
  6
CONTINUOUS
 10
4.502596100172839
 20
6.331836152616295
 30
0.0
 11
3.49085634158574
 21
7.343575911203393
 31
0.0
  0
LINE
  5
1B043
  8
0
  6
CONTINUOUS
 10
4.800684855018615
 20
6.707266606850705
 30
0.0
 11
3.788952905681008
 21
7.718998556188312
 31
0.0
  0
LINE
  5
1B044
  8
0
  6
CONTINUOUS
 10
12.18154012887317
 20
-0.0000694579236642
 30
0.0
 11
11.32140332908496
 21
0.8600673418645499
 31
0.0
  0
LINE
  5
1B045
  8
0
  6
CONTINUOUS
 10
12.85501608323566
 20
-0.0000262032059659
 30
0.0
 11
10.77672456435345
 21
2.078265315676246
 31
0.0
  0
LINE
  5
1B046
  8
0
  6
CONTINUOUS
 10
9.813070670951886
 20
2.36839999999762
 30
0.0
 11
8.51047067095321
 21
3.670999999996297
 31
0.0
  0
LINE
  5
1B047
  8
0
  6
CONTINUOUS
 10
10.48658988003207
 20
2.36839999999762
 30
0.0
 11
9.183989880033396
 21
3.670999999996297
 31
0.0
  0
LINE
  5
1B048
  8
0
  6
CONTINUOUS
 10
8.441048632286794
 20
3.740422038662712
 30
0.0
 11
7.365286662056551
 21
4.816184008892956
 31
0.0
  0
LINE
  5
1B049
  8
0
  6
CONTINUOUS
 10
8.649187485808454
 20
4.205802394221237
 30
0.0
 11
7.573469239788285
 21
5.281520640241407
 31
0.0
  0
LINE
  5
1B04A
  8
0
  6
CONTINUOUS
 10
5.098773609864391
 20
7.082697061085115
 30
0.0
 11
4.087049469776277
 21
8.09442120117323
 31
0.0
  0
LINE
  5
1B04B
  8
0
  6
CONTINUOUS
 10
5.396862364710167
 20
7.458127515319526
 30
0.0
 11
4.385146033871544
 21
8.469843846158149
 31
0.0
  0
LINE
  5
1B04C
  8
0
  6
CONTINUOUS
 10
13.04801363231285
 20
0.4804954567970334
 30
0.0
 11
9.85750908911358
 21
3.670999999996297
 31
0.0
  0
LINE
  5
1B04D
  8
0
  6
CONTINUOUS
 10
8.857326339330116
 20
4.671182749779763
 30
0.0
 11
7.781651817520021
 21
5.746857271589858
 31
0.0
  0
LINE
  5
1B04E
  8
0
  6
CONTINUOUS
 10
5.694951119555943
 20
7.833557969553937
 30
0.0
 11
4.765409089118624
 21
8.763099999991255
 31
0.0
  0
LINE
  5
1B04F
  8
0
  6
CONTINUOUS
 10
12.50286117236978
 20
1.699167125820288
 30
0.0
 11
9.68611877250287
 21
4.515909525687196
 31
0.0
  0
LINE
  5
1B050
  8
0
  6
CONTINUOUS
 10
9.065465192851777
 20
5.136563105338288
 30
0.0
 11
7.989834395251757
 21
6.21219390293831
 31
0.0
  0
LINE
  5
1B051
  8
0
  6
CONTINUOUS
 10
5.993039874401719
 20
8.208988423788346
 30
0.0
 11
5.43892829819881
 21
8.763099999991255
 31
0.0
  0
LINE
  5
1B052
  8
0
  6
CONTINUOUS
 10
11.95770871242671
 20
2.917838794843543
 30
0.0
 11
8.19801697298349
 21
6.677530534286761
 31
0.0
  0
LINE
  5
1B053
  8
0
  6
CONTINUOUS
 10
6.291128629247495
 20
8.584418878022756
 30
0.0
 11
6.112447507278997
 21
8.763099999991255
 31
0.0
  0
LINE
  5
1B054
  8
0
  6
CONTINUOUS
 10
11.41255625248364
 20
4.136510463866797
 30
0.0
 11
8.406199550715227
 21
7.142867165635211
 31
0.0
  0
LINE
  5
1B055
  8
0
  6
CONTINUOUS
 10
10.86740379254057
 20
5.355182132890051
 30
0.0
 11
8.614382128446962
 21
7.608203796983664
 31
0.0
  0
LINE
  5
1B056
  8
0
  6
CONTINUOUS
 10
10.3222513325975
 20
6.573853801913305
 30
0.0
 11
8.822564706178696
 21
8.073540428332114
 31
0.0
  0
LINE
  5
1B057
  8
0
  6
CONTINUOUS
 10
9.777098872654436
 20
7.792525470936562
 30
0.0
 11
9.030747283910433
 21
8.538877059680566
 31
0.0
  0
ENDBLK
  5
1B199
  8
0
  0
BLOCK
  8
0
  2
*X71
 70
     1
 10
0.0
 20
0.0
 30
0.0
  3
*X71
  1

  0
LINE
  5
1B059
  8
0
  6
CONTINUOUS
 10
10.67292308101235
 20
8.445076852443387
 30
0.0
 11
10.99094622856022
 21
8.763099999991255
 31
0.0
  0
LINE
  5
1B05A
  8
0
  6
CONTINUOUS
 10
10.87250383178748
 20
7.971138394138331
 30
0.0
 11
11.6644654376404
 21
8.763099999991255
 31
0.0
  0
LINE
  5
1B05B
  8
0
  6
CONTINUOUS
 10
11.07208458256261
 20
7.497199935833273
 30
0.0
 11
12.12126590876355
 21
8.546381262034211
 31
0.0
  0
LINE
  5
1B05C
  8
0
  6
CONTINUOUS
 10
11.27166533333774
 20
7.023261477528216
 30
0.0
 11
12.32085164573666
 21
8.072447789927136
 31
0.0
  0
LINE
  5
1B05D
  8
0
  6
CONTINUOUS
 10
11.47124608411287
 20
6.549323019223158
 30
0.0
 11
12.52043738270977
 21
7.59851431782006
 31
0.0
  0
LINE
  5
1B05E
  8
0
  6
CONTINUOUS
 10
11.670826834888
 20
6.075384560918101
 30
0.0
 11
12.72002311968288
 21
7.124580845712984
 31
0.0
  0
LINE
  5
1B05F
  8
0
  6
CONTINUOUS
 10
11.87040758566313
 20
5.601446102613043
 30
0.0
 11
12.91960885665599
 21
6.650647373605907
 31
0.0
  0
LINE
  5
1B060
  8
0
  6
CONTINUOUS
 10
12.06998833643825
 20
5.127507644307986
 30
0.0
 11
13.1191945936291
 21
6.176713901498832
 31
0.0
  0
LINE
  5
1B061
  8
0
  6
CONTINUOUS
 10
12.26956908721338
 20
4.65356918600293
 30
0.0
 11
13.31878033060221
 21
5.702780429391757
 31
0.0
  0
LINE
  5
1B062
  8
0
  6
CONTINUOUS
 10
12.46914983798851
 20
4.179630727697873
 30
0.0
 11
13.51836606757532
 21
5.228846957284683
 31
0.0
  0
LINE
  5
1B063
  8
0
  6
CONTINUOUS
 10
12.66873058876364
 20
3.705692269392816
 30
0.0
 11
13.71795180454843
 21
4.754913485177607
 31
0.0
  0
LINE
  5
1B064
  8
0
  6
CONTINUOUS
 10
12.86831133953877
 20
3.231753811087759
 30
0.0
 11
13.91753754152154
 21
4.280980013070531
 31
0.0
  0
LINE
  5
1B065
  8
0
  6
CONTINUOUS
 10
13.0678920903139
 20
2.757815352782702
 30
0.0
 11
14.11712327849465
 21
3.807046540963456
 31
0.0
  0
LINE
  5
1B066
  8
0
  6
CONTINUOUS
 10
13.26747284108903
 20
2.283876894477644
 30
0.0
 11
14.31670901546777
 21
3.333113068856379
 31
0.0
  0
LINE
  5
1B067
  8
0
  6
CONTINUOUS
 10
16.36767838827179
 20
8.751678487061342
 30
0.0
 11
16.50332410898388
 21
8.887324207773432
 31
0.0
  0
LINE
  5
1B068
  8
0
  6
CONTINUOUS
 10
15.96190732182191
 20
7.67238821153127
 30
0.0
 11
16.68735328004734
 21
8.397834169756699
 31
0.0
  0
LINE
  5
1B069
  8
0
  6
CONTINUOUS
 10
15.55613625537202
 20
6.593097936001196
 30
0.0
 11
16.87138245111079
 21
7.908344131739965
 31
0.0
  0
LINE
  5
1B06A
  8
0
  6
CONTINUOUS
 10
15.15036518892213
 20
5.513807660471122
 30
0.0
 11
17.05541162217424
 21
7.418854093723231
 31
0.0
  0
LINE
  5
1B06B
  8
0
  6
CONTINUOUS
 10
14.74459412247225
 20
4.434517384941048
 30
0.0
 11
17.2394407932377
 21
6.929364055706499
 31
0.0
  0
LINE
  5
1B06C
  8
0
  6
CONTINUOUS
 10
14.33882305602236
 20
3.355227109410975
 30
0.0
 11
17.42346996430115
 21
6.439874017689766
 31
0.0
  0
LINE
  5
1B06D
  8
0
  6
CONTINUOUS
 10
13.46705359186416
 20
1.809938436172586
 30
0.0
 11
16.0819338255367
 21
4.424818669845129
 31
0.0
  0
LINE
  5
1B06E
  8
0
  6
CONTINUOUS
 10
16.63283254238972
 20
4.975717386698149
 30
0.0
 11
17.60749913536461
 21
5.950383979673033
 31
0.0
  0
LINE
  5
1B06F
  8
0
  6
CONTINUOUS
 10
13.66663434263929
 20
1.335999977867529
 30
0.0
 11
15.67604797733754
 21
3.345413612565779
 31
0.0
  0
LINE
  5
1B070
  8
0
  6
CONTINUOUS
 10
13.86621509341442
 20
0.8620615195624723
 30
0.0
 11
15.27016212913838
 21
2.26600855528643
 31
0.0
  0
LINE
  5
1B071
  8
0
  6
CONTINUOUS
 10
16.81682257348267
 20
4.486188208710908
 30
0.0
 11
17.79152830642806
 21
5.460893941656299
 31
0.0
  0
LINE
  5
1B072
  8
0
  6
CONTINUOUS
 10
17.00081260457561
 20
3.996659030723667
 30
0.0
 11
17.97555747749151
 21
4.971403903639565
 31
0.0
  0
LINE
  5
1B073
  8
0
  6
CONTINUOUS
 10
20.74362343514722
 20
8.412989070375462
 30
0.0
 11
21.09373436476302
 21
8.763099999991256
 31
0.0
  0
LINE
  5
1B074
  8
0
  6
CONTINUOUS
 10
20.25401257174777
 20
7.249858997895826
 30
0.0
 11
21.7672535738432
 21
8.763099999991255
 31
0.0
  0
LINE
  5
1B075
  8
0
  6
CONTINUOUS
 10
14.06579584418955
 20
0.3881230612574149
 30
0.0
 11
14.86427628093921
 21
1.186603498007082
 31
0.0
  0
LINE
  5
1B076
  8
0
  6
CONTINUOUS
 10
14.26537659496467
 20
-0.0858153970476412
 30
0.0
 11
14.45839043274005
 21
0.1071984407277329
 31
0.0
  0
LINE
  5
1B077
  8
0
  6
CONTINUOUS
 10
17.18480263566856
 20
3.507129852736426
 30
0.0
 11
18.15958664855496
 21
4.481913865622833
 31
0.0
  0
LINE
  5
1B078
  8
0
  6
CONTINUOUS
 10
17.3687926667615
 20
3.017600674749186
 30
0.0
 11
18.34361581961842
 21
3.9924238276061
 31
0.0
  0
LINE
  5
1B079
  8
0
  6
CONTINUOUS
 10
19.76440170834832
 20
6.086728925416191
 30
0.0
 11
22.33924590259489
 21
8.661573119662755
 31
0.0
  0
LINE
  5
1B07A
  8
0
  6
CONTINUOUS
 10
19.27479084494887
 20
4.923598852936555
 30
0.0
 11
21.84929622842713
 21
7.498104236414807
 31
0.0
  0
LINE
  5
1B07B
  8
0
  6
CONTINUOUS
 10
17.55278269785445
 20
2.528071496761945
 30
0.0
 11
18.52764499068187
 21
3.502933789589366
 31
0.0
  0
LINE
  5
1B07C
  8
0
  6
CONTINUOUS
 10
18.78517998154942
 20
3.760468780456919
 30
0.0
 11
21.35934655425936
 21
6.33463535316686
 31
0.0
  0
LINE
  5
1B07D
  8
0
  6
CONTINUOUS
 10
17.73677272894739
 20
2.038542318774704
 30
0.0
 11
20.8693968800916
 21
5.171166469918914
 31
0.0
  0
LINE
  5
1B07E
  8
0
  6
CONTINUOUS
 10
17.92076276004034
 20
1.549013140787464
 30
0.0
 11
20.37944720592384
 21
4.007697586670968
 31
0.0
  0
LINE
  5
1B07F
  8
0
  6
CONTINUOUS
 10
18.10475279113329
 20
1.059483962800223
 30
0.0
 11
19.88949753175608
 21
2.84422870342302
 31
0.0
  0
LINE
  5
1B080
  8
0
  6
CONTINUOUS
 10
18.28874282222623
 20
0.5699547848129822
 30
0.0
 11
19.39954785758832
 21
1.680759820175074
 31
0.0
  0
LINE
  5
1B081
  8
0
  6
CONTINUOUS
 10
18.47273285331918
 20
0.0804256068257416
 30
0.0
 11
18.90959818342056
 21
0.517290936927127
 31
0.0
  0
LINE
  5
1B082
  8
0
  6
CONTINUOUS
 10
14.3590401358224
 20
-0.1570118376323384
 30
0.0
 11
14.24903296539946
 21
-0.0470046672093929
 31
0.0
  0
LINE
  5
1B083
  8
0
  6
CONTINUOUS
 10
14.54309291258661
 20
0.332454594683643
 30
0.0
 11
13.75908329123172
 21
1.116464216038529
 31
0.0
  0
LINE
  5
1B084
  8
0
  6
CONTINUOUS
 10
14.72714568935081
 20
0.8219210269996244
 30
0.0
 11
13.26913361706399
 21
2.27993309928645
 31
0.0
  0
LINE
  5
1B085
  8
0
  6
CONTINUOUS
 10
14.91119846611502
 20
1.311387459315606
 30
0.0
 11
12.77918394289625
 21
3.443401982534371
 31
0.0
  0
LINE
  5
1B086
  8
0
  6
CONTINUOUS
 10
15.09525124287922
 20
1.800853891631587
 30
0.0
 11
12.28923426872852
 21
4.606870865782293
 31
0.0
  0
LINE
  5
1B087
  8
0
  6
CONTINUOUS
 10
15.27930401964343
 20
2.290320323947569
 30
0.0
 11
11.79928459456078
 21
5.770339749030213
 31
0.0
  0
LINE
  5
1B088
  8
0
  6
CONTINUOUS
 10
15.46335679640763
 20
2.77978675626355
 30
0.0
 11
14.48885470994921
 21
3.754288842721972
 31
0.0
  0
LINE
  5
1B089
  8
0
  6
CONTINUOUS
 10
13.88507249233704
 20
4.358071060334137
 30
0.0
 11
11.30933492039305
 21
6.933808632278135
 31
0.0
  0
LINE
  5
1B08A
  8
0
  6
CONTINUOUS
 10
18.75840522805855
 20
0.1582575336928151
 30
0.0
 11
18.25383727664818
 21
0.6628254851031863
 31
0.0
  0
LINE
  5
1B08B
  8
0
  6
CONTINUOUS
 10
15.64740957317184
 20
3.269253188579531
 30
0.0
 11
14.67288388101266
 21
4.243778880738705
 31
0.0
  0
LINE
  5
1B08C
  8
0
  6
CONTINUOUS
 10
13.39509276772158
 20
5.521569994029786
 30
0.0
 11
10.81938524622531
 21
8.097277515526056
 31
0.0
  0
LINE
  5
1B08D
  8
0
  6
CONTINUOUS
 10
18.95798597883369
 20
0.6321959919978686
 30
0.0
 11
17.84825644852853
 21
1.741925522303024
 31
0.0
  0
LINE
  5
1B08E
  8
0
  6
CONTINUOUS
 10
19.15756672960882
 20
1.106134450302922
 30
0.0
 11
17.44267562040888
 21
2.821025559502861
 31
0.0
  0
LINE
  5
1B08F
  8
0
  6
CONTINUOUS
 10
15.83146234993604
 20
3.758719620895513
 30
0.0
 11
14.85691305207612
 21
4.733268918755439
 31
0.0
  0
LINE
  5
1B090
  8
0
  6
CONTINUOUS
 10
16.01551512670025
 20
4.248186053211494
 30
0.0
 11
15.04094222313957
 21
5.222758956772172
 31
0.0
  0
LINE
  5
1B091
  8
0
  6
CONTINUOUS
 10
12.90511304310612
 20
6.685068927725435
 30
0.0
 11
10.8270819708403
 21
8.763099999991255
 31
0.0
  0
LINE
  5
1B092
  8
0
  6
CONTINUOUS
 10
12.41513331849066
 20
7.848567861421083
 30
0.0
 11
11.50060117992049
 21
8.763099999991255
 31
0.0
  0
LINE
  5
1B093
  8
0
  6
CONTINUOUS
 10
19.35714748038395
 20
1.580072908607975
 30
0.0
 11
17.03709479228923
 21
3.900125596702697
 31
0.0
  0
LINE
  5
1B094
  8
0
  6
CONTINUOUS
 10
19.55672823115909
 20
2.054011366913028
 30
0.0
 11
16.63151396416958
 21
4.979225633902534
 31
0.0
  0
LINE
  5
1B095
  8
0
  6
CONTINUOUS
 10
16.19956790346445
 20
4.737652485527476
 30
0.0
 11
15.22497139420302
 21
5.712248994788904
 31
0.0
  0
LINE
  5
1B096
  8
0
  6
CONTINUOUS
 10
16.38362068022866
 20
5.227118917843457
 30
0.0
 11
15.40900056526648
 21
6.201739032805637
 31
0.0
  0
LINE
  5
1B097
  8
0
  6
CONTINUOUS
 10
19.75630898193422
 20
2.527949825218081
 30
0.0
 11
18.70774536448286
 21
3.576513442669441
 31
0.0
  0
LINE
  5
1B098
  8
0
  6
CONTINUOUS
 10
19.95588973270936
 20
3.001888283523134
 30
0.0
 11
18.90726987211446
 21
4.050508144118028
 31
0.0
  0
LINE
  5
1B099
  8
0
  6
CONTINUOUS
 10
20.15547048348449
 20
3.475826741828186
 30
0.0
 11
19.10679437974606
 21
4.524502845566614
 31
0.0
  0
LINE
  5
1B09A
  8
0
  6
CONTINUOUS
 10
20.35505123425962
 20
3.94976520013324
 30
0.0
 11
19.30631888737766
 21
4.998497547015201
 31
0.0
  0
LINE
  5
1B09B
  8
0
  6
CONTINUOUS
 10
20.55463198503475
 20
4.423703658438292
 30
0.0
 11
19.50584339500926
 21
5.472492248463787
 31
0.0
  0
LINE
  5
1B09C
  8
0
  6
CONTINUOUS
 10
18.37481191085755
 20
3.909446896294752
 30
0.0
 11
15.59302973632993
 21
6.691229070822371
 31
0.0
  0
LINE
  5
1B09D
  8
0
  6
CONTINUOUS
 10
17.96904084440766
 20
4.988737171824825
 30
0.0
 11
15.77705890739338
 21
7.180719108839104
 31
0.0
  0
LINE
  5
1B09E
  8
0
  6
CONTINUOUS
 10
17.56326977795777
 20
6.068027447354899
 30
0.0
 11
15.96108807845684
 21
7.670209146855838
 31
0.0
  0
LINE
  5
1B09F
  8
0
  6
CONTINUOUS
 10
17.15749871150789
 20
7.147317722884972
 30
0.0
 11
16.14511724952029
 21
8.15969918487257
 31
0.0
  0
LINE
  5
1B0A0
  8
0
  6
CONTINUOUS
 10
16.751727645058
 20
8.226607998415046
 30
0.0
 11
16.32914642058374
 21
8.649189222889303
 31
0.0
  0
LINE
  5
1B0A1
  8
0
  6
CONTINUOUS
 10
20.75421273580989
 20
4.897642116743345
 30
0.0
 11
19.70536790264086
 21
5.946486949912374
 31
0.0
  0
LINE
  5
1B0A2
  8
0
  6
CONTINUOUS
 10
20.95379348658502
 20
5.371580575048398
 30
0.0
 11
19.90489241027246
 21
6.42048165136096
 31
0.0
  0
LINE
  5
1B0A3
  8
0
  6
CONTINUOUS
 10
21.15337423736015
 20
5.845519033353452
 30
0.0
 11
20.10441691790406
 21
6.894476352809547
 31
0.0
  0
LINE
  5
1B0A4
  8
0
  6
CONTINUOUS
 10
21.35295498813529
 20
6.319457491658505
 30
0.0
 11
20.30394142553566
 21
7.368471054258134
 31
0.0
  0
LINE
  5
1B0A5
  8
0
  6
CONTINUOUS
 10
21.55253573891042
 20
6.793395949963558
 30
0.0
 11
20.50346593316726
 21
7.842465755706721
 31
0.0
  0
LINE
  5
1B0A6
  8
0
  6
CONTINUOUS
 10
21.75211648968556
 20
7.267334408268612
 30
0.0
 11
20.70299044079886
 21
8.316460457155308
 31
0.0
  0
LINE
  5
1B0A7
  8
0
  6
CONTINUOUS
 10
21.95169724046069
 20
7.741272866573663
 30
0.0
 11
20.9298701070431
 21
8.763099999991256
 31
0.0
  0
LINE
  5
1B0A8
  8
0
  6
CONTINUOUS
 10
22.15127799123582
 20
8.215211324878716
 30
0.0
 11
21.60338931612328
 21
8.763099999991256
 31
0.0
  0
LINE
  5
1B0A9
  8
0
  6
CONTINUOUS
 10
22.35085874201096
 20
8.689149783183769
 30
0.0
 11
22.27690852520347
 21
8.763099999991255
 31
0.0
  0
ENDBLK
  5
1B19B
  8
0
  0
BLOCK
  8
0
  2
*X72
 70
     1
 10
0.0
 20
0.0
 30
0.0
  3
*X72
  1

  0
LINE
  5
1B0AB
  8
0
  6
CONTINUOUS
 10
23.19462913593892
 20
8.169917934846424
 30
0.0
 11
23.70775465517246
 21
8.683043454079957
 31
0.0
  0
LINE
  5
1B0AC
  8
0
  6
CONTINUOUS
 10
22.64923161835078
 20
6.951001208178088
 30
0.0
 11
23.9159364069932
 21
8.217705996820516
 31
0.0
  0
LINE
  5
1B0AD
  8
0
  6
CONTINUOUS
 10
22.10383410076263
 20
5.732084481509751
 30
0.0
 11
24.12411815881395
 21
7.752368539561078
 31
0.0
  0
LINE
  5
1B0AE
  8
0
  6
CONTINUOUS
 10
21.55843658317447
 20
4.513167754841414
 30
0.0
 11
24.3322999106347
 21
7.287031082301639
 31
0.0
  0
LINE
  5
1B0AF
  8
0
  6
CONTINUOUS
 10
21.01303906558632
 20
3.294251028173077
 30
0.0
 11
24.54048166245544
 21
6.821693625042199
 31
0.0
  0
LINE
  5
1B0B0
  8
0
  6
CONTINUOUS
 10
20.46764154799817
 20
2.075334301504738
 30
0.0
 11
23.28571549467848
 21
4.89340824818505
 31
0.0
  0
LINE
  5
1B0B1
  8
0
  6
CONTINUOUS
 10
19.92224403041002
 20
0.8564175748364002
 30
0.0
 11
22.74075865492779
 21
3.674932199354171
 31
0.0
  0
LINE
  5
1B0B2
  8
0
  6
CONTINUOUS
 10
23.67305085490148
 20
5.280743608408048
 30
0.0
 11
24.74866341427619
 21
6.356356167782759
 31
0.0
  0
LINE
  5
1B0B3
  8
0
  6
CONTINUOUS
 10
23.88118970842314
 20
4.815363252849522
 30
0.0
 11
24.95684516609694
 21
5.89101871052332
 31
0.0
  0
LINE
  5
1B0B4
  8
0
  6
CONTINUOUS
 10
19.73925852647308
 20
-0.0000871381807288
 30
0.0
 11
23.4103456646501
 21
3.670999999996297
 31
0.0
  0
LINE
  5
1B0B5
  8
0
  6
CONTINUOUS
 10
24.0893285619448
 20
4.349982897290997
 30
0.0
 11
25.16502691791769
 21
5.42568125326388
 31
0.0
  0
LINE
  5
1B0B6
  8
0
  6
CONTINUOUS
 10
20.41282099582748
 20
-0.0000438779065108
 30
0.0
 11
21.64944178675636
 21
1.236576913022366
 31
0.0
  0
LINE
  5
1B0B7
  8
0
  6
CONTINUOUS
 10
22.78126487373161
 20
2.36839999999762
 30
0.0
 11
24.08386487373029
 21
3.670999999996297
 31
0.0
  0
LINE
  5
1B0B8
  8
0
  6
CONTINUOUS
 10
24.29746741546646
 20
3.884602541732471
 30
0.0
 11
25.37320866973843
 21
4.960343796004441
 31
0.0
  0
LINE
  5
1B0B9
  8
0
  6
CONTINUOUS
 10
21.08638346518189
 20
-0.0000006176322938
 30
0.0
 11
21.10379033335899
 21
0.0174062505448083
 31
0.0
  0
LINE
  5
1B0BA
  8
0
  6
CONTINUOUS
 10
23.4547840828118
 20
2.36839999999762
 30
0.0
 11
25.58139042155918
 21
4.495006338745002
 31
0.0
  0
LINE
  5
1B0BB
  8
0
  6
CONTINUOUS
 10
29.30199999996933
 20
8.215615917155148
 30
0.0
 11
29.84948408280543
 21
8.763099999991255
 31
0.0
  0
LINE
  5
1B0BC
  8
0
  6
CONTINUOUS
 10
24.12830329189199
 20
2.36839999999762
 30
0.0
 11
25.78957217337993
 21
4.029668881485562
 31
0.0
  0
LINE
  5
1B0BD
  8
0
  6
CONTINUOUS
 10
29.30199999996933
 20
7.54209670807496
 30
0.0
 11
30.52300329188562
 21
8.763099999991255
 31
0.0
  0
LINE
  5
1B0BE
  8
0
  6
CONTINUOUS
 10
24.80182250097217
 20
2.36839999999762
 30
0.0
 11
25.99775392520067
 21
3.564331424226122
 31
0.0
  0
LINE
  5
1B0BF
  8
0
  6
CONTINUOUS
 10
29.30199999996933
 20
6.868577498994774
 30
0.0
 11
30.74199999996926
 21
8.308577498994712
 31
0.0
  0
LINE
  5
1B0C0
  8
0
  6
CONTINUOUS
 10
25.13028238392013
 20
2.023340673865392
 30
0.0
 11
26.20593567702142
 21
3.098993966966683
 31
0.0
  0
LINE
  5
1B0C1
  8
0
  6
CONTINUOUS
 10
25.33838066033617
 20
1.557919741201244
 30
0.0
 11
26.41411742884217
 21
2.633656509707244
 31
0.0
  0
LINE
  5
1B0C2
  8
0
  6
CONTINUOUS
 10
25.54647893675221
 20
1.092498808537098
 30
0.0
 11
26.62229918066291
 21
2.168319052447804
 31
0.0
  0
LINE
  5
1B0C3
  8
0
  6
CONTINUOUS
 10
25.75457721316825
 20
0.62707787587295
 30
0.0
 11
26.83048093248366
 21
1.702981595188365
 31
0.0
  0
LINE
  5
1B0C4
  8
0
  6
CONTINUOUS
 10
29.30199999996933
 20
6.195058289914587
 30
0.0
 11
30.74199999996926
 21
7.635058289914522
 31
0.0
  0
LINE
  5
1B0C5
  8
0
  6
CONTINUOUS
 10
29.30199999996933
 20
5.521539080834401
 30
0.0
 11
30.74199999996926
 21
6.961539080834331
 31
0.0
  0
LINE
  5
1B0C6
  8
0
  6
CONTINUOUS
 10
29.30199999996933
 20
4.848019871754214
 30
0.0
 11
30.74199999996925
 21
6.288019871754143
 31
0.0
  0
LINE
  5
1B0C7
  8
0
  6
CONTINUOUS
 10
29.30199999996933
 20
4.174500662674028
 30
0.0
 11
30.74199999996925
 21
5.614500662673953
 31
0.0
  0
LINE
  5
1B0C8
  8
0
  6
CONTINUOUS
 10
25.96267548958429
 20
0.1616569432088024
 30
0.0
 11
27.18411854636669
 21
1.383099999991207
 31
0.0
  0
LINE
  5
1B0C9
  8
0
  6
CONTINUOUS
 10
29.30199999996933
 20
3.500981453593841
 30
0.0
 11
30.74199999996925
 21
4.940981453593762
 31
0.0
  0
LINE
  5
1B0CA
  8
0
  6
CONTINUOUS
 10
26.50763775544691
 20
0.0330999999912356
 30
0.0
 11
27.85763775544689
 21
1.383099999991223
 31
0.0
  0
LINE
  5
1B0CB
  8
0
  6
CONTINUOUS
 10
29.30199999996933
 20
2.827462244513656
 30
0.0
 11
30.74199999996925
 21
4.267462244513574
 31
0.0
  0
LINE
  5
1B0CC
  8
0
  6
CONTINUOUS
 10
27.18115696452709
 20
0.0330999999912356
 30
0.0
 11
28.55073879889363
 21
1.402681834357775
 31
0.0
  0
LINE
  5
1B0CD
  8
0
  6
CONTINUOUS
 10
29.28241816560272
 20
2.134361201066866
 30
0.0
 11
30.74199999996924
 21
3.593943035433383
 31
0.0
  0
LINE
  5
1B0CE
  8
0
  6
CONTINUOUS
 10
27.85467617360728
 20
0.0330999999912356
 30
0.0
 11
30.74199999996924
 21
2.920423826353195
 31
0.0
  0
LINE
  5
1B0CF
  8
0
  6
CONTINUOUS
 10
28.53897559587887
 20
0.0438802131826428
 30
0.0
 11
30.73121978677781
 21
2.236124404081585
 31
0.0
  0
LINE
  5
1B0D0
  8
0
  6
CONTINUOUS
 10
29.45140055588722
 20
0.2827859641107988
 30
0.0
 11
30.49231403584965
 21
1.323699444073236
 31
0.0
  0
LINE
  5
1B0D1
  8
0
  6
CONTINUOUS
 10
19.59027867740337
 20
-0.0000967065718083
 30
0.0
 11
19.55485265190471
 21
0.035329318926844
 31
0.0
  0
LINE
  5
1B0D2
  8
0
  6
CONTINUOUS
 10
20.26375463176586
 20
-0.0000534518541091
 30
0.0
 11
19.76305575737534
 21
0.5006454225364014
 31
0.0
  0
LINE
  5
1B0D3
  8
0
  6
CONTINUOUS
 10
20.93723058612834
 20
-0.0000101971364099
 30
0.0
 11
19.97125886284597
 21
0.965961526145958
 31
0.0
  0
LINE
  5
1B0D4
  8
0
  6
CONTINUOUS
 10
21.25514828313686
 20
0.355591314935257
 30
0.0
 11
20.1794619683166
 21
1.431277629755512
 31
0.0
  0
LINE
  5
1B0D5
  8
0
  6
CONTINUOUS
 10
21.46338838394921
 20
0.8208704232030986
 30
0.0
 11
20.38766507378723
 21
1.896593733365069
 31
0.0
  0
LINE
  5
1B0D6
  8
0
  6
CONTINUOUS
 10
21.67162848476155
 20
1.28614953147094
 30
0.0
 11
20.59586817925786
 21
2.361909836974626
 31
0.0
  0
LINE
  5
1B0D7
  8
0
  6
CONTINUOUS
 10
21.8798685855739
 20
1.751428639738782
 30
0.0
 11
20.80407128472849
 21
2.827225940584183
 31
0.0
  0
LINE
  5
1B0D8
  8
0
  6
CONTINUOUS
 10
22.08810868638624
 20
2.216707748006623
 30
0.0
 11
21.01227439019912
 21
3.292542044193739
 31
0.0
  0
LINE
  5
1B0D9
  8
0
  6
CONTINUOUS
 10
22.60993564347543
 20
2.36839999999762
 30
0.0
 11
21.22047749566975
 21
3.757858147803296
 31
0.0
  0
LINE
  5
1B0DA
  8
0
  6
CONTINUOUS
 10
23.28345485255561
 20
2.36839999999762
 30
0.0
 11
21.42868060114038
 21
4.223174251412853
 31
0.0
  0
LINE
  5
1B0DB
  8
0
  6
CONTINUOUS
 10
26.29227406164219
 20
0.0330999999912356
 30
0.0
 11
25.80009199592872
 21
0.5252820657046957
 31
0.0
  0
LINE
  5
1B0DC
  8
0
  6
CONTINUOUS
 10
23.9569740616358
 20
2.36839999999762
 30
0.0
 11
21.63688370661101
 21
4.688490355022409
 31
0.0
  0
LINE
  5
1B0DD
  8
0
  6
CONTINUOUS
 10
26.96579327072237
 20
0.0330999999912356
 30
0.0
 11
25.2554132311971
 21
1.743480039516508
 31
0.0
  0
LINE
  5
1B0DE
  8
0
  6
CONTINUOUS
 10
24.63049327071599
 20
2.36839999999762
 30
0.0
 11
23.32789327071731
 21
3.670999999996297
 31
0.0
  0
LINE
  5
1B0DF
  8
0
  6
CONTINUOUS
 10
22.92098674744635
 20
4.077906523267254
 30
0.0
 11
21.84508681208164
 21
5.153806458631966
 31
0.0
  0
LINE
  5
1B0E0
  8
0
  6
CONTINUOUS
 10
27.63931247980256
 20
0.0330999999912356
 30
0.0
 11
24.0014124797975
 21
3.670999999996297
 31
0.0
  0
LINE
  5
1B0E1
  8
0
  6
CONTINUOUS
 10
23.129125600968
 20
4.5432868788258
 30
0.0
 11
22.05328991755227
 21
5.619122562241522
 31
0.0
  0
LINE
  5
1B0E2
  8
0
  6
CONTINUOUS
 10
28.31283168888275
 20
0.0330999999912356
 30
0.0
 11
24.16488385994816
 21
4.181047828925828
 31
0.0
  0
LINE
  5
1B0E3
  8
0
  6
CONTINUOUS
 10
23.33726445448964
 20
5.008667234384345
 30
0.0
 11
22.2614930230229
 21
6.084438665851079
 31
0.0
  0
LINE
  5
1B0E4
  8
0
  6
CONTINUOUS
 10
28.92085740005492
 20
0.0985934978992438
 30
0.0
 11
27.63635089796295
 21
1.383099999991217
 31
0.0
  0
LINE
  5
1B0E5
  8
0
  6
CONTINUOUS
 10
26.43704649509776
 20
2.582404402856405
 30
0.0
 11
23.61992702019732
 21
5.399523877756844
 31
0.0
  0
LINE
  5
1B0E6
  8
0
  6
CONTINUOUS
 10
23.54540330801128
 20
5.47404758994289
 30
0.0
 11
22.46969612849353
 21
6.549754769460635
 31
0.0
  0
LINE
  5
1B0E7
  8
0
  6
CONTINUOUS
 10
29.42225615078443
 20
0.2707139562499279
 30
0.0
 11
28.30987010704312
 21
1.383099999991234
 31
0.0
  0
LINE
  5
1B0E8
  8
0
  6
CONTINUOUS
 10
25.89179548232307
 20
3.801174624711282
 30
0.0
 11
22.67789923396416
 21
7.015070873070191
 31
0.0
  0
LINE
  5
1B0E9
  8
0
  6
CONTINUOUS
 10
29.83624534690007
 20
0.5302439692144705
 30
0.0
 11
28.85811781497101
 21
1.508371501143527
 31
0.0
  0
LINE
  5
1B0EA
  8
0
  6
CONTINUOUS
 10
25.34654446954838
 20
5.01994484656616
 30
0.0
 11
22.88610233943479
 21
7.480386976679748
 31
0.0
  0
LINE
  5
1B0EB
  8
0
  6
CONTINUOUS
 10
30.17865975401872
 20
0.8613487711760022
 30
0.0
 11
29.18888744090175
 21
1.851121084292977
 31
0.0
  0
LINE
  5
1B0EC
  8
0
  6
CONTINUOUS
 10
24.80129345677369
 20
6.238715068421037
 30
0.0
 11
23.09430544490542
 21
7.945703080289305
 31
0.0
  0
LINE
  5
1B0ED
  8
0
  6
CONTINUOUS
 10
30.45496647202376
 20
1.258561262251155
 30
0.0
 11
29.30199999996933
 21
2.411527734305588
 31
0.0
  0
LINE
  5
1B0EE
  8
0
  6
CONTINUOUS
 10
24.256042443999
 20
7.457485290275915
 30
0.0
 11
23.30250855037605
 21
8.411019183898862
 31
0.0
  0
LINE
  5
1B0EF
  8
0
  6
CONTINUOUS
 10
30.64868582078271
 20
1.738361122572387
 30
0.0
 11
29.30199999996933
 21
3.085046943385775
 31
0.0
  0
LINE
  5
1B0F0
  8
0
  6
CONTINUOUS
 10
23.71079143122431
 20
8.676255512130794
 30
0.0
 11
23.51071165584668
 21
8.876335287508416
 31
0.0
  0
LINE
  5
1B0F1
  8
0
  6
CONTINUOUS
 10
30.73802122914428
 20
2.322544923291007
 30
0.0
 11
29.30199999996933
 21
3.758566152465961
 31
0.0
  0
LINE
  5
1B0F2
  8
0
  6
CONTINUOUS
 10
30.74199999996924
 20
2.992085361546236
 30
0.0
 11
29.30199999996933
 21
4.432085361546148
 31
0.0
  0
LINE
  5
1B0F3
  8
0
  6
CONTINUOUS
 10
30.74199999996924
 20
3.665604570626419
 30
0.0
 11
29.30199999996933
 21
5.105604570626333
 31
0.0
  0
LINE
  5
1B0F4
  8
0
  6
CONTINUOUS
 10
30.74199999996925
 20
4.339123779706602
 30
0.0
 11
29.30199999996933
 21
5.77912377970652
 31
0.0
  0
LINE
  5
1B0F5
  8
0
  6
CONTINUOUS
 10
30.74199999996925
 20
5.012642988786785
 30
0.0
 11
29.30199999996933
 21
6.452642988786707
 31
0.0
  0
LINE
  5
1B0F6
  8
0
  6
CONTINUOUS
 10
30.74199999996925
 20
5.68616219786697
 30
0.0
 11
29.30199999996933
 21
7.126162197866894
 31
0.0
  0
LINE
  5
1B0F7
  8
0
  6
CONTINUOUS
 10
30.74199999996925
 20
6.359681406947153
 30
0.0
 11
29.30199999996933
 21
7.799681406947081
 31
0.0
  0
LINE
  5
1B0F8
  8
0
  6
CONTINUOUS
 10
30.74199999996926
 20
7.033200616027337
 30
0.0
 11
29.30199999996933
 21
8.473200616027269
 31
0.0
  0
LINE
  5
1B0F9
  8
0
  6
CONTINUOUS
 10
30.74199999996926
 20
7.706719825107518
 30
0.0
 11
29.68561982508552
 21
8.763099999991255
 31
0.0
  0
LINE
  5
1B0FA
  8
0
  6
CONTINUOUS
 10
30.74199999996926
 20
8.380239034187703
 30
0.0
 11
30.35913903416571
 21
8.763099999991255
 31
0.0
  0
ENDBLK
  5
1B19D
  8
0
  0
BLOCK
  8
0
  2
*X73
 70
     1
 10
0.0
 20
0.0
 30
0.0
  3
*X73
  1

  0
LINE
  5
1B0FC
  8
0
  6
CONTINUOUS
 10
31.64199999996833
 20
8.535058289913598
 30
0.0
 11
31.87004171004599
 21
8.763099999991255
 31
0.0
  0
LINE
  5
1B0FD
  8
0
  6
CONTINUOUS
 10
31.64199999996833
 20
7.861539080833412
 30
0.0
 11
32.54356091912618
 21
8.763099999991255
 31
0.0
  0
LINE
  5
1B0FE
  8
0
  6
CONTINUOUS
 10
31.64199999996833
 20
7.188019871753226
 30
0.0
 11
33.08199999996839
 21
8.628019871753281
 31
0.0
  0
LINE
  5
1B0FF
  8
0
  6
CONTINUOUS
 10
31.64199999996833
 20
6.51450066267304
 30
0.0
 11
33.08199999996839
 21
7.954500662673095
 31
0.0
  0
LINE
  5
1B100
  8
0
  6
CONTINUOUS
 10
31.64199999996833
 20
5.840981453592853
 30
0.0
 11
33.08199999996839
 21
7.280981453592908
 31
0.0
  0
LINE
  5
1B101
  8
0
  6
CONTINUOUS
 10
31.64199999996833
 20
5.167462244512667
 30
0.0
 11
33.08199999996839
 21
6.607462244512721
 31
0.0
  0
LINE
  5
1B102
  8
0
  6
CONTINUOUS
 10
31.64199999996833
 20
4.493943035432481
 30
0.0
 11
33.08199999996839
 21
5.933943035432535
 31
0.0
  0
LINE
  5
1B103
  8
0
  6
CONTINUOUS
 10
31.64199999996833
 20
3.820423826352293
 30
0.0
 11
33.08199999996839
 21
5.260423826352348
 31
0.0
  0
LINE
  5
1B104
  8
0
  6
CONTINUOUS
 10
31.64199999996833
 20
3.146904617272106
 30
0.0
 11
33.08199999996839
 21
4.586904617272161
 31
0.0
  0
LINE
  5
1B105
  8
0
  6
CONTINUOUS
 10
36.23199999996837
 20
8.410423826352325
 30
0.0
 11
36.5846761736073
 21
8.763099999991255
 31
0.0
  0
LINE
  5
1B106
  8
0
  6
CONTINUOUS
 10
36.23199999996837
 20
7.73690461727214
 30
0.0
 11
37.25819538268748
 21
8.763099999991255
 31
0.0
  0
LINE
  5
1B107
  8
0
  6
CONTINUOUS
 10
31.64257403601376
 20
2.473959444237348
 30
0.0
 11
33.08199999996839
 21
3.913385408191974
 31
0.0
  0
LINE
  5
1B108
  8
0
  6
CONTINUOUS
 10
36.23199999996837
 20
7.063385408191953
 30
0.0
 11
37.67199999996831
 21
8.503385408191894
 31
0.0
  0
LINE
  5
1B109
  8
0
  6
CONTINUOUS
 10
31.72013636841932
 20
1.87800256756272
 30
0.0
 11
33.08199999996839
 21
3.239866199111788
 31
0.0
  0
LINE
  5
1B10A
  8
0
  6
CONTINUOUS
 10
36.23199999996837
 20
6.389866199111767
 30
0.0
 11
37.67199999996831
 21
7.829866199111708
 31
0.0
  0
LINE
  5
1B10B
  8
0
  6
CONTINUOUS
 10
31.89042734314753
 20
1.374774333210744
 30
0.0
 11
33.08199999996839
 21
2.566346990031601
 31
0.0
  0
LINE
  5
1B10C
  8
0
  6
CONTINUOUS
 10
36.23199999996837
 20
5.71634699003158
 30
0.0
 11
37.67199999996831
 21
7.156346990031521
 31
0.0
  0
LINE
  5
1B10D
  8
0
  6
CONTINUOUS
 10
32.14210568064475
 20
0.952933461627778
 30
0.0
 11
33.18745552475986
 21
1.998283305742888
 31
0.0
  0
LINE
  5
1B10E
  8
0
  6
CONTINUOUS
 10
36.23199999996837
 20
5.042827780951393
 30
0.0
 11
37.67199999996831
 21
6.482827780951334
 31
0.0
  0
LINE
  5
1B10F
  8
0
  6
CONTINUOUS
 10
32.45820639400955
 20
0.5955149659123915
 30
0.0
 11
33.47242681921943
 21
1.60973539112227
 31
0.0
  0
LINE
  5
1B110
  8
0
  6
CONTINUOUS
 10
36.23199999996837
 20
4.369308571871207
 30
0.0
 11
37.67199999996831
 21
5.809308571871147
 31
0.0
  0
LINE
  5
1B111
  8
0
  6
CONTINUOUS
 10
32.83432456621412
 20
0.2981139290367771
 30
0.0
 11
33.89722476612215
 21
1.361014128944803
 31
0.0
  0
LINE
  5
1B112
  8
0
  6
CONTINUOUS
 10
36.23199999996837
 20
3.69578936279102
 30
0.0
 11
37.67199999996831
 21
5.135789362790962
 31
0.0
  0
LINE
  5
1B113
  8
0
  6
CONTINUOUS
 10
33.2711633111245
 20
0.0614334648669672
 30
0.0
 11
34.43247338014423
 21
1.222743533886696
 31
0.0
  0
LINE
  5
1B114
  8
0
  6
CONTINUOUS
 10
36.23199999996837
 20
3.022270153710834
 30
0.0
 11
37.67199999996831
 21
4.462270153710775
 31
0.0
  0
LINE
  5
1B115
  8
0
  6
CONTINUOUS
 10
33.76515245874577
 20
-0.1180965965919523
 30
0.0
 11
35.1587445516215
 21
1.27549549628378
 31
0.0
  0
LINE
  5
1B116
  8
0
  6
CONTINUOUS
 10
36.21639478609585
 20
2.333145730758136
 30
0.0
 11
37.67199999996831
 21
3.788750944630588
 31
0.0
  0
LINE
  5
1B117
  8
0
  6
CONTINUOUS
 10
34.34060583368432
 20
-0.2161624307335863
 30
0.0
 11
37.67199999996831
 21
3.115231735550401
 31
0.0
  0
LINE
  5
1B118
  8
0
  6
CONTINUOUS
 10
35.01698193613905
 20
-0.2133055373590427
 30
0.0
 11
37.66876712070525
 21
2.438479647207154
 31
0.0
  0
LINE
  5
1B119
  8
0
  6
CONTINUOUS
 10
35.90743367693304
 20
0.0036269943547609
 30
0.0
 11
37.51723902192366
 21
1.613432339345381
 31
0.0
  0
LINE
  5
1B11A
  8
0
  6
CONTINUOUS
 10
32.55309425579761
 20
0.5074718966376706
 30
0.0
 11
32.27784730925847
 21
0.7827188431768102
 31
0.0
  0
LINE
  5
1B11B
  8
0
  6
CONTINUOUS
 10
33.87496468909684
 20
-0.1408793275813673
 30
0.0
 11
31.67993083278052
 21
2.054154528734943
 31
0.0
  0
LINE
  5
1B11C
  8
0
  6
CONTINUOUS
 10
34.64362813207632
 20
-0.2360235614806649
 30
0.0
 11
31.64199999996833
 21
2.765604570627322
 31
0.0
  0
LINE
  5
1B11D
  8
0
  6
CONTINUOUS
 10
35.25801106796118
 20
-0.1768872882853429
 30
0.0
 11
31.64199999996833
 21
3.439123779707508
 31
0.0
  0
LINE
  5
1B11E
  8
0
  6
CONTINUOUS
 10
35.79065650332146
 20
-0.0360135145654361
 30
0.0
 11
34.54143210838231
 21
1.213210880373721
 31
0.0
  0
LINE
  5
1B11F
  8
0
  6
CONTINUOUS
 10
33.08199999996839
 20
2.67264298878764
 30
0.0
 11
31.64199999996833
 21
4.112642988787695
 31
0.0
  0
LINE
  5
1B120
  8
0
  6
CONTINUOUS
 10
36.25975597779143
 20
0.1684062200447833
 30
0.0
 11
35.15395110240023
 21
1.274211095435983
 31
0.0
  0
LINE
  5
1B121
  8
0
  6
CONTINUOUS
 10
33.08199999996839
 20
3.346162197867826
 30
0.0
 11
31.64199999996833
 21
4.786162197867881
 31
0.0
  0
LINE
  5
1B122
  8
0
  6
CONTINUOUS
 10
36.67226329638774
 20
0.4294181105286579
 30
0.0
 11
35.63766478748767
 21
1.464016619428737
 31
0.0
  0
LINE
  5
1B123
  8
0
  6
CONTINUOUS
 10
33.08199999996839
 20
4.019681406948012
 30
0.0
 11
31.64199999996833
 21
5.459681406948068
 31
0.0
  0
LINE
  5
1B124
  8
0
  6
CONTINUOUS
 10
37.01677749710036
 20
0.7584231188962329
 30
0.0
 11
35.99563422741351
 21
1.779566388583076
 31
0.0
  0
LINE
  5
1B125
  8
0
  6
CONTINUOUS
 10
33.08199999996839
 20
4.693200616028199
 30
0.0
 11
31.64199999996833
 21
6.133200616028255
 31
0.0
  0
LINE
  5
1B126
  8
0
  6
CONTINUOUS
 10
37.29859977568887
 20
1.1501200493879
 30
0.0
 11
36.20680593341555
 21
2.241913891661226
 31
0.0
  0
LINE
  5
1B127
  8
0
  6
CONTINUOUS
 10
33.08199999996839
 20
5.366719825108386
 30
0.0
 11
31.64199999996833
 21
6.80671982510844
 31
0.0
  0
LINE
  5
1B128
  8
0
  6
CONTINUOUS
 10
37.5148623517228
 20
1.607376682434161
 30
0.0
 11
36.23199999996837
 21
2.890239034188594
 31
0.0
  0
LINE
  5
1B129
  8
0
  6
CONTINUOUS
 10
33.08199999996839
 20
6.040239034188573
 30
0.0
 11
31.64199999996833
 21
7.480239034188627
 31
0.0
  0
LINE
  5
1B12A
  8
0
  6
CONTINUOUS
 10
37.64705163358367
 20
2.148706609653477
 30
0.0
 11
36.23199999996837
 21
3.56375824326878
 31
0.0
  0
LINE
  5
1B12B
  8
0
  6
CONTINUOUS
 10
33.08199999996839
 20
6.713758243268758
 30
0.0
 11
31.64199999996833
 21
8.153758243268815
 31
0.0
  0
LINE
  5
1B12C
  8
0
  6
CONTINUOUS
 10
37.67199999996831
 20
2.797277452349026
 30
0.0
 11
36.23199999996837
 21
4.237277452348967
 31
0.0
  0
LINE
  5
1B12D
  8
0
  6
CONTINUOUS
 10
37.67199999996831
 20
3.470796661429213
 30
0.0
 11
36.23199999996837
 21
4.910796661429154
 31
0.0
  0
LINE
  5
1B12E
  8
0
  6
CONTINUOUS
 10
37.67199999996831
 20
4.144315870509399
 30
0.0
 11
36.23199999996837
 21
5.58431587050934
 31
0.0
  0
LINE
  5
1B12F
  8
0
  6
CONTINUOUS
 10
33.08199999996839
 20
7.387277452348945
 30
0.0
 11
31.70617745232608
 21
8.763099999991255
 31
0.0
  0
LINE
  5
1B130
  8
0
  6
CONTINUOUS
 10
33.08199999996839
 20
8.060796661429132
 30
0.0
 11
32.37969666140626
 21
8.763099999991255
 31
0.0
  0
LINE
  5
1B131
  8
0
  6
CONTINUOUS
 10
33.08199999996839
 20
8.734315870509318
 30
0.0
 11
33.05321587048645
 21
8.763099999991255
 31
0.0
  0
LINE
  5
1B132
  8
0
  6
CONTINUOUS
 10
37.67199999996831
 20
4.817835079589585
 30
0.0
 11
36.23199999996837
 21
6.257835079589526
 31
0.0
  0
LINE
  5
1B133
  8
0
  6
CONTINUOUS
 10
37.67199999996831
 20
5.491354288669771
 30
0.0
 11
36.23199999996837
 21
6.931354288669713
 31
0.0
  0
LINE
  5
1B134
  8
0
  6
CONTINUOUS
 10
37.67199999996831
 20
6.164873497749958
 30
0.0
 11
36.23199999996837
 21
7.6048734977499
 31
0.0
  0
LINE
  5
1B135
  8
0
  6
CONTINUOUS
 10
37.67199999996831
 20
6.838392706830144
 30
0.0
 11
36.23199999996837
 21
8.278392706830086
 31
0.0
  0
LINE
  5
1B136
  8
0
  6
CONTINUOUS
 10
37.67199999996831
 20
7.511911915910332
 30
0.0
 11
36.42081191588738
 21
8.763099999991255
 31
0.0
  0
LINE
  5
1B137
  8
0
  6
CONTINUOUS
 10
37.67199999996831
 20
8.185431124990519
 30
0.0
 11
37.09433112496757
 21
8.763099999991255
 31
0.0
  0
ENDBLK
  5
1B19F
  8
0
  0
BLOCK
  8
0
  2
*X74
 70
     1
 10
0.0
 20
0.0
 30
0.0
  3
*X74
  1

  0
LINE
  5
1B139
  8
0
  6
CONTINUOUS
 10
38.60499999996136
 20
8.762866199104765
 30
0.0
 11
38.71672554182345
 21
8.874591740966855
 31
0.0
  0
LINE
  5
1B13A
  8
0
  6
CONTINUOUS
 10
38.60499999996136
 20
8.089346990024577
 30
0.0
 11
39.03418785440363
 21
8.518534844466847
 31
0.0
  0
LINE
  5
1B13B
  8
0
  6
CONTINUOUS
 10
38.60499999996136
 20
7.41582778094439
 30
0.0
 11
39.35165016698382
 21
8.16247794796684
 31
0.0
  0
LINE
  5
1B13C
  8
0
  6
CONTINUOUS
 10
38.60499999996136
 20
6.742308571864204
 30
0.0
 11
39.66911247956399
 21
7.806421051466834
 31
0.0
  0
LINE
  5
1B13D
  8
0
  6
CONTINUOUS
 10
38.60499999996136
 20
6.068789362784018
 30
0.0
 11
39.98657479214418
 21
7.450364154966827
 31
0.0
  0
LINE
  5
1B13E
  8
0
  6
CONTINUOUS
 10
38.60499999996136
 20
5.395270153703832
 30
0.0
 11
40.30403710472435
 21
7.09430725846682
 31
0.0
  0
LINE
  5
1B13F
  8
0
  6
CONTINUOUS
 10
38.60499999996136
 20
4.721750944623645
 30
0.0
 11
40.62149941730453
 21
6.738250361966813
 31
0.0
  0
LINE
  5
1B140
  8
0
  6
CONTINUOUS
 10
38.60499999996136
 20
4.048231735543458
 30
0.0
 11
40.93896172988471
 21
6.382193465466806
 31
0.0
  0
LINE
  5
1B141
  8
0
  6
CONTINUOUS
 10
38.60499999996136
 20
3.374712526463272
 30
0.0
 11
40.02599999995994
 21
4.795712526461843
 31
0.0
  0
LINE
  5
1B142
  8
0
  6
CONTINUOUS
 10
38.60499999996136
 20
2.701193317383085
 30
0.0
 11
40.02599999995994
 21
4.122193317381657
 31
0.0
  0
LINE
  5
1B143
  8
0
  6
CONTINUOUS
 10
40.28339754687704
 20
5.053110073378947
 30
0.0
 11
41.25642404246489
 21
6.026136568966799
 31
0.0
  0
LINE
  5
1B144
  8
0
  6
CONTINUOUS
 10
40.60085985945722
 20
4.697053176878939
 30
0.0
 11
41.57388635504507
 21
5.670079672466793
 31
0.0
  0
LINE
  5
1B145
  8
0
  6
CONTINUOUS
 10
43.57899999995641
 20
8.348712526458318
 30
0.0
 11
43.99338747348935
 21
8.763099999991255
 31
0.0
  0
LINE
  5
1B146
  8
0
  6
CONTINUOUS
 10
43.57899999995641
 20
7.675193317378131
 30
0.0
 11
44.66690668256953
 21
8.763099999991255
 31
0.0
  0
LINE
  5
1B147
  8
0
  6
CONTINUOUS
 10
38.60499999996136
 20
2.027674108302898
 30
0.0
 11
40.02599999995994
 21
3.44867410830147
 31
0.0
  0
LINE
  5
1B148
  8
0
  6
CONTINUOUS
 10
38.60499999996136
 20
1.354154899222712
 30
0.0
 11
40.02599999995994
 21
2.775154899221284
 31
0.0
  0
LINE
  5
1B149
  8
0
  6
CONTINUOUS
 10
38.60499999996136
 20
0.6806356901425255
 30
0.0
 11
40.02599999995994
 21
2.101635690141098
 31
0.0
  0
LINE
  5
1B14A
  8
0
  6
CONTINUOUS
 10
38.60499999996136
 20
0.0071164810623383
 30
0.0
 11
40.02599999995994
 21
1.428116481060911
 31
0.0
  0
LINE
  5
1B14B
  8
0
  6
CONTINUOUS
 10
40.9183221720374
 20
4.340996280378933
 30
0.0
 11
41.89134866762525
 21
5.314022775966786
 31
0.0
  0
LINE
  5
1B14C
  8
0
  6
CONTINUOUS
 10
41.23578448461758
 20
3.984939383878926
 30
0.0
 11
42.20881098020543
 21
4.957965879466778
 31
0.0
  0
LINE
  5
1B14D
  8
0
  6
CONTINUOUS
 10
41.55324679719776
 20
3.628882487378919
 30
0.0
 11
42.52627329278561
 21
4.601908982966772
 31
0.0
  0
LINE
  5
1B14E
  8
0
  6
CONTINUOUS
 10
41.87070910977793
 20
3.272825590878912
 30
0.0
 11
42.84373560536579
 21
4.245852086466765
 31
0.0
  0
LINE
  5
1B14F
  8
0
  6
CONTINUOUS
 10
43.57899999995641
 20
7.001674108297943
 30
0.0
 11
44.99999999995498
 21
8.422674108296516
 31
0.0
  0
LINE
  5
1B150
  8
0
  6
CONTINUOUS
 10
43.57899999995641
 20
6.328154899217758
 30
0.0
 11
44.99999999995498
 21
7.749154899216329
 31
0.0
  0
LINE
  5
1B151
  8
0
  6
CONTINUOUS
 10
43.57899999995641
 20
5.654635690137571
 30
0.0
 11
44.99999999995498
 21
7.075635690136142
 31
0.0
  0
LINE
  5
1B152
  8
0
  6
CONTINUOUS
 10
43.57899999995641
 20
4.981116481057384
 30
0.0
 11
44.99999999995498
 21
6.402116481055955
 31
0.0
  0
LINE
  5
1B153
  8
0
  6
CONTINUOUS
 10
39.27140272797921
 20
-0.0000000000000009
 30
0.0
 11
40.02599999995994
 21
0.7545972719807246
 31
0.0
  0
LINE
  5
1B154
  8
0
  6
CONTINUOUS
 10
39.9449219370594
 20
-0.0000000000000009
 30
0.0
 11
40.02599999995994
 21
0.0810780629005379
 31
0.0
  0
LINE
  5
1B155
  8
0
  6
CONTINUOUS
 10
42.18817142235812
 20
2.916768694378905
 30
0.0
 11
43.16119791794597
 21
3.889795189966758
 31
0.0
  0
LINE
  5
1B156
  8
0
  6
CONTINUOUS
 10
42.50563373493829
 20
2.560711797878898
 30
0.0
 11
43.47866023052615
 21
3.533738293466751
 31
0.0
  0
LINE
  5
1B157
  8
0
  6
CONTINUOUS
 10
43.57899999995641
 20
4.307597271977198
 30
0.0
 11
44.99999999995498
 21
5.728597271975769
 31
0.0
  0
LINE
  5
1B158
  8
0
  6
CONTINUOUS
 10
43.57899999995641
 20
3.634078062897011
 30
0.0
 11
44.99999999995498
 21
5.055078062895582
 31
0.0
  0
LINE
  5
1B159
  8
0
  6
CONTINUOUS
 10
42.82309604751848
 20
2.204654901378891
 30
0.0
 11
44.99999999995498
 21
4.381558853815395
 31
0.0
  0
LINE
  5
1B15A
  8
0
  6
CONTINUOUS
 10
43.14055836009865
 20
1.848598004878885
 30
0.0
 11
44.99999999995498
 21
3.70803964473521
 31
0.0
  0
LINE
  5
1B15B
  8
0
  6
CONTINUOUS
 10
43.45802067267883
 20
1.492541108378878
 30
0.0
 11
44.99999999995498
 21
3.034520435655023
 31
0.0
  0
LINE
  5
1B15C
  8
0
  6
CONTINUOUS
 10
43.77548298525902
 20
1.136484211878871
 30
0.0
 11
44.99999999995498
 21
2.361001226574837
 31
0.0
  0
LINE
  5
1B15D
  8
0
  6
CONTINUOUS
 10
44.09294529783919
 20
0.7804273153788639
 30
0.0
 11
44.99999999995498
 21
1.687482017494649
 31
0.0
  0
LINE
  5
1B15E
  8
0
  6
CONTINUOUS
 10
44.41040761041938
 20
0.4243704188788566
 30
0.0
 11
44.99999999995498
 21
1.013962808414463
 31
0.0
  0
LINE
  5
1B15F
  8
0
  6
CONTINUOUS
 10
44.72786992299955
 20
0.0683135223788494
 30
0.0
 11
44.99999999995498
 21
0.340443599334276
 31
0.0
  0
LINE
  5
1B160
  8
0
  6
CONTINUOUS
 10
39.12223903415696
 20
-0.0000000000000009
 30
0.0
 11
38.60499999996136
 21
0.5172390341955961
 31
0.0
  0
LINE
  5
1B161
  8
0
  6
CONTINUOUS
 10
39.79575824323715
 20
-0.0000000000000009
 30
0.0
 11
38.60499999996136
 21
1.190758243275783
 31
0.0
  0
LINE
  5
1B162
  8
0
  6
CONTINUOUS
 10
40.02599999995994
 20
0.443277452357397
 30
0.0
 11
38.60499999996136
 21
1.864277452355969
 31
0.0
  0
LINE
  5
1B163
  8
0
  6
CONTINUOUS
 10
40.02599999995994
 20
1.116796661437583
 30
0.0
 11
38.60499999996136
 21
2.537796661436155
 31
0.0
  0
LINE
  5
1B164
  8
0
  6
CONTINUOUS
 10
40.02599999995994
 20
1.79031587051777
 30
0.0
 11
38.60499999996136
 21
3.211315870516341
 31
0.0
  0
LINE
  5
1B165
  8
0
  6
CONTINUOUS
 10
40.02599999995994
 20
2.463835079597956
 30
0.0
 11
38.60499999996136
 21
3.884835079596527
 31
0.0
  0
LINE
  5
1B166
  8
0
  6
CONTINUOUS
 10
40.02599999995994
 20
3.137354288678143
 30
0.0
 11
38.60499999996136
 21
4.558354288676714
 31
0.0
  0
LINE
  5
1B167
  8
0
  6
CONTINUOUS
 10
40.02599999995994
 20
3.810873497758329
 30
0.0
 11
38.60499999996136
 21
5.2318734977569
 31
0.0
  0
LINE
  5
1B168
  8
0
  6
CONTINUOUS
 10
40.02599999995994
 20
4.484392706838515
 30
0.0
 11
38.60499999996136
 21
5.905392706837086
 31
0.0
  0
LINE
  5
1B169
  8
0
  6
CONTINUOUS
 10
44.99999999995498
 20
0.183911915923658
 30
0.0
 11
41.53858364506288
 21
3.64532827081576
 31
0.0
  0
LINE
  5
1B16A
  8
0
  6
CONTINUOUS
 10
40.02599999995994
 20
5.157911915918703
 30
0.0
 11
38.60499999996136
 21
6.578911915917274
 31
0.0
  0
LINE
  5
1B16B
  8
0
  6
CONTINUOUS
 10
44.99999999995498
 20
0.8574311250038447
 30
0.0
 11
38.60499999996136
 21
7.25243112499746
 31
0.0
  0
LINE
  5
1B16C
  8
0
  6
CONTINUOUS
 10
44.99999999995498
 20
1.530950334084031
 30
0.0
 11
38.60499999996136
 21
7.925950334077647
 31
0.0
  0
LINE
  5
1B16D
  8
0
  6
CONTINUOUS
 10
44.99999999995498
 20
2.204469543164218
 30
0.0
 11
43.57899999995641
 21
3.625469543162789
 31
0.0
  0
LINE
  5
1B16E
  8
0
  6
CONTINUOUS
 10
41.89876730984767
 20
5.305702233271528
 30
0.0
 11
38.60499999996136
 21
8.599469543157834
 31
0.0
  0
LINE
  5
1B16F
  8
0
  6
CONTINUOUS
 10
44.99999999995498
 20
2.877988752244405
 30
0.0
 11
43.57899999995641
 21
4.298988752242975
 31
0.0
  0
LINE
  5
1B170
  8
0
  6
CONTINUOUS
 10
44.99999999995498
 20
3.551507961324591
 30
0.0
 11
43.57899999995641
 21
4.972507961323163
 31
0.0
  0
LINE
  5
1B171
  8
0
  6
CONTINUOUS
 10
44.99999999995498
 20
4.225027170404777
 30
0.0
 11
43.57899999995641
 21
5.646027170403348
 31
0.0
  0
LINE
  5
1B172
  8
0
  6
CONTINUOUS
 10
44.99999999995498
 20
4.898546379484964
 30
0.0
 11
43.57899999995641
 21
6.319546379483535
 31
0.0
  0
LINE
  5
1B173
  8
0
  6
CONTINUOUS
 10
44.99999999995498
 20
5.572065588565151
 30
0.0
 11
43.57899999995641
 21
6.993065588563722
 31
0.0
  0
LINE
  5
1B174
  8
0
  6
CONTINUOUS
 10
44.99999999995498
 20
6.245584797645336
 30
0.0
 11
43.57899999995641
 21
7.666584797643908
 31
0.0
  0
LINE
  5
1B175
  8
0
  6
CONTINUOUS
 10
44.99999999995498
 20
6.919104006725522
 30
0.0
 11
43.57899999995641
 21
8.340104006724093
 31
0.0
  0
LINE
  5
1B176
  8
0
  6
CONTINUOUS
 10
44.99999999995498
 20
7.592623215805709
 30
0.0
 11
43.82952321576943
 21
8.763099999991255
 31
0.0
  0
LINE
  5
1B177
  8
0
  6
CONTINUOUS
 10
44.99999999995498
 20
8.266142424885896
 30
0.0
 11
44.50304242484962
 21
8.763099999991255
 31
0.0
  0
ENDBLK
  5
1B1A1
  8
0
  0
BLOCK
  8
0
  2
*X75
 70
     1
 10
0.0
 20
0.0
 30
0.0
  3
*X75
  1

  0
LINE
  5
1B179
  8
0
  6
CONTINUOUS
 10
0.0
 20
8.548461116714023
 30
0.0
 11
0.2146388832772324
 21
8.763099999991255
 31
0.0
  0
LINE
  5
1B17A
  8
0
  6
CONTINUOUS
 10
-0.0000000000000002
 20
7.874941907633837
 30
0.0
 11
0.8881580923574184
 21
8.763099999991255
 31
0.0
  0
LINE
  5
1B17B
  8
0
  6
CONTINUOUS
 10
0.0
 20
7.20142269855365
 30
0.0
 11
1.420999999998572
 21
8.622422698552223
 31
0.0
  0
LINE
  5
1B17C
  8
0
  6
CONTINUOUS
 10
-0.0000000000000001
 20
6.527903489473465
 30
0.0
 11
1.420999999998571
 21
7.948903489472036
 31
0.0
  0
LINE
  5
1B17D
  8
0
  6
CONTINUOUS
 10
-0.0000000000000002
 20
5.854384280393278
 30
0.0
 11
1.420999999998571
 21
7.275384280391849
 31
0.0
  0
LINE
  5
1B17E
  8
0
  6
CONTINUOUS
 10
-0.0000000000000002
 20
5.180865071313091
 30
0.0
 11
1.420999999998571
 21
6.601865071311663
 31
0.0
  0
LINE
  5
1B17F
  8
0
  6
CONTINUOUS
 10
0.0
 20
4.507345862232905
 30
0.0
 11
1.420999999998571
 21
5.928345862231477
 31
0.0
  0
LINE
  5
1B180
  8
0
  6
CONTINUOUS
 10
-0.0000000000000003
 20
3.833826653152718
 30
0.0
 11
1.420999999998571
 21
5.25482665315129
 31
0.0
  0
LINE
  5
1B181
  8
0
  6
CONTINUOUS
 10
-0.0000000000000002
 20
3.160307444072532
 30
0.0
 11
1.420999999998571
 21
4.581307444071103
 31
0.0
  0
LINE
  5
1B182
  8
0
  6
CONTINUOUS
 10
-0.0000000000000001
 20
2.486788234992345
 30
0.0
 11
1.420999999998571
 21
3.907788234990917
 31
0.0
  0
LINE
  5
1B183
  8
0
  6
CONTINUOUS
 10
-0.0000000000000006
 20
1.813269025912159
 30
0.0
 11
1.420999999998571
 21
3.234269025910731
 31
0.0
  0
LINE
  5
1B184
  8
0
  6
CONTINUOUS
 10
0.0
 20
1.139749816831973
 30
0.0
 11
1.420999999998571
 21
2.560749816830544
 31
0.0
  0
LINE
  5
1B185
  8
0
  6
CONTINUOUS
 10
0.0000000000000002
 20
0.466230607751787
 30
0.0
 11
1.420999999998571
 21
1.887230607750358
 31
0.0
  0
LINE
  5
1B186
  8
0
  6
CONTINUOUS
 10
0.2072886013284003
 20
-0.0000000000000009
 30
0.0
 11
1.420999999998571
 21
1.213711398670171
 31
0.0
  0
LINE
  5
1B187
  8
0
  6
CONTINUOUS
 10
0.8808078104085864
 20
-0.0000000000000009
 30
0.0
 11
1.420999999998571
 21
0.5401921895899839
 31
0.0
  0
LINE
  5
1B188
  8
0
  6
CONTINUOUS
 10
0.0581249075061505
 20
-0.0000000000000009
 30
0.0
 11
-0.0000000000000002
 21
0.0581249075061496
 31
0.0
  0
LINE
  5
1B189
  8
0
  6
CONTINUOUS
 10
0.7316441165863372
 20
-0.0000000000000009
 30
0.0
 11
-0.0000000000000002
 21
0.7316441165863363
 31
0.0
  0
LINE
  5
1B18A
  8
0
  6
CONTINUOUS
 10
1.405163325666523
 20
-0.0000000000000009
 30
0.0
 11
-0.0000000000000002
 21
1.405163325666523
 31
0.0
  0
LINE
  5
1B18B
  8
0
  6
CONTINUOUS
 10
1.420999999998572
 20
0.6576825347481381
 30
0.0
 11
-0.0000000000000001
 21
2.07868253474671
 31
0.0
  0
LINE
  5
1B18C
  8
0
  6
CONTINUOUS
 10
1.420999999998571
 20
1.331201743828324
 30
0.0
 11
-0.0000000000000001
 21
2.752201743826896
 31
0.0
  0
LINE
  5
1B18D
  8
0
  6
CONTINUOUS
 10
1.420999999998571
 20
2.004720952908511
 30
0.0
 11
-0.0000000000000002
 21
3.425720952907082
 31
0.0
  0
LINE
  5
1B18E
  8
0
  6
CONTINUOUS
 10
1.420999999998571
 20
2.678240161988697
 30
0.0
 11
-0.0000000000000001
 21
4.099240161987269
 31
0.0
  0
LINE
  5
1B18F
  8
0
  6
CONTINUOUS
 10
1.420999999998572
 20
3.351759371068884
 30
0.0
 11
0.0
 21
4.772759371067455
 31
0.0
  0
LINE
  5
1B190
  8
0
  6
CONTINUOUS
 10
1.420999999998571
 20
4.02527858014907
 30
0.0
 11
-0.0000000000000003
 21
5.446278580147642
 31
0.0
  0
LINE
  5
1B191
  8
0
  6
CONTINUOUS
 10
1.420999999998571
 20
4.698797789229257
 30
0.0
 11
0.0
 21
6.119797789227828
 31
0.0
  0
LINE
  5
1B192
  8
0
  6
CONTINUOUS
 10
1.420999999998571
 20
5.372316998309444
 30
0.0
 11
-0.0000000000000001
 21
6.793316998308015
 31
0.0
  0
LINE
  5
1B193
  8
0
  6
CONTINUOUS
 10
1.420999999998572
 20
6.045836207389629
 30
0.0
 11
-0.0000000000000004
 21
7.466836207388202
 31
0.0
  0
LINE
  5
1B194
  8
0
  6
CONTINUOUS
 10
1.420999999998571
 20
6.719355416469816
 30
0.0
 11
0.0
 21
8.140355416468388
 31
0.0
  0
LINE
  5
1B195
  8
0
  6
CONTINUOUS
 10
1.420999999998571
 20
7.392874625550003
 30
0.0
 11
0.0507746255573185
 21
8.763099999991255
 31
0.0
  0
LINE
  5
1B196
  8
0
  6
CONTINUOUS
 10
1.420999999998571
 20
8.06639383463019
 30
0.0
 11
0.7242938346375052
 21
8.763099999991255
 31
0.0
  0
LINE
  5
1B197
  8
0
  6
CONTINUOUS
 10
1.420999999998571
 20
8.739913043710375
 30
0.0
 11
1.397813043717691
 21
8.763099999991255
 31
0.0
  0
ENDBLK
  5
1B1A3
  8
0
  0
ENDSEC
  0
SECTION
  2
ENTITIES
  0
ARC
  5
19256
  8
01
 10
2585.645896902244
 20
-585.8257625162089
 30
0.0
 40
1.655026303298983
 50
30.27165916159741
 51
72.37132628861451
  0
LINE
  5
19257
  8
01
 10
2569.167729675944
 20
-584.1742629820551
 30
0.0
 11
2585.894979286318
 21
-584.1911147062891
 31
0.0
  0
LINE
  5
19258
  8
01
 10
2056.890035004665
 20
-584.1745144449519
 30
0.0
 11
2569.167340009781
 21
-584.1745144459778
 31
0.0
  0
ARC
  5
19259
  8
01
 10
2040.736623548138
 20
-586.3506418478357
 30
0.0
 40
2.24403005373613
 50
107.0623106829495
 51
136.3163841612619
  0
LINE
  5
1925A
  8
01
 10
2040.162395728124
 20
-584.1911147062891
 30
0.0
 11
2056.889557999128
 21
-584.1742630106987
 31
0.0
  0
LINE
  5
1925B
  8
01
 10
2040.423006632351
 20
-584.170724769257
 30
0.0
 11
2040.644224134439
 21
-584.1534169326899
 31
0.0
  0
LINE
  5
1925D
  8
01
 10
2310.728688927603
 20
-617.7217666567133
 30
0.0
 11
2254.028687507221
 21
-617.7217381995588
 31
0.0
  0
LINE
  5
1925E
  8
01
 10
2372.028687507221
 20
-617.7217381995588
 30
0.0
 11
2315.828687507224
 21
-617.7227954740108
 31
0.0
  0
LINE
  5
1925F
  8
01
 10
2315.528687507221
 20
-622.0182426960364
 30
0.0
 11
2315.528687507221
 21
-621.8803893096208
 31
0.0
  0
LINE
  5
19260
  8
01
 10
2315.528687507221
 20
-622.3427228102772
 30
0.0
 11
2315.528687507221
 21
-622.233139954451
 31
0.0
  0
LINE
  5
19261
  8
01
 10
2315.528687507221
 20
-622.5803893096966
 30
0.0
 11
2315.528687507221
 21
-622.38038930989
 31
0.0
  0
ARC
  5
19262
  8
01
 10
2315.228644477292
 20
-622.5806330693509
 30
0.0
 40
0.3000430330106844
 50
270.0082169322677
 51
0.0082125300168259
  0
ARC
  5
19263
  8
01
 10
2311.328730537884
 20
-622.580633068617
 30
0.0
 40
0.3000430337448172
 50
179.9917876101596
 51
269.9917829274647
  0
LINE
  5
19264
  8
01
 10
2311.028687507221
 20
-622.38038930989
 30
0.0
 11
2311.028687507221
 21
-622.5803893096966
 31
0.0
  0
LINE
  5
19265
  8
01
 10
2311.028687507221
 20
-622.233139954451
 30
0.0
 11
2311.028687507221
 21
-622.3427228102771
 31
0.0
  0
LINE
  5
19266
  8
01
 10
2311.028687507221
 20
-621.8803893096208
 30
0.0
 11
2311.028687507221
 21
-622.0182426960363
 31
0.0
  0
ARC
  5
19267
  8
01
 10
2254.011459708579
 20
-616.7265676630374
 30
0.0
 40
0.9953189571522438
 50
189.9065918750107
 51
270.9899024210208
  0
ARC
  5
19268
  8
01
 10
2372.045899961321
 20
-616.7265346504304
 30
0.0
 40
0.9953523191393089
 50
269.0093274031984
 51
350.0835867969944
  0
ARC
  5
19269
  8
01
 10
2316.098457269371
 20
-618.2302433057982
 30
0.0
 40
0.5746990747815746
 50
117.9960355974804
 51
187.5334748087206
  0
ARC
  5
1926A
  8
01
 10
2310.457970787239
 20
-618.2317986006947
 30
0.0
 40
0.5753945673289492
 50
352.6375924082565
 51
61.91524396266126
  0
LINE
  5
1926B
  8
01
 10
2311.028687507221
 20
-622.3805327045729
 30
0.0
 11
2311.011680568744
 21
-622.469719542688
 31
0.0
  0
ARC
  5
1926C
  8
01
 10
2310.529576612099
 20
-622.3832386041804
 30
0.0
 40
0.4974382896010853
 50
269.8975913489941
 51
349.8200917936716
  0
ARC
  5
1926D
  8
01
 10
2316.028759100888
 20
-622.3806045055053
 30
0.0
 40
0.5000715988220199
 50
179.9917733973999
 51
269.9917971446667
  0
LINE
  5
1926E
  8
01
 10
2373.028687507221
 20
-614.8803893096208
 30
0.0
 11
2553.028687507218
 21
-614.8803893096208
 31
0.0
  0
ARC
  5
1926F
  8
01
 10
2073.028687547113
 20
-629.880389349511
 30
0.0
 40
15.00000003989032
 50
90.00000015237026
 51
179.9999998476623
  0
LINE
  5
19270
  8
01
 10
2058.028687507221
 20
-674.8803893096295
 30
0.0
 11
2058.028687507222
 21
-629.8803893096297
 31
0.0
  0
ARC
  5
19271
  8
01
 10
2073.028687546807
 20
-674.8803892700339
 30
0.0
 40
15.00000003958689
 50
180.0000001512434
 51
269.9999998487892
  0
LINE
  5
19272
  8
01
 10
2553.028687507221
 20
-689.8803893096207
 30
0.0
 11
2073.028687507219
 21
-689.8803893096208
 31
0.0
  0
ARC
  5
19273
  8
01
 10
2553.028687467451
 20
-674.8803892698513
 30
0.0
 40
15.0000000397693
 50
270.0000001519012
 51
359.9999998480532
  0
LINE
  5
19274
  8
01
 10
2568.028687507219
 20
-629.8803893096299
 30
0.0
 11
2568.028687507221
 21
-674.8803893096309
 31
0.0
  0
ARC
  5
19275
  8
01
 10
2553.028687467693
 20
-629.8803893491468
 30
0.0
 40
15.00000003952618
 50
0.000000150943731
 51
89.9999998490237
  0
LINE
  5
19276
  8
01
 10
2073.028687507222
 20
-614.8803893096207
 30
0.0
 11
2253.028687507221
 21
-614.8803893096207
 31
0.0
  0
LINE
  5
19288
  8
01
 10
2311.008442689169
 20
-618.0482338668065
 30
0.0
 11
2311.023564619127
 21
-618.1784381352652
 31
0.0
  0
LINE
  5
1928C
  8
01
 10
2254.028687507221
 20
-617.7133579434433
 30
0.0
 11
2254.028687507221
 21
-617.7217332200123
 31
0.0
  0
LINE
  5
1928D
  8
01
 10
2254.028687507221
 20
-617.7217332200123
 30
0.0
 11
2254.028687507221
 21
-617.721737777
 31
0.0
  0
LINE
  5
1928E
  8
01
 10
2254.028687507221
 20
-617.721737777
 30
0.0
 11
2254.028687507221
 21
-617.7217256967828
 31
0.0
  0
LINE
  5
1928F
  8
01
 10
2254.028687507221
 20
-617.7217256967828
 30
0.0
 11
2254.028687507221
 21
-617.721651331854
 31
0.0
  0
LINE
  5
19290
  8
01
 10
2254.028687507221
 20
-617.721651331854
 30
0.0
 11
2254.028687507221
 21
-617.7212998741734
 31
0.0
  0
LINE
  5
19291
  8
01
 10
2254.028687507221
 20
-617.7212998741734
 30
0.0
 11
2254.028687507222
 21
-617.7197729722998
 31
0.0
  0
LINE
  5
19292
  8
01
 10
2254.028687507222
 20
-617.7197729722998
 30
0.0
 11
2254.028687507221
 21
-617.7133565305738
 31
0.0
  0
LINE
  5
19297
  8
01
 10
2564.342420152713
 20
-629.8803893089603
 30
0.0
 11
2564.342420152715
 21
-674.880389313719
 31
0.0
  0
LINE
  5
19298
  8
01
 10
2553.028687507221
 20
-686.1941219551139
 30
0.0
 11
2073.028687507219
 21
-686.194121955114
 31
0.0
  0
LINE
  5
19299
  8
01
 10
2073.028687507222
 20
-618.5666566641274
 30
0.0
 11
2310.528687507221
 21
-618.5666566641275
 31
0.0
  0
LINE
  5
1929D
  8
01
 10
2061.714954861728
 20
-674.8803893089909
 30
0.0
 11
2061.714954861729
 21
-629.8803893032403
 31
0.0
  0
ARC
  5
192B0
  8
01
 10
2553.028591612143
 20
-629.8804852046976
 30
0.0
 40
11.31382854097651
 50
0.0004856376432664
 51
89.99951436570483
  0
ARC
  5
192B5
  8
01
 10
2553.028591611713
 20
-674.8802934141122
 30
0.0
 40
11.31382854140828
 50
270.0004856364838
 51
359.9995143427633
  0
ARC
  5
192BA
  8
01
 10
2073.02878340248
 20
-674.8802934143616
 30
0.0
 40
11.31382854115875
 50
180.0004856320284
 51
269.9995143647669
  0
ARC
  5
192BF
  8
01
 10
2073.028783402952
 20
-629.8804852053512
 30
0.0
 40
11.31382854163021
 50
90.00048563760419
 51
179.999514330081
  0
LINE
  5
192C1
  8
01
 10
2316.028687507221
 20
-618.566656664047
 30
0.0
 11
2553.028687507219
 21
-618.5666566641275
 31
0.0
  0
LINE
  5
192C4
  8
1DIM
 10
2315.528687507221
 20
-618.5666566641274
 30
0.0
 11
2316.028687507221
 21
-618.5666566641274
 31
0.0
  0
LINE
  5
192CA
  8
01
 10
2311.028687507221
 20
-618.5666566641275
 30
0.0
 11
2310.528687507221
 21
-618.5666566641275
 31
0.0
  0
LINE
  5
192CD
  8
01
 10
2569.178863766835
 20
-594.8803893096209
 30
0.0
 11
2056.878511247607
 21
-594.8803893096209
 31
0.0
  0
LINE
  5
192CE
  8
01
 10
2569.178863766835
 20
-594.8803893096209
 30
0.0
 11
2577.178863766835
 21
-594.8803893096209
 31
0.0
  0
LINE
  5
192CF
  8
01
 10
2577.178863766835
 20
-594.8803893096209
 30
0.0
 11
2577.411099242054
 21
-594.8783246371697
 31
0.0
  0
LINE
  5
192D0
  8
01
 10
2577.411099242054
 20
-594.8783246371697
 30
0.0
 11
2577.640419621983
 21
-594.8721499350719
 31
0.0
  0
LINE
  5
192D1
  8
01
 10
2577.640419621983
 20
-594.8721499350719
 30
0.0
 11
2577.866845642075
 21
-594.8618941762113
 31
0.0
  0
LINE
  5
192D2
  8
01
 10
2577.866845642075
 20
-594.8618941762113
 30
0.0
 11
2578.090398037785
 21
-594.847586333472
 31
0.0
  0
LINE
  5
192D3
  8
01
 10
2578.090398037785
 20
-594.847586333472
 30
0.0
 11
2578.311097544568
 21
-594.8292553797376
 31
0.0
  0
LINE
  5
192D4
  8
01
 10
2578.311097544568
 20
-594.8292553797376
 30
0.0
 11
2578.528964897878
 21
-594.806930287892
 31
0.0
  0
LINE
  5
192D5
  8
01
 10
2578.528964897878
 20
-594.806930287892
 30
0.0
 11
2578.74402083317
 21
-594.780640030819
 31
0.0
  0
LINE
  5
192D6
  8
01
 10
2578.74402083317
 20
-594.780640030819
 30
0.0
 11
2578.9562860859
 21
-594.7504135814024
 31
0.0
  0
LINE
  5
192D7
  8
01
 10
2578.9562860859
 20
-594.7504135814024
 30
0.0
 11
2579.165781391519
 21
-594.7162799125263
 31
0.0
  0
LINE
  5
192D8
  8
01
 10
2579.165781391519
 20
-594.7162799125263
 30
0.0
 11
2579.372527485485
 21
-594.678267997074
 31
0.0
  0
LINE
  5
192D9
  8
01
 10
2579.372527485485
 20
-594.678267997074
 30
0.0
 11
2579.576545103251
 21
-594.6364068079299
 31
0.0
  0
LINE
  5
192DA
  8
01
 10
2579.576545103251
 20
-594.6364068079299
 30
0.0
 11
2579.777854980272
 21
-594.5907253179777
 31
0.0
  0
LINE
  5
192DB
  8
01
 10
2579.777854980272
 20
-594.5907253179777
 30
0.0
 11
2579.976477852003
 21
-594.541252500101
 31
0.0
  0
LINE
  5
192DC
  8
01
 10
2579.976477852003
 20
-594.541252500101
 30
0.0
 11
2580.172434453898
 21
-594.4880173271839
 31
0.0
  0
LINE
  5
192DD
  8
01
 10
2580.172434453898
 20
-594.4880173271839
 30
0.0
 11
2580.365745521412
 21
-594.4310487721101
 31
0.0
  0
LINE
  5
192DE
  8
01
 10
2580.365745521412
 20
-594.4310487721101
 30
0.0
 11
2580.556431789998
 21
-594.3703758077635
 31
0.0
  0
LINE
  5
192DF
  8
01
 10
2580.556431789998
 20
-594.3703758077635
 30
0.0
 11
2580.744513995113
 21
-594.3060274070278
 31
0.0
  0
LINE
  5
192E0
  8
01
 10
2580.744513995113
 20
-594.3060274070278
 30
0.0
 11
2580.930012872211
 21
-594.2380325427871
 31
0.0
  0
LINE
  5
192E1
  8
01
 10
2580.930012872211
 20
-594.2380325427871
 30
0.0
 11
2581.112949156745
 21
-594.1664201879249
 31
0.0
  0
LINE
  5
192E2
  8
01
 10
2581.112949156745
 20
-594.1664201879249
 30
0.0
 11
2581.293343584172
 21
-594.0912193153254
 31
0.0
  0
LINE
  5
192E3
  8
01
 10
2581.293343584172
 20
-594.0912193153254
 30
0.0
 11
2581.471216889945
 21
-594.0124588978721
 31
0.0
  0
LINE
  5
192E4
  8
01
 10
2581.471216889945
 20
-594.0124588978721
 30
0.0
 11
2581.646589809519
 21
-593.9301679084491
 31
0.0
  0
LINE
  5
192E5
  8
01
 10
2581.646589809519
 20
-593.9301679084491
 30
0.0
 11
2581.819483078349
 21
-593.84437531994
 31
0.0
  0
LINE
  5
192E6
  8
01
 10
2581.819483078349
 20
-593.84437531994
 30
0.0
 11
2581.989917431888
 21
-593.7551101052288
 31
0.0
  0
LINE
  5
192E7
  8
01
 10
2581.989917431888
 20
-593.7551101052288
 30
0.0
 11
2582.157913605593
 21
-593.6624012371994
 31
0.0
  0
LINE
  5
192E8
  8
01
 10
2582.157913605593
 20
-593.6624012371994
 30
0.0
 11
2582.323492334916
 21
-593.5662776887355
 31
0.0
  0
LINE
  5
192E9
  8
01
 10
2582.323492334916
 20
-593.5662776887355
 30
0.0
 11
2582.486674355314
 21
-593.466768432721
 31
0.0
  0
LINE
  5
192EA
  8
01
 10
2582.486674355314
 20
-593.466768432721
 30
0.0
 11
2582.647480402241
 21
-593.3639024420397
 31
0.0
  0
LINE
  5
192EB
  8
01
 10
2582.647480402241
 20
-593.3639024420397
 30
0.0
 11
2582.80593121115
 21
-593.2577086895756
 31
0.0
  0
LINE
  5
192EC
  8
01
 10
2582.80593121115
 20
-593.2577086895756
 30
0.0
 11
2582.962047517498
 21
-593.1482161482122
 31
0.0
  0
LINE
  5
192ED
  8
01
 10
2582.962047517498
 20
-593.1482161482122
 30
0.0
 11
2583.115850056738
 21
-593.0354537908336
 31
0.0
  0
LINE
  5
192EE
  8
01
 10
2583.115850056738
 20
-593.0354537908336
 30
0.0
 11
2583.267359564325
 21
-592.9194505903235
 31
0.0
  0
LINE
  5
192EF
  8
01
 10
2583.267359564325
 20
-592.9194505903235
 30
0.0
 11
2583.416596775714
 21
-592.800235519566
 31
0.0
  0
LINE
  5
192F0
  8
01
 10
2583.416596775714
 20
-592.800235519566
 30
0.0
 11
2583.563582426358
 21
-592.6778375514446
 31
0.0
  0
LINE
  5
192F1
  8
01
 10
2583.563582426358
 20
-592.6778375514446
 30
0.0
 11
2583.708337251714
 21
-592.5522856588432
 31
0.0
  0
LINE
  5
192F2
  8
01
 10
2583.708337251714
 20
-592.5522856588432
 30
0.0
 11
2583.850881987235
 21
-592.4236088146458
 31
0.0
  0
LINE
  5
192F3
  8
01
 10
2583.850881987235
 20
-592.4236088146458
 30
0.0
 11
2583.991237368376
 21
-592.2918359917362
 31
0.0
  0
LINE
  5
192F4
  8
01
 10
2583.991237368376
 20
-592.2918359917362
 30
0.0
 11
2584.129424130592
 21
-592.1569961629981
 31
0.0
  0
LINE
  5
192F5
  8
01
 10
2584.129424130592
 20
-592.1569961629981
 30
0.0
 11
2584.265463009337
 21
-592.0191183013155
 31
0.0
  0
LINE
  5
192F6
  8
01
 10
2584.265463009337
 20
-592.0191183013155
 30
0.0
 11
2584.399374740066
 21
-591.8782313795722
 31
0.0
  0
LINE
  5
192F7
  8
01
 10
2584.399374740066
 20
-591.8782313795722
 30
0.0
 11
2584.531180058233
 21
-591.734364370652
 31
0.0
  0
LINE
  5
192F8
  8
01
 10
2584.531180058233
 20
-591.734364370652
 30
0.0
 11
2584.660899699294
 21
-591.5875462474387
 31
0.0
  0
LINE
  5
192F9
  8
01
 10
2584.660899699294
 20
-591.5875462474387
 30
0.0
 11
2584.914164891912
 21
-591.2851725496682
 31
0.0
  0
LINE
  5
192FA
  8
01
 10
2584.914164891912
 20
-591.2851725496682
 30
0.0
 11
2585.159336201558
 21
-590.9713420693317
 31
0.0
  0
LINE
  5
192FB
  8
01
 10
2585.159336201558
 20
-590.9713420693317
 30
0.0
 11
2585.396579511868
 21
-590.6462865894996
 31
0.0
  0
LINE
  5
192FC
  8
01
 10
2585.396579511868
 20
-590.6462865894996
 30
0.0
 11
2585.62606070648
 21
-590.3102378932429
 31
0.0
  0
LINE
  5
192FD
  8
01
 10
2585.62606070648
 20
-590.3102378932429
 30
0.0
 11
2585.847945669029
 21
-589.9634277636319
 31
0.0
  0
LINE
  5
192FE
  8
01
 10
2585.847945669029
 20
-589.9634277636319
 30
0.0
 11
2586.062400283154
 21
-589.6060879837377
 31
0.0
  0
LINE
  5
192FF
  8
01
 10
2586.062400283154
 20
-589.6060879837377
 30
0.0
 11
2586.269590432489
 21
-589.2384503366308
 31
0.0
  0
LINE
  5
19300
  8
01
 10
2586.269590432489
 20
-589.2384503366308
 30
0.0
 11
2586.469682000673
 21
-588.8607466053818
 31
0.0
  0
LINE
  5
19301
  8
01
 10
2586.469682000673
 20
-588.8607466053818
 30
0.0
 11
2586.662840871343
 21
-588.4732085730616
 31
0.0
  0
LINE
  5
19302
  8
01
 10
2586.662840871343
 20
-588.4732085730616
 30
0.0
 11
2586.849232928134
 21
-588.076068022741
 31
0.0
  0
LINE
  5
19303
  8
01
 10
2586.849232928134
 20
-588.076068022741
 30
0.0
 11
2587.029024054684
 21
-587.6695567374903
 31
0.0
  0
ARC
  5
19304
  8
01
 10
2584.366714157848
 20
-586.2841552636507
 30
0.0
 40
3.001204963094978
 50
332.5086250369977
 51
25.51354356301038
  0
ARC
  5
19305
  8
01
 10
2585.670276654869
 20
-585.7722451521327
 30
0.0
 40
1.59702202967706
 50
72.6234399563374
 51
81.90894089762132
  0
ARC
  5
19306
  8
01
 10
2041.542439157243
 20
-586.3087788461332
 30
0.0
 40
2.858733274432214
 50
148.162075869906
 51
208.4249551451026
  0
ARC
  5
19307
  8
01
 10
2040.390899434322
 20
-585.7879093478789
 30
0.0
 40
1.613066040216314
 50
98.14641859790083
 51
125.8343931299739
  0
LINE
  5
19308
  8
01
 10
2048.878511247607
 20
-594.8803893096209
 30
0.0
 11
2056.878511247607
 21
-594.8803893096209
 31
0.0
  0
LINE
  5
19309
  8
01
 10
2039.028350959757
 20
-587.6695567374903
 30
0.0
 11
2039.208142086307
 21
-588.076068022741
 31
0.0
  0
LINE
  5
1930A
  8
01
 10
2039.208142086307
 20
-588.076068022741
 30
0.0
 11
2039.394534143099
 21
-588.4732085730616
 31
0.0
  0
LINE
  5
1930B
  8
01
 10
2039.394534143099
 20
-588.4732085730616
 30
0.0
 11
2039.587693013768
 21
-588.8607466053818
 31
0.0
  0
LINE
  5
1930C
  8
01
 10
2039.587693013768
 20
-588.8607466053818
 30
0.0
 11
2039.787784581952
 21
-589.2384503366306
 31
0.0
  0
LINE
  5
1930D
  8
01
 10
2039.787784581952
 20
-589.2384503366306
 30
0.0
 11
2039.994974731288
 21
-589.6060879837377
 31
0.0
  0
LINE
  5
1930E
  8
01
 10
2039.994974731288
 20
-589.6060879837377
 30
0.0
 11
2040.209429345412
 21
-589.9634277636319
 31
0.0
  0
LINE
  5
1930F
  8
01
 10
2040.209429345412
 20
-589.9634277636319
 30
0.0
 11
2040.431314307961
 21
-590.3102378932427
 31
0.0
  0
LINE
  5
19310
  8
01
 10
2040.431314307961
 20
-590.3102378932427
 30
0.0
 11
2040.660795502572
 21
-590.6462865894996
 31
0.0
  0
LINE
  5
19311
  8
01
 10
2040.660795502572
 20
-590.6462865894996
 30
0.0
 11
2040.898038812883
 21
-590.9713420693317
 31
0.0
  0
LINE
  5
19312
  8
01
 10
2040.898038812883
 20
-590.9713420693317
 30
0.0
 11
2041.143210122529
 21
-591.2851725496682
 31
0.0
  0
LINE
  5
19313
  8
01
 10
2041.143210122529
 20
-591.2851725496682
 30
0.0
 11
2041.396475315147
 21
-591.5875462474387
 31
0.0
  0
LINE
  5
19314
  8
01
 10
2041.396475315147
 20
-591.5875462474387
 30
0.0
 11
2041.526194956208
 21
-591.734364370652
 31
0.0
  0
LINE
  5
19315
  8
01
 10
2041.526194956208
 20
-591.734364370652
 30
0.0
 11
2041.658000274375
 21
-591.8782313795722
 31
0.0
  0
LINE
  5
19316
  8
01
 10
2041.658000274375
 20
-591.8782313795722
 30
0.0
 11
2041.791912005104
 21
-592.0191183013155
 31
0.0
  0
LINE
  5
19317
  8
01
 10
2041.791912005104
 20
-592.0191183013155
 30
0.0
 11
2041.927950883849
 21
-592.1569961629981
 31
0.0
  0
LINE
  5
19318
  8
01
 10
2041.927950883849
 20
-592.1569961629981
 30
0.0
 11
2042.066137646065
 21
-592.2918359917362
 31
0.0
  0
LINE
  5
19319
  8
01
 10
2042.066137646065
 20
-592.2918359917362
 30
0.0
 11
2042.206493027206
 21
-592.4236088146458
 31
0.0
  0
LINE
  5
1931A
  8
01
 10
2042.206493027206
 20
-592.4236088146458
 30
0.0
 11
2042.349037762727
 21
-592.5522856588432
 31
0.0
  0
LINE
  5
1931B
  8
01
 10
2042.349037762727
 20
-592.5522856588432
 30
0.0
 11
2042.493792588083
 21
-592.6778375514444
 31
0.0
  0
LINE
  5
1931C
  8
01
 10
2042.493792588083
 20
-592.6778375514444
 30
0.0
 11
2042.640778238728
 21
-592.8002355195658
 31
0.0
  0
LINE
  5
1931D
  8
01
 10
2042.640778238728
 20
-592.8002355195658
 30
0.0
 11
2042.790015450116
 21
-592.9194505903235
 31
0.0
  0
LINE
  5
1931E
  8
01
 10
2042.790015450116
 20
-592.9194505903235
 30
0.0
 11
2042.941524957703
 21
-593.0354537908336
 31
0.0
  0
LINE
  5
1931F
  8
01
 10
2042.941524957703
 20
-593.0354537908336
 30
0.0
 11
2043.095327496943
 21
-593.1482161482122
 31
0.0
  0
LINE
  5
19320
  8
01
 10
2043.095327496943
 20
-593.1482161482122
 30
0.0
 11
2043.251443803291
 21
-593.2577086895756
 31
0.0
  0
LINE
  5
19321
  8
01
 10
2043.251443803291
 20
-593.2577086895756
 30
0.0
 11
2043.409894612201
 21
-593.3639024420397
 31
0.0
  0
LINE
  5
19322
  8
01
 10
2043.409894612201
 20
-593.3639024420397
 30
0.0
 11
2043.570700659127
 21
-593.466768432721
 31
0.0
  0
LINE
  5
19323
  8
01
 10
2043.570700659127
 20
-593.466768432721
 30
0.0
 11
2043.733882679525
 21
-593.5662776887355
 31
0.0
  0
LINE
  5
19324
  8
01
 10
2043.733882679525
 20
-593.5662776887355
 30
0.0
 11
2043.899461408849
 21
-593.6624012371994
 31
0.0
  0
LINE
  5
19325
  8
01
 10
2043.899461408849
 20
-593.6624012371994
 30
0.0
 11
2044.067457582553
 21
-593.7551101052288
 31
0.0
  0
LINE
  5
19326
  8
01
 10
2044.067457582553
 20
-593.7551101052288
 30
0.0
 11
2044.237891936093
 21
-593.84437531994
 31
0.0
  0
LINE
  5
19327
  8
01
 10
2044.237891936093
 20
-593.84437531994
 30
0.0
 11
2044.410785204922
 21
-593.930167908449
 31
0.0
  0
LINE
  5
19328
  8
01
 10
2044.410785204922
 20
-593.930167908449
 30
0.0
 11
2044.586158124496
 21
-594.0124588978721
 31
0.0
  0
LINE
  5
19329
  8
01
 10
2044.586158124496
 20
-594.0124588978721
 30
0.0
 11
2044.764031430269
 21
-594.0912193153254
 31
0.0
  0
LINE
  5
1932A
  8
01
 10
2044.764031430269
 20
-594.0912193153254
 30
0.0
 11
2044.944425857696
 21
-594.1664201879249
 31
0.0
  0
LINE
  5
1932B
  8
01
 10
2044.944425857696
 20
-594.1664201879249
 30
0.0
 11
2045.127362142231
 21
-594.2380325427871
 31
0.0
  0
LINE
  5
1932C
  8
01
 10
2045.127362142231
 20
-594.2380325427871
 30
0.0
 11
2045.312861019328
 21
-594.3060274070278
 31
0.0
  0
LINE
  5
1932D
  8
01
 10
2045.312861019328
 20
-594.3060274070278
 30
0.0
 11
2045.500943224443
 21
-594.3703758077635
 31
0.0
  0
LINE
  5
1932E
  8
01
 10
2045.500943224443
 20
-594.3703758077635
 30
0.0
 11
2045.69162949303
 21
-594.4310487721101
 31
0.0
  0
LINE
  5
1932F
  8
01
 10
2045.69162949303
 20
-594.4310487721101
 30
0.0
 11
2045.884940560544
 21
-594.4880173271839
 31
0.0
  0
LINE
  5
19330
  8
01
 10
2045.884940560544
 20
-594.4880173271839
 30
0.0
 11
2046.080897162438
 21
-594.541252500101
 31
0.0
  0
LINE
  5
19331
  8
01
 10
2046.080897162438
 20
-594.541252500101
 30
0.0
 11
2046.279520034169
 21
-594.5907253179777
 31
0.0
  0
LINE
  5
19332
  8
01
 10
2046.279520034169
 20
-594.5907253179777
 30
0.0
 11
2046.48082991119
 21
-594.6364068079299
 31
0.0
  0
LINE
  5
19333
  8
01
 10
2046.48082991119
 20
-594.6364068079299
 30
0.0
 11
2046.684847528956
 21
-594.678267997074
 31
0.0
  0
LINE
  5
19334
  8
01
 10
2046.684847528956
 20
-594.678267997074
 30
0.0
 11
2046.891593622922
 21
-594.7162799125263
 31
0.0
  0
LINE
  5
19335
  8
01
 10
2046.891593622922
 20
-594.7162799125263
 30
0.0
 11
2047.101088928542
 21
-594.7504135814024
 31
0.0
  0
LINE
  5
19336
  8
01
 10
2047.101088928542
 20
-594.7504135814024
 30
0.0
 11
2047.313354181271
 21
-594.780640030819
 31
0.0
  0
LINE
  5
19337
  8
01
 10
2047.313354181271
 20
-594.780640030819
 30
0.0
 11
2047.528410116563
 21
-594.806930287892
 31
0.0
  0
LINE
  5
19338
  8
01
 10
2047.528410116563
 20
-594.806930287892
 30
0.0
 11
2047.746277469873
 21
-594.8292553797376
 31
0.0
  0
LINE
  5
19339
  8
01
 10
2047.746277469873
 20
-594.8292553797376
 30
0.0
 11
2047.966976976656
 21
-594.847586333472
 31
0.0
  0
LINE
  5
1933A
  8
01
 10
2047.966976976656
 20
-594.847586333472
 30
0.0
 11
2048.190529372366
 21
-594.8618941762113
 31
0.0
  0
LINE
  5
1933B
  8
01
 10
2048.190529372366
 20
-594.8618941762113
 30
0.0
 11
2048.416955392458
 21
-594.8721499350719
 31
0.0
  0
LINE
  5
1933C
  8
01
 10
2048.416955392458
 20
-594.8721499350719
 30
0.0
 11
2048.646275772387
 21
-594.8783246371697
 31
0.0
  0
LINE
  5
1933D
  8
01
 10
2048.646275772387
 20
-594.8783246371697
 30
0.0
 11
2048.878511247607
 21
-594.8803893096209
 31
0.0
  0
LINE
  5
1933E
  8
01
 10
2311.274098591497
 20
-622.8803893096209
 30
0.0
 11
2310.619669033427
 21
-622.8803893096209
 31
0.0
  0
LINE
  5
1933F
  8
01
 10
2315.937705981014
 20
-622.8803893096209
 30
0.0
 11
2315.283276422944
 21
-622.8803893096209
 31
0.0
  0
LINE
  5
19340
  8
01
 10
2317.72868750722
 20
-622.8803893096209
 30
0.0
 11
2308.328687507221
 21
-622.8803893096209
 31
0.0
  0
LINE
  5
19341
  8
01
 10
2373.028687507221
 20
-616.843240632048
 30
0.0
 11
2373.028687507221
 21
-594.8803893096208
 31
0.0
  0
LINE
  5
19342
  8
01
 10
2253.028687507221
 20
-594.8803893096208
 30
0.0
 11
2253.028687507221
 21
-616.8432406318603
 31
0.0
  0
LINE
  5
19343
  8
01
 10
2315.528687507221
 20
-618.312032731484
 30
0.0
 11
2315.528687507221
 21
-621.8803893096208
 31
0.0
  0
LINE
  5
19344
  8
01
 10
2311.028687507221
 20
-621.8803893096208
 30
0.0
 11
2311.028687507221
 21
-618.312596094701
 31
0.0
  0
LINE
  5
19345
  8
01
 10
2315.528687507221
 20
-622.2331399541953
 30
0.0
 11
2315.528687507221
 21
-622.018242695935
 31
0.0
  0
LINE
  5
19346
  8
01
 10
2315.528687507221
 20
-622.3803893096084
 30
0.0
 11
2315.528687507221
 21
-622.3427228126536
 31
0.0
  0
LINE
  5
19348
  8
01
 10
2311.028687507221
 20
-622.3427228126535
 30
0.0
 11
2311.028687507221
 21
-622.3803893096083
 31
0.0
  0
LINE
  5
19349
  8
01
 10
2311.028687507221
 20
-622.018242695935
 30
0.0
 11
2311.028687507221
 21
-622.2331399541952
 31
0.0
  0
LINE
  5
19351
  8
01
 10
2553.028687422925
 20
-622.8803893096207
 30
0.0
 11
2317.72868750722
 21
-622.8803893096209
 31
0.0
  0
LINE
  5
19358
  8
01
 10
2308.328687507221
 20
-622.8803893096209
 30
0.0
 11
2073.02868767581
 21
-622.8803893096207
 31
0.0
  0
ARC
  5
19359
  8
01
 10
2073.028690036036
 20
-629.880391838435
 30
0.0
 40
7.000002528814719
 50
90.00001931871314
 51
179.9999806813585
  0
LINE
  5
1935A
  8
01
 10
2066.028687507222
 20
-629.8803894782169
 30
0.0
 11
2066.028687507221
 21
-674.8803891410427
 31
0.0
  0
ARC
  5
1935B
  8
01
 10
2073.02869003603
 20
-674.8803867808115
 30
0.0
 40
7.000002528809489
 50
180.0000193187457
 51
269.999980681326
  0
LINE
  5
1935C
  8
01
 10
2073.028687675808
 20
-681.8803893096208
 30
0.0
 11
2553.028687422927
 21
-681.8803893096208
 31
0.0
  0
ARC
  5
1935D
  8
01
 10
2553.028686242816
 20
-674.880388045216
 30
0.0
 40
7.000001264404816
 50
270.0000096593436
 51
359.9999903405978
  0
LINE
  5
1935E
  8
01
 10
2560.028687507221
 20
-674.8803892253352
 30
0.0
 11
2560.028687507219
 21
-629.8803893939212
 31
0.0
  0
ARC
  5
1935F
  8
01
 10
2553.028686242813
 20
-629.8803905740276
 30
0.0
 40
7.000001264406691
 50
0.0000096592979534
 51
89.99999034064342
  0
ARC
  5
19360
  8
01
 10
2569.55020671297
 20
-534.1009885708086
 30
0.0
 40
17.82631017899753
 50
268.8031002928356
 51
1.198201640934968
  0
LINE
  5
19361
  8
01
 10
2038.684756017962
 20
-533.7278553799783
 30
0.0
 11
2038.684761723407
 21
-370.1161591097359
 31
0.0
  0
LINE
  5
19362
  8
01
 10
2569.177444038432
 20
-551.923391141463
 30
0.0
 11
2056.879930975996
 21
-551.9233911414514
 31
0.0
  0
LINE
  5
19363
  8
01
 10
2587.372613291021
 20
-370.1161591097358
 30
0.0
 11
2587.372618996453
 21
-533.7278553799786
 31
0.0
  0
LINE
  5
19364
  8
01
 10
2056.879931097601
 20
-351.920613502039
 30
0.0
 11
2569.177443916827
 21
-351.920613502039
 31
0.0
  0
ARC
  5
19365
  8
01
 10
2056.507171257253
 20
-534.1009873708932
 30
0.0
 40
17.82631310905423
 50
178.8018024135461
 51
271.1971646134268
  0
ARC
  5
19366
  8
01
 10
2056.507171257253
 20
-369.7430271195079
 30
0.0
 40
17.82631310905413
 50
88.80283538657318
 51
181.1981975864539
  0
ARC
  5
19367
  8
01
 10
2569.550203757176
 20
-369.7430271195067
 30
0.0
 40
17.82631310905345
 50
358.801802413546
 51
91.19716461342682
  0
LINE
  5
19438
  8
01
 10
2056.889759485888
 20
-355.9395302290164
 30
0.0
 11
2569.16761552854
 21
-355.9395302290163
 31
0.0
  0
LINE
  5
1943C
  8
01
 10
2583.353706410863
 20
-533.7183933790054
 30
0.0
 11
2583.353706410863
 21
-370.125621111396
 31
0.0
  0
LINE
  5
19489
  8
01
 10
2056.889759485889
 20
-547.9044842615392
 30
0.0
 11
2569.16761552854
 21
-547.9044842613588
 31
0.0
  0
LINE
  5
1948B
  8
01
 10
2042.703668603474
 20
-533.7183933790045
 30
0.0
 11
2042.703668603558
 21
-370.125621111396
 31
0.0
  0
ARC
  5
19492
  8
01
 10
2569.200306090231
 20
-533.7510839407262
 30
0.0
 40
14.15343807380055
 50
269.8676623396764
 51
0.1323376604408757
  0
ARC
  5
19493
  8
01
 10
2056.85706892434
 20
-533.7510839406737
 30
0.0
 40
14.15343807403317
 50
179.8676623397676
 51
270.1323376597504
  0
ARC
  5
19494
  8
01
 10
2056.85706892422
 20
-370.0929305496778
 30
0.0
 40
14.15343807382926
 50
89.86766233976759
 51
180.1323376604344
  0
ARC
  5
19495
  8
01
 10
2569.200306090206
 20
-370.092930549674
 30
0.0
 40
14.1534380738255
 50
359.8676623395527
 51
90.13233766021939
  0
LINE
  5
19496
  8
01
 10
2372.028687507214
 20
-341.264549132721
 30
0.0
 11
2373.028687507214
 21
-341.264549132721
 31
0.0
  0
LINE
  5
19497
  8
01
 10
2253.028687507214
 20
-341.2645491327208
 30
0.0
 11
2254.028687507214
 21
-341.2645491327212
 31
0.0
  0
LINE
  5
19498
  8
01
 10
2373.028687507214
 20
-341.264549132721
 30
0.0
 11
2373.028687507214
 21
-351.920613502039
 31
0.0
  0
LINE
  5
19499
  8
01
 10
2253.028687507214
 20
-341.2645491327208
 30
0.0
 11
2253.028687507214
 21
-351.920613502039
 31
0.0
  0
LINE
  5
1949A
  8
01
 10
2372.028687507214
 20
-341.264549132721
 30
0.0
 11
2254.028687507214
 21
-341.2645491327212
 31
0.0
  0
LINE
  5
19AB7
  8
01
 10
2675.012120010976
 20
-541.7292396071524
 30
0.0
 11
2675.012120010976
 21
-371.7140888843213
 31
0.0
  0
LINE
  5
19AB8
  8
01
 10
2675.012120010976
 20
-371.7140888843213
 30
0.0
 11
2675.012120010976
 21
-362.1139708629661
 31
0.0
  0
LINE
  5
19ABC
  8
01
 10
2667.801287438846
 20
-352.2638105751165
 30
0.0
 11
2667.672945908506
 21
-352.210490770787
 31
0.0
  0
LINE
  5
19ABD
  8
01
 10
2667.672945908506
 20
-352.210490770787
 30
0.0
 11
2667.543058611951
 21
-352.161055559276
 31
0.0
  0
LINE
  5
19ABE
  8
01
 10
2667.543058611951
 20
-352.161055559276
 30
0.0
 11
2667.411743095749
 21
-352.1155496789046
 31
0.0
  0
LINE
  5
19ABF
  8
01
 10
2667.411743095749
 20
-352.1155496789046
 30
0.0
 11
2667.279118198995
 21
-352.0740143119932
 31
0.0
  0
LINE
  5
19AC0
  8
01
 10
2667.279118198995
 20
-352.0740143119932
 30
0.0
 11
2667.145303945756
 21
-352.03648704759
 31
0.0
  0
LINE
  5
19AC1
  8
01
 10
2667.145303945756
 20
-352.03648704759
 30
0.0
 11
2667.032887542106
 21
-352.0085948987283
 31
0.0
  0
LINE
  5
19AC2
  8
01
 10
2667.032887542106
 20
-352.0085948987283
 30
0.0
 11
2666.919615260408
 21
-351.9844120540546
 31
0.0
  0
LINE
  5
19AC3
  8
01
 10
2666.919615260408
 20
-351.9844120540546
 30
0.0
 11
2666.805609458463
 21
-351.9639646361087
 31
0.0
  0
LINE
  5
19AC4
  8
01
 10
2666.805609458463
 20
-351.9639646361087
 30
0.0
 11
2666.690993286431
 21
-351.947274732387
 31
0.0
  0
LINE
  5
19AC5
  8
01
 10
2666.690993286431
 20
-351.947274732387
 30
0.0
 11
2666.575890553795
 21
-351.9343603714832
 31
0.0
  0
LINE
  5
19AC6
  8
01
 10
2666.575890553795
 20
-351.9343603714832
 30
0.0
 11
2666.46042559563
 21
-351.9252355036141
 31
0.0
  0
LINE
  5
19AC7
  8
01
 10
2666.46042559563
 20
-351.9252355036141
 30
0.0
 11
2666.373664145045
 21
-351.9211109941242
 31
0.0
  0
LINE
  5
19AC8
  8
01
 10
2666.373664145045
 20
-351.9211109941242
 30
0.0
 11
2666.286814434608
 21
-351.9198115006237
 31
0.0
  0
LINE
  5
19AC9
  8
01
 10
2666.286814434608
 20
-351.9198115006237
 30
0.0
 11
2666.199968424526
 21
-351.9213383990699
 31
0.0
  0
LINE
  5
19ACA
  8
01
 10
2666.199968424526
 20
-351.9213383990699
 30
0.0
 11
2666.113218071082
 21
-351.925690072719
 31
0.0
  0
LINE
  5
19ACB
  8
01
 10
2666.113218071082
 20
-351.925690072719
 30
0.0
 11
2666.026655229277
 21
-351.9328619138308
 31
0.0
  0
LINE
  5
19ACC
  8
01
 10
2666.026655229277
 20
-351.9328619138308
 30
0.0
 11
2665.940371555567
 21
-351.9428463285529
 31
0.0
  0
LINE
  5
19ACD
  8
01
 10
2665.940371555567
 20
-351.9428463285529
 30
0.0
 11
2665.854458410812
 21
-351.9556327449576
 31
0.0
  0
LINE
  5
19ACE
  8
01
 10
2665.854458410812
 20
-351.9556327449576
 30
0.0
 11
2665.769006763539
 21
-351.9712076242375
 31
0.0
  0
LINE
  5
19ACF
  8
01
 10
2665.769006763539
 20
-351.9712076242375
 30
0.0
 11
2665.701117809716
 21
-351.9858979910613
 31
0.0
  0
LINE
  5
19AD0
  8
01
 10
2665.701117809716
 20
-351.9858979910613
 30
0.0
 11
2665.633761394969
 21
-352.0028635538587
 31
0.0
  0
LINE
  5
19AD1
  8
01
 10
2665.633761394969
 20
-352.0028635538587
 30
0.0
 11
2665.567013746308
 21
-352.0220851127641
 31
0.0
  0
LINE
  5
19AD2
  8
01
 10
2665.567013746308
 20
-352.0220851127641
 30
0.0
 11
2665.500950401802
 21
-352.0435409148093
 31
0.0
  0
LINE
  5
19AD3
  8
01
 10
2665.500950401802
 20
-352.0435409148093
 30
0.0
 11
2665.4356461251
 21
-352.0672066785413
 31
0.0
  0
LINE
  5
19AD4
  8
01
 10
2665.4356461251
 20
-352.0672066785413
 30
0.0
 11
2665.371174820812
 21
-352.0930556215011
 31
0.0
  0
LINE
  5
19AD5
  8
01
 10
2665.371174820812
 20
-352.0930556215011
 30
0.0
 11
2665.307609450881
 21
-352.1210584905342
 31
0.0
  0
LINE
  5
19AD6
  8
01
 10
2665.307609450881
 20
-352.1210584905342
 30
0.0
 11
2665.245021952002
 21
-352.1511835948958
 31
0.0
  0
LINE
  5
19AD7
  8
01
 10
2665.245021952002
 20
-352.1511835948958
 30
0.0
 11
2665.183483154222
 21
-352.1833968421146
 31
0.0
  0
LINE
  5
19AD8
  8
01
 10
2665.183483154222
 20
-352.1833968421146
 30
0.0
 11
2665.123062700773
 21
-352.2176617765762
 31
0.0
  0
LINE
  5
19AD9
  8
01
 10
2665.123062700773
 20
-352.2176617765762
 30
0.0
 11
2665.074796926257
 21
-352.2467223697489
 31
0.0
  0
LINE
  5
19ADA
  8
01
 10
2665.074796926257
 20
-352.2467223697489
 30
0.0
 11
2665.027556835514
 21
-352.2774221562585
 31
0.0
  0
LINE
  5
19ADB
  8
01
 10
2665.027556835514
 20
-352.2774221562585
 30
0.0
 11
2664.981398075711
 21
-352.3097249728329
 31
0.0
  0
LINE
  5
19ADC
  8
01
 10
2664.981398075711
 20
-352.3097249728329
 30
0.0
 11
2664.936375020249
 21
-352.3435927678896
 31
0.0
  0
LINE
  5
19ADD
  8
01
 10
2664.936375020249
 20
-352.3435927678896
 30
0.0
 11
2664.892540704705
 21
-352.3789856463535
 31
0.0
  0
LINE
  5
19ADE
  8
01
 10
2664.892540704705
 20
-352.3789856463535
 30
0.0
 11
2664.849946764365
 21
-352.4158619166573
 31
0.0
  0
LINE
  5
19ADF
  8
01
 10
2664.849946764365
 20
-352.4158619166573
 30
0.0
 11
2664.808643373396
 21
-352.4541781398483
 31
0.0
  0
LINE
  5
19AE0
  8
01
 10
2664.808643373396
 20
-352.4541781398483
 30
0.0
 11
2664.768679185742
 21
-352.4938891807604
 31
0.0
  0
LINE
  5
19AE1
  8
01
 10
2664.768679185742
 20
-352.4938891807604
 30
0.0
 11
2664.730101277814
 21
-352.5349482611817
 31
0.0
  0
LINE
  5
19AE2
  8
01
 10
2664.730101277814
 20
-352.5349482611817
 30
0.0
 11
2664.692955093033
 21
-352.5773070149565
 31
0.0
  0
LINE
  5
19AE3
  8
01
 10
2664.692955093033
 20
-352.5773070149565
 30
0.0
 11
2664.6572843883
 21
-352.62091554496
 31
0.0
  0
LINE
  5
19AE4
  8
01
 10
2664.6572843883
 20
-352.62091554496
 30
0.0
 11
2664.623131182454
 21
-352.665722481874
 31
0.0
  0
LINE
  5
19AE5
  8
01
 10
2664.623131182454
 20
-352.665722481874
 30
0.0
 11
2664.590535706773
 21
-352.7116750447002
 31
0.0
  0
LINE
  5
19AE6
  8
01
 10
2664.590535706773
 20
-352.7116750447002
 30
0.0
 11
2664.559536357582
 21
-352.7587191029319
 31
0.0
  0
LINE
  5
19AE7
  8
01
 10
2664.559536357582
 20
-352.7587191029319
 30
0.0
 11
2664.530169651028
 21
-352.8067992403202
 31
0.0
  0
LINE
  5
19AE8
  8
01
 10
2664.530169651028
 20
-352.8067992403202
 30
0.0
 11
2664.502470180058
 21
-352.8558588201512
 31
0.0
  0
LINE
  5
19AE9
  8
01
 10
2664.502470180058
 20
-352.8558588201512
 30
0.0
 11
2664.476470573679
 21
-352.9058400519624
 31
0.0
  0
LINE
  5
19AEA
  8
01
 10
2664.476470573679
 20
-352.9058400519624
 30
0.0
 11
2664.452201458514
 21
-352.9566840596152
 31
0.0
  0
LINE
  5
19AEB
  8
01
 10
2664.452201458514
 20
-352.9566840596152
 30
0.0
 11
2664.429691422728
 21
-353.0083309506548
 31
0.0
  0
LINE
  5
19AEC
  8
01
 10
2664.429691422728
 20
-353.0083309506548
 30
0.0
 11
2664.408966982353
 21
-353.0607198868569
 31
0.0
  0
LINE
  5
19AED
  8
01
 10
2664.408966982353
 20
-353.0607198868569
 30
0.0
 11
2664.390052550053
 21
-353.1137891558918
 31
0.0
  0
LINE
  5
19AEE
  8
01
 10
2664.390052550053
 20
-353.1137891558918
 30
0.0
 11
2664.372970406365
 21
-353.1674762440247
 31
0.0
  0
LINE
  5
19AEF
  8
01
 10
2664.372970406365
 20
-353.1674762440247
 30
0.0
 11
2664.357740673455
 21
-353.2217179097501
 31
0.0
  0
LINE
  5
19AF0
  8
01
 10
2664.357740673455
 20
-353.2217179097501
 30
0.0
 11
2664.344381291414
 21
-353.2764502582894
 31
0.0
  0
LINE
  5
19AF1
  8
01
 10
2664.344381291414
 20
-353.2764502582894
 30
0.0
 11
2664.332907997124
 21
-353.331608816858
 31
0.0
  0
LINE
  5
19AF2
  8
01
 10
2664.332907997124
 20
-353.331608816858
 30
0.0
 11
2664.323334305724
 21
-353.3871286106086
 31
0.0
  0
LINE
  5
19AF3
  8
01
 10
2664.323334305724
 20
-353.3871286106086
 30
0.0
 11
2664.315671494685
 21
-353.4429442391737
 31
0.0
  0
LINE
  5
19AF4
  8
01
 10
2664.315671494685
 20
-353.4429442391737
 30
0.0
 11
2664.309928590532
 21
-353.498989953703
 31
0.0
  0
LINE
  5
19AF5
  8
01
 10
2664.309928590532
 20
-353.498989953703
 30
0.0
 11
2664.306112358202
 21
-353.5551997343103
 31
0.0
  0
LINE
  5
19AF6
  8
01
 10
2664.306112358202
 20
-353.5551997343103
 30
0.0
 11
2664.304227293083
 21
-353.6115073678487
 31
0.0
  0
LINE
  5
19AF7
  8
01
 10
2664.304227293083
 20
-353.6115073678487
 30
0.0
 11
2664.304275615717
 21
-353.6678465259014
 31
0.0
  0
LINE
  5
19B7B
  8
01
 10
2667.801287438846
 20
-551.579399895002
 30
0.0
 11
2667.672781506965
 21
-551.6327762165791
 31
0.0
  0
LINE
  5
19B7C
  8
01
 10
2667.672781506965
 20
-551.6327762165791
 30
0.0
 11
2667.542727688223
 21
-551.6822616736775
 31
0.0
  0
LINE
  5
19B7D
  8
01
 10
2667.542727688223
 20
-551.6822616736775
 30
0.0
 11
2667.411243758168
 21
-551.7278114527193
 31
0.0
  0
LINE
  5
19B7E
  8
01
 10
2667.411243758168
 20
-551.7278114527193
 30
0.0
 11
2667.278448787442
 21
-551.769384304242
 31
0.0
  0
LINE
  5
19B7F
  8
01
 10
2667.278448787442
 20
-551.769384304242
 30
0.0
 11
2667.144463033958
 21
-551.8069425802518
 31
0.0
  0
LINE
  5
19B80
  8
01
 10
2667.144463033958
 20
-551.8069425802518
 30
0.0
 11
2667.032092267589
 21
-551.8348108880494
 31
0.0
  0
LINE
  5
19B81
  8
01
 10
2667.032092267589
 20
-551.8348108880494
 30
0.0
 11
2666.91886544815
 21
-551.858967027509
 31
0.0
  0
LINE
  5
19B82
  8
01
 10
2666.91886544815
 20
-551.858967027509
 30
0.0
 11
2666.804905172164
 21
-551.8793848435301
 31
0.0
  0
LINE
  5
19B83
  8
01
 10
2666.804905172164
 20
-551.8793848435301
 30
0.0
 11
2666.690334830306
 21
-551.8960422286899
 31
0.0
  0
LINE
  5
19B84
  8
01
 10
2666.690334830306
 20
-551.8960422286899
 30
0.0
 11
2666.5752784738
 21
-551.9089211471777
 31
0.0
  0
LINE
  5
19B85
  8
01
 10
2666.5752784738
 20
-551.9089211471777
 30
0.0
 11
2666.459860680104
 21
-551.9180076543229
 31
0.0
  0
LINE
  5
19B86
  8
01
 10
2666.459860680104
 20
-551.9180076543229
 30
0.0
 11
2666.373079820589
 21
-551.9221122382354
 31
0.0
  0
LINE
  5
19B87
  8
01
 10
2666.373079820589
 20
-551.9221122382354
 30
0.0
 11
2666.286211359144
 21
-551.923391141463
 31
0.0
  0
LINE
  5
19B88
  8
01
 10
2666.286211359144
 20
-551.923391141463
 30
0.0
 11
2666.199347278675
 21
-551.9218430098052
 31
0.0
  0
LINE
  5
19B89
  8
01
 10
2666.199347278675
 20
-551.9218430098052
 30
0.0
 11
2666.11257955745
 21
-551.9174694825427
 31
0.0
  0
LINE
  5
19B8A
  8
01
 10
2666.11257955745
 20
-551.9174694825427
 30
0.0
 11
2666.026000071704
 21
-551.9102751906966
 31
0.0
  0
LINE
  5
19B8B
  8
01
 10
2666.026000071704
 20
-551.9102751906966
 30
0.0
 11
2665.939700498353
 21
-551.900267752127
 31
0.0
  0
LINE
  5
19B8C
  8
01
 10
2665.939700498353
 20
-551.900267752127
 30
0.0
 11
2665.853772217922
 21
-551.8874577634696
 31
0.0
  0
LINE
  5
19B8D
  8
01
 10
2665.853772217922
 20
-551.8874577634696
 30
0.0
 11
2665.768306217782
 21
-551.8718587889092
 31
0.0
  0
LINE
  5
19B8E
  8
01
 10
2665.768306217782
 20
-551.8718587889092
 30
0.0
 11
2665.700404678945
 21
-551.8571394290224
 31
0.0
  0
LINE
  5
19B8F
  8
01
 10
2665.700404678945
 20
-551.8571394290224
 30
0.0
 11
2665.633036752765
 21
-551.8401441045443
 31
0.0
  0
LINE
  5
19B90
  8
01
 10
2665.633036752765
 20
-551.8401441045443
 30
0.0
 11
2665.566278703614
 21
-551.82089205516
 31
0.0
  0
LINE
  5
19B91
  8
01
 10
2665.566278703614
 20
-551.82089205516
 30
0.0
 11
2665.500206105449
 21
-551.7994050752985
 31
0.0
  0
LINE
  5
19B92
  8
01
 10
2665.500206105449
 20
-551.7994050752985
 30
0.0
 11
2665.434893756255
 21
-551.7757074894583
 31
0.0
  0
LINE
  5
19B93
  8
01
 10
2665.434893756255
 20
-551.7757074894583
 30
0.0
 11
2665.370415593373
 21
-551.7498261246718
 31
0.0
  0
LINE
  5
19B94
  8
01
 10
2665.370415593373
 20
-551.7498261246718
 30
0.0
 11
2665.306844609796
 21
-551.7217902801343
 31
0.0
  0
LINE
  5
19B95
  8
01
 10
2665.306844609796
 20
-551.7217902801343
 30
0.0
 11
2665.244252771538
 21
-551.6916316940354
 31
0.0
  0
LINE
  5
19B96
  8
01
 10
2665.244252771538
 20
-551.6916316940354
 30
0.0
 11
2665.182710936167
 21
-551.6593845076321
 31
0.0
  0
LINE
  5
19B97
  8
01
 10
2665.182710936167
 20
-551.6593845076321
 30
0.0
 11
2665.122288772581
 21
-551.6250852265961
 31
0.0
  0
LINE
  5
19B98
  8
01
 10
2665.122288772581
 20
-551.6250852265961
 30
0.0
 11
2665.074041970911
 21
-551.5959983570864
 31
0.0
  0
LINE
  5
19B99
  8
01
 10
2665.074041970911
 20
-551.5959983570864
 30
0.0
 11
2665.026821641527
 21
-551.5652731175904
 31
0.0
  0
LINE
  5
19B9A
  8
01
 10
2665.026821641527
 20
-551.5652731175904
 30
0.0
 11
2664.980683397559
 21
-551.5329456943595
 31
0.0
  0
LINE
  5
19B9B
  8
01
 10
2664.980683397559
 20
-551.5329456943595
 30
0.0
 11
2664.935681577724
 21
-551.4990541605974
 31
0.0
  0
LINE
  5
19B9C
  8
01
 10
2664.935681577724
 20
-551.4990541605974
 30
0.0
 11
2664.891869182331
 21
-551.4636384316171
 31
0.0
  0
LINE
  5
19B9D
  8
01
 10
2664.891869182331
 20
-551.4636384316171
 30
0.0
 11
2664.849297810861
 21
-551.4267402178347
 31
0.0
  0
LINE
  5
19B9E
  8
01
 10
2664.849297810861
 20
-551.4267402178347
 30
0.0
 11
2664.808017601193
 21
-551.3884029756408
 31
0.0
  0
LINE
  5
19B9F
  8
01
 10
2664.808017601193
 20
-551.3884029756408
 30
0.0
 11
2664.768077170558
 21
-551.3486718562257
 31
0.0
  0
LINE
  5
19BA0
  8
01
 10
2664.768077170558
 20
-551.3486718562257
 30
0.0
 11
2664.729523558281
 21
-551.3075936523995
 31
0.0
  0
LINE
  5
19BA1
  8
01
 10
2664.729523558281
 20
-551.3075936523995
 30
0.0
 11
2664.692402170376
 21
-551.2652167434838
 31
0.0
  0
LINE
  5
19BA2
  8
01
 10
2664.692402170376
 20
-551.2652167434838
 30
0.0
 11
2664.656756726078
 21
-551.2215910383319
 31
0.0
  0
LINE
  5
19BA3
  8
01
 10
2664.656756726078
 20
-551.2215910383319
 30
0.0
 11
2664.622629206345
 21
-551.1767679165517
 31
0.0
  0
LINE
  5
19BA4
  8
01
 10
2664.622629206345
 20
-551.1767679165517
 30
0.0
 11
2664.59005980442
 21
-551.1308001679939
 31
0.0
  0
LINE
  5
19BA5
  8
01
 10
2664.59005980442
 20
-551.1308001679939
 30
0.0
 11
2664.559086878494
 21
-551.0837419305766
 31
0.0
  0
LINE
  5
19BA6
  8
01
 10
2664.559086878494
 20
-551.0837419305766
 30
0.0
 11
2664.529746906528
 21
-551.0356486265281
 31
0.0
  0
LINE
  5
19BA7
  8
01
 10
2664.529746906528
 20
-551.0356486265281
 30
0.0
 11
2664.502074443294
 21
-550.9865768971134
 31
0.0
  0
LINE
  5
19BA8
  8
01
 10
2664.502074443294
 20
-550.9865768971134
 30
0.0
 11
2664.476102079675
 21
-550.9365845359242
 31
0.0
  0
LINE
  5
19BA9
  8
01
 10
2664.476102079675
 20
-550.9365845359242
 30
0.0
 11
2664.451860404285
 21
-550.8857304208149
 31
0.0
  0
LINE
  5
19BAA
  8
01
 10
2664.451860404285
 20
-550.8857304208149
 30
0.0
 11
2664.429377967443
 21
-550.8340744445594
 31
0.0
  0
LINE
  5
19BAB
  8
01
 10
2664.429377967443
 20
-550.8340744445594
 30
0.0
 11
2664.408681247547
 21
-550.7816774443135
 31
0.0
  0
LINE
  5
19BAC
  8
01
 10
2664.408681247547
 20
-550.7816774443135
 30
0.0
 11
2664.389794619891
 21
-550.7286011299633
 31
0.0
  0
LINE
  5
19BAD
  8
01
 10
2664.389794619891
 20
-550.7286011299633
 30
0.0
 11
2664.372740327954
 21
-550.6749080114495
 31
0.0
  0
LINE
  5
19BAE
  8
01
 10
2664.372740327954
 20
-550.6749080114495
 30
0.0
 11
2664.357538457208
 21
-550.6206613251446
 31
0.0
  0
LINE
  5
19BAF
  8
01
 10
2664.357538457208
 20
-550.6206613251446
 30
0.0
 11
2664.344206911459
 21
-550.5659249593795
 31
0.0
  0
LINE
  5
19BB0
  8
01
 10
2664.344206911459
 20
-550.5659249593795
 30
0.0
 11
2664.33276139176
 21
-550.5107633791985
 31
0.0
  0
LINE
  5
19BB1
  8
01
 10
2664.33276139176
 20
-550.5107633791985
 30
0.0
 11
2664.323215377926
 21
-550.4552415504357
 31
0.0
  0
LINE
  5
19BB2
  8
01
 10
2664.323215377926
 20
-550.4552415504357
 30
0.0
 11
2664.315580112649
 21
-550.3994248632056
 31
0.0
  0
LINE
  5
19BB3
  8
01
 10
2664.315580112649
 20
-550.3994248632056
 30
0.0
 11
2664.309864588264
 21
-550.343379054886
 31
0.0
  0
LINE
  5
19BB4
  8
01
 10
2664.309864588264
 20
-550.343379054886
 30
0.0
 11
2664.306075536156
 21
-550.2871701326993
 31
0.0
  0
LINE
  5
19BB5
  8
01
 10
2664.306075536156
 20
-550.2871701326993
 30
0.0
 11
2664.304217418832
 21
-550.2308642959746
 31
0.0
  0
LINE
  5
19BD6
  8
01
 10
2675.012120010976
 20
-541.7292396071524
 30
0.0
 11
2675.010055339496
 21
-541.9614750273566
 31
0.0
  0
LINE
  5
19BD7
  8
01
 10
2675.010055339496
 20
-541.9614750273566
 30
0.0
 11
2675.003880640251
 21
-542.1907953536855
 31
0.0
  0
LINE
  5
19BD8
  8
01
 10
2675.003880640251
 20
-542.1907953536855
 30
0.0
 11
2674.993624886032
 21
-542.4172213216096
 31
0.0
  0
LINE
  5
19BD9
  8
01
 10
2674.993624886032
 20
-542.4172213216096
 30
0.0
 11
2674.97931704963
 21
-542.6407736665996
 31
0.0
  0
LINE
  5
19BDA
  8
01
 10
2674.97931704963
 20
-542.6407736665996
 30
0.0
 11
2674.960986103836
 21
-542.8614731241258
 31
0.0
  0
LINE
  5
19BDB
  8
01
 10
2674.960986103836
 20
-542.8614731241258
 30
0.0
 11
2674.938661021442
 21
-543.07934042966
 31
0.0
  0
LINE
  5
19BDC
  8
01
 10
2674.938661021442
 20
-543.07934042966
 30
0.0
 11
2674.912370775239
 21
-543.2943963186716
 31
0.0
  0
LINE
  5
19BDD
  8
01
 10
2674.912370775239
 20
-543.2943963186716
 30
0.0
 11
2674.882144338019
 21
-543.5066615266322
 31
0.0
  0
LINE
  5
19BDE
  8
01
 10
2674.882144338019
 20
-543.5066615266322
 30
0.0
 11
2674.848010682573
 21
-543.716156789012
 31
0.0
  0
LINE
  5
19BDF
  8
01
 10
2674.848010682573
 20
-543.716156789012
 30
0.0
 11
2674.809998781692
 21
-543.9229028412809
 31
0.0
  0
LINE
  5
19BE0
  8
01
 10
2674.809998781692
 20
-543.9229028412809
 30
0.0
 11
2674.768137608167
 21
-544.1269204189101
 31
0.0
  0
LINE
  5
19BE1
  8
01
 10
2674.768137608167
 20
-544.1269204189101
 30
0.0
 11
2674.72245613479
 21
-544.3282302573706
 31
0.0
  0
LINE
  5
19BE2
  8
01
 10
2674.72245613479
 20
-544.3282302573706
 30
0.0
 11
2674.672983334352
 21
-544.526853092132
 31
0.0
  0
LINE
  5
19BE3
  8
01
 10
2674.672983334352
 20
-544.526853092132
 30
0.0
 11
2674.619748179645
 21
-544.7228096586658
 31
0.0
  0
LINE
  5
19BE4
  8
01
 10
2674.619748179645
 20
-544.7228096586658
 30
0.0
 11
2674.56277964346
 21
-544.9161206924422
 31
0.0
  0
LINE
  5
19BE5
  8
01
 10
2674.56277964346
 20
-544.9161206924422
 30
0.0
 11
2674.502106698587
 21
-545.1068069289316
 31
0.0
  0
LINE
  5
19BE6
  8
01
 10
2674.502106698587
 20
-545.1068069289316
 30
0.0
 11
2674.437758317819
 21
-545.2948891036052
 31
0.0
  0
LINE
  5
19BE7
  8
01
 10
2674.437758317819
 20
-545.2948891036052
 30
0.0
 11
2674.369763473946
 21
-545.480387951933
 31
0.0
  0
LINE
  5
19BE8
  8
01
 10
2674.369763473946
 20
-545.480387951933
 30
0.0
 11
2674.298151139762
 21
-545.6633242093857
 31
0.0
  0
LINE
  5
19BE9
  8
01
 10
2674.298151139762
 20
-545.6633242093857
 30
0.0
 11
2674.222950288055
 21
-545.8437186114342
 31
0.0
  0
LINE
  5
19BEA
  8
01
 10
2674.222950288055
 20
-545.8437186114342
 30
0.0
 11
2674.144189891617
 21
-546.021591893549
 31
0.0
  0
LINE
  5
19BEB
  8
01
 10
2674.144189891617
 20
-546.021591893549
 30
0.0
 11
2674.061898923241
 21
-546.1969647912014
 31
0.0
  0
LINE
  5
19BEC
  8
01
 10
2674.061898923241
 20
-546.1969647912014
 30
0.0
 11
2673.976106355718
 21
-546.3698580398608
 31
0.0
  0
LINE
  5
19BED
  8
01
 10
2673.976106355718
 20
-546.3698580398608
 30
0.0
 11
2673.886841161837
 21
-546.5402923749979
 31
0.0
  0
LINE
  5
19BEE
  8
01
 10
2673.886841161837
 20
-546.5402923749979
 30
0.0
 11
2673.794132314392
 21
-546.7082885320837
 31
0.0
  0
LINE
  5
19BEF
  8
01
 10
2673.794132314392
 20
-546.7082885320837
 30
0.0
 11
2673.698008786174
 21
-546.8738672465892
 31
0.0
  0
LINE
  5
19BF0
  8
01
 10
2673.698008786174
 20
-546.8738672465892
 30
0.0
 11
2673.598499549973
 21
-547.0370492539845
 31
0.0
  0
LINE
  5
19BF1
  8
01
 10
2673.598499549973
 20
-547.0370492539845
 30
0.0
 11
2673.495633578581
 21
-547.1978552897398
 31
0.0
  0
LINE
  5
19BF2
  8
01
 10
2673.495633578581
 20
-547.1978552897398
 30
0.0
 11
2673.389439844788
 21
-547.3563060893265
 31
0.0
  0
LINE
  5
19BF3
  8
01
 10
2673.389439844788
 20
-547.3563060893265
 30
0.0
 11
2673.279947321388
 21
-547.5124223882148
 31
0.0
  0
LINE
  5
19BF4
  8
01
 10
2673.279947321388
 20
-547.5124223882148
 30
0.0
 11
2673.167184981171
 21
-547.6662249218751
 31
0.0
  0
LINE
  5
19BF5
  8
01
 10
2673.167184981171
 20
-547.6662249218751
 30
0.0
 11
2673.051181796928
 21
-547.8177344257787
 31
0.0
  0
LINE
  5
19BF6
  8
01
 10
2673.051181796928
 20
-547.8177344257787
 30
0.0
 11
2672.931966741451
 21
-547.9669716353955
 31
0.0
  0
LINE
  5
19BF7
  8
01
 10
2672.931966741451
 20
-547.9669716353955
 30
0.0
 11
2672.80956878753
 21
-548.1139572861965
 31
0.0
  0
LINE
  5
19BF8
  8
01
 10
2672.80956878753
 20
-548.1139572861965
 30
0.0
 11
2672.684016907958
 21
-548.258712113652
 31
0.0
  0
LINE
  5
19BF9
  8
01
 10
2672.684016907958
 20
-548.258712113652
 30
0.0
 11
2672.555340075525
 21
-548.4012568532333
 31
0.0
  0
LINE
  5
19BFA
  8
01
 10
2672.555340075525
 20
-548.4012568532333
 30
0.0
 11
2672.423567263023
 21
-548.5416122404098
 31
0.0
  0
LINE
  5
19BFB
  8
01
 10
2672.423567263023
 20
-548.5416122404098
 30
0.0
 11
2672.288727443244
 21
-548.6797990106533
 31
0.0
  0
LINE
  5
19BFC
  8
01
 10
2672.288727443244
 20
-548.6797990106533
 30
0.0
 11
2672.150849588978
 21
-548.8158378994339
 31
0.0
  0
LINE
  5
19BFD
  8
01
 10
2672.150849588978
 20
-548.8158378994339
 30
0.0
 11
2672.009962673016
 21
-548.9497496422217
 31
0.0
  0
LINE
  5
19BFE
  8
01
 10
2672.009962673016
 20
-548.9497496422217
 30
0.0
 11
2671.866095668152
 21
-549.0815549744883
 31
0.0
  0
LINE
  5
19BFF
  8
01
 10
2671.866095668152
 20
-549.0815549744883
 30
0.0
 11
2671.719277547174
 21
-549.2112746317033
 31
0.0
  0
LINE
  5
19C00
  8
01
 10
2671.719277547174
 20
-549.2112746317033
 30
0.0
 11
2671.416903848046
 21
-549.4645398628626
 31
0.0
  0
LINE
  5
19C01
  8
01
 10
2671.416903848046
 20
-549.4645398628626
 30
0.0
 11
2671.103073357965
 21
-549.709711219465
 31
0.0
  0
LINE
  5
19C02
  8
01
 10
2671.103073357965
 20
-549.709711219465
 30
0.0
 11
2670.77801785926
 21
-549.9469545852752
 31
0.0
  0
LINE
  5
19C03
  8
01
 10
2670.77801785926
 20
-549.9469545852752
 30
0.0
 11
2670.441969134262
 21
-550.1764358440577
 31
0.0
  0
LINE
  5
19C04
  8
01
 10
2670.441969134262
 20
-550.1764358440577
 30
0.0
 11
2670.095158965302
 21
-550.3983208795761
 31
0.0
  0
LINE
  5
19C05
  8
01
 10
2670.095158965302
 20
-550.3983208795761
 30
0.0
 11
2669.737819134711
 21
-550.6127755755973
 31
0.0
  0
LINE
  5
19C06
  8
01
 10
2669.737819134711
 20
-550.6127755755973
 30
0.0
 11
2669.370181424817
 21
-550.8199658158854
 31
0.0
  0
LINE
  5
19C07
  8
01
 10
2669.370181424817
 20
-550.8199658158854
 30
0.0
 11
2668.992477617954
 21
-551.020057484205
 31
0.0
  0
LINE
  5
19C08
  8
01
 10
2668.992477617954
 20
-551.020057484205
 30
0.0
 11
2668.60493949645
 21
-551.2132164643216
 31
0.0
  0
LINE
  5
19C09
  8
01
 10
2668.60493949645
 20
-551.2132164643216
 30
0.0
 11
2668.207798842637
 21
-551.3996086399987
 31
0.0
  0
LINE
  5
19C0A
  8
01
 10
2668.207798842637
 20
-551.3996086399987
 30
0.0
 11
2667.801287438846
 21
-551.579399895002
 31
0.0
  0
LINE
  5
19C0F
  8
01
 10
2675.012120010976
 20
-362.1139708629661
 30
0.0
 11
2675.010055339496
 21
-361.8817354427619
 31
0.0
  0
LINE
  5
19C10
  8
01
 10
2675.010055339496
 20
-361.8817354427619
 30
0.0
 11
2675.003880640251
 21
-361.652415116433
 31
0.0
  0
LINE
  5
19C11
  8
01
 10
2675.003880640251
 20
-361.652415116433
 30
0.0
 11
2674.993624886032
 21
-361.4259891485088
 31
0.0
  0
LINE
  5
19C12
  8
01
 10
2674.993624886032
 20
-361.4259891485088
 30
0.0
 11
2674.97931704963
 21
-361.2024368035189
 31
0.0
  0
LINE
  5
19C13
  8
01
 10
2674.97931704963
 20
-361.2024368035189
 30
0.0
 11
2674.960986103836
 21
-360.9817373459927
 31
0.0
  0
LINE
  5
19C14
  8
01
 10
2674.960986103836
 20
-360.9817373459927
 30
0.0
 11
2674.938661021442
 21
-360.7638700404585
 31
0.0
  0
LINE
  5
19C15
  8
01
 10
2674.938661021442
 20
-360.7638700404585
 30
0.0
 11
2674.91237077524
 21
-360.5488141514469
 31
0.0
  0
LINE
  5
19C16
  8
01
 10
2674.91237077524
 20
-360.5488141514469
 30
0.0
 11
2674.882144338019
 21
-360.3365489434863
 31
0.0
  0
LINE
  5
19C17
  8
01
 10
2674.882144338019
 20
-360.3365489434863
 30
0.0
 11
2674.848010682573
 21
-360.1270536811065
 31
0.0
  0
LINE
  5
19C18
  8
01
 10
2674.848010682573
 20
-360.1270536811065
 30
0.0
 11
2674.809998781692
 21
-359.9203076288376
 31
0.0
  0
LINE
  5
19C19
  8
01
 10
2674.809998781692
 20
-359.9203076288376
 30
0.0
 11
2674.768137608167
 21
-359.7162900512084
 31
0.0
  0
LINE
  5
19C1A
  8
01
 10
2674.768137608167
 20
-359.7162900512084
 30
0.0
 11
2674.72245613479
 21
-359.5149802127479
 31
0.0
  0
LINE
  5
19C1B
  8
01
 10
2674.72245613479
 20
-359.5149802127479
 30
0.0
 11
2674.672983334352
 21
-359.3163573779865
 31
0.0
  0
LINE
  5
19C1C
  8
01
 10
2674.672983334352
 20
-359.3163573779865
 30
0.0
 11
2674.619748179645
 21
-359.1204008114527
 31
0.0
  0
LINE
  5
19C1D
  8
01
 10
2674.619748179645
 20
-359.1204008114527
 30
0.0
 11
2674.56277964346
 21
-358.9270897776763
 31
0.0
  0
LINE
  5
19C1E
  8
01
 10
2674.56277964346
 20
-358.9270897776763
 30
0.0
 11
2674.502106698587
 21
-358.7364035411869
 31
0.0
  0
LINE
  5
19C1F
  8
01
 10
2674.502106698587
 20
-358.7364035411869
 30
0.0
 11
2674.437758317819
 21
-358.5483213665133
 31
0.0
  0
LINE
  5
19C20
  8
01
 10
2674.437758317819
 20
-358.5483213665133
 30
0.0
 11
2674.369763473947
 21
-358.3628225181855
 31
0.0
  0
LINE
  5
19C21
  8
01
 10
2674.369763473947
 20
-358.3628225181855
 30
0.0
 11
2674.298151139762
 21
-358.1798862607328
 31
0.0
  0
LINE
  5
19C22
  8
01
 10
2674.298151139762
 20
-358.1798862607328
 30
0.0
 11
2674.222950288055
 21
-357.9994918586843
 31
0.0
  0
LINE
  5
19C23
  8
01
 10
2674.222950288055
 20
-357.9994918586843
 30
0.0
 11
2674.144189891617
 21
-357.8216185765694
 31
0.0
  0
LINE
  5
19C24
  8
01
 10
2674.144189891617
 20
-357.8216185765694
 30
0.0
 11
2674.061898923242
 21
-357.6462456789171
 31
0.0
  0
LINE
  5
19C25
  8
01
 10
2674.061898923242
 20
-357.6462456789171
 30
0.0
 11
2673.976106355718
 21
-357.4733524302577
 31
0.0
  0
LINE
  5
19C26
  8
01
 10
2673.976106355718
 20
-357.4733524302577
 30
0.0
 11
2673.886841161838
 21
-357.3029180951206
 31
0.0
  0
LINE
  5
19C27
  8
01
 10
2673.886841161838
 20
-357.3029180951206
 30
0.0
 11
2673.794132314392
 21
-357.1349219380348
 31
0.0
  0
LINE
  5
19C28
  8
01
 10
2673.794132314392
 20
-357.1349219380348
 30
0.0
 11
2673.698008786174
 21
-356.9693432235293
 31
0.0
  0
LINE
  5
19C29
  8
01
 10
2673.698008786174
 20
-356.9693432235293
 30
0.0
 11
2673.598499549973
 21
-356.806161216134
 31
0.0
  0
LINE
  5
19C2A
  8
01
 10
2673.598499549973
 20
-356.806161216134
 30
0.0
 11
2673.495633578581
 21
-356.6453551803787
 31
0.0
  0
LINE
  5
19C2B
  8
01
 10
2673.495633578581
 20
-356.6453551803787
 30
0.0
 11
2673.389439844789
 21
-356.486904380792
 31
0.0
  0
LINE
  5
19C2C
  8
01
 10
2673.389439844789
 20
-356.486904380792
 30
0.0
 11
2673.279947321389
 21
-356.3307880819037
 31
0.0
  0
LINE
  5
19C2D
  8
01
 10
2673.279947321389
 20
-356.3307880819037
 30
0.0
 11
2673.167184981171
 21
-356.1769855482434
 31
0.0
  0
LINE
  5
19C2E
  8
01
 10
2673.167184981171
 20
-356.1769855482434
 30
0.0
 11
2673.051181796928
 21
-356.0254760443398
 31
0.0
  0
LINE
  5
19C2F
  8
01
 10
2673.051181796928
 20
-356.0254760443398
 30
0.0
 11
2672.931966741451
 21
-355.876238834723
 31
0.0
  0
LINE
  5
19C30
  8
01
 10
2672.931966741451
 20
-355.876238834723
 30
0.0
 11
2672.80956878753
 21
-355.729253183922
 31
0.0
  0
LINE
  5
19C31
  8
01
 10
2672.80956878753
 20
-355.729253183922
 30
0.0
 11
2672.684016907958
 21
-355.5844983564665
 31
0.0
  0
LINE
  5
19C32
  8
01
 10
2672.684016907958
 20
-355.5844983564665
 30
0.0
 11
2672.555340075525
 21
-355.4419536168851
 31
0.0
  0
LINE
  5
19C33
  8
01
 10
2672.555340075525
 20
-355.4419536168851
 30
0.0
 11
2672.423567263023
 21
-355.3015982297087
 31
0.0
  0
LINE
  5
19C34
  8
01
 10
2672.423567263023
 20
-355.3015982297087
 30
0.0
 11
2672.288727443244
 21
-355.1634114594652
 31
0.0
  0
LINE
  5
19C35
  8
01
 10
2672.288727443244
 20
-355.1634114594652
 30
0.0
 11
2672.150849588978
 21
-355.0273725706846
 31
0.0
  0
LINE
  5
19C36
  8
01
 10
2672.150849588978
 20
-355.0273725706846
 30
0.0
 11
2672.009962673017
 21
-354.8934608278968
 31
0.0
  0
LINE
  5
19C37
  8
01
 10
2672.009962673017
 20
-354.8934608278968
 30
0.0
 11
2671.866095668152
 21
-354.7616554956302
 31
0.0
  0
LINE
  5
19C38
  8
01
 10
2671.866095668152
 20
-354.7616554956302
 30
0.0
 11
2671.719277547174
 21
-354.6319358384152
 31
0.0
  0
LINE
  5
19C39
  8
01
 10
2671.719277547174
 20
-354.6319358384152
 30
0.0
 11
2671.416903848047
 21
-354.3786706072559
 31
0.0
  0
LINE
  5
19C3A
  8
01
 10
2671.416903848047
 20
-354.3786706072559
 30
0.0
 11
2671.103073357966
 21
-354.1334992506535
 31
0.0
  0
LINE
  5
19C3B
  8
01
 10
2671.103073357966
 20
-354.1334992506535
 30
0.0
 11
2670.77801785926
 21
-353.8962558848433
 31
0.0
  0
LINE
  5
19C3C
  8
01
 10
2670.77801785926
 20
-353.8962558848433
 30
0.0
 11
2670.441969134263
 21
-353.6667746260608
 31
0.0
  0
LINE
  5
19C3D
  8
01
 10
2670.441969134263
 20
-353.6667746260608
 30
0.0
 11
2670.095158965302
 21
-353.4448895905424
 31
0.0
  0
LINE
  5
19C3E
  8
01
 10
2670.095158965302
 20
-353.4448895905424
 30
0.0
 11
2669.737819134711
 21
-353.2304348945212
 31
0.0
  0
LINE
  5
19C3F
  8
01
 10
2669.737819134711
 20
-353.2304348945212
 30
0.0
 11
2669.370181424817
 21
-353.0232446542331
 31
0.0
  0
LINE
  5
19C40
  8
01
 10
2669.370181424817
 20
-353.0232446542331
 30
0.0
 11
2668.992477617954
 21
-352.8231529859135
 31
0.0
  0
LINE
  5
19C41
  8
01
 10
2668.992477617954
 20
-352.8231529859135
 30
0.0
 11
2668.60493949645
 21
-352.6299940057969
 31
0.0
  0
LINE
  5
19C42
  8
01
 10
2668.60493949645
 20
-352.6299940057969
 30
0.0
 11
2668.207798842637
 21
-352.4436018301197
 31
0.0
  0
LINE
  5
19C43
  8
01
 10
2668.207798842637
 20
-352.4436018301197
 30
0.0
 11
2667.801287438846
 21
-352.2638105751165
 31
0.0
  0
LINE
  5
19C47
  8
01
 10
2678.012120010976
 20
-341.2641471225796
 30
0.0
 11
2667.801287438846
 21
-341.2641471225796
 31
0.0
  0
LINE
  5
19C48
  8
01
 10
2678.012120010976
 20
-341.2641471225796
 30
0.0
 11
2678.262120010972
 21
-341.2641471225796
 31
0.0
  0
LINE
  5
19C49
  8
01
 10
2703.012120010976
 20
-341.2641471225796
 30
0.0
 11
2700.012120010976
 21
-341.2641471225796
 31
0.0
  0
LINE
  5
19C4C
  8
01
 10
2675.012120010976
 20
-402.2641471225796
 30
0.0
 11
2702.012120010976
 21
-402.2641471225796
 31
0.0
  0
LINE
  5
19C4D
  8
01
 10
2703.012120010976
 20
-401.2641471225796
 30
0.0
 11
2703.012120010976
 21
-341.2641471225796
 31
0.0
  0
LINE
  5
19C4E
  8
01
 10
2667.801287438846
 20
-341.2641471225796
 30
0.0
 11
2667.801287438846
 21
-352.2638105751165
 31
0.0
  0
ARC
  5
19C52
  8
01
 10
2702.01211984239
 20
-401.2641469539934
 30
0.0
 40
1.000000168586226
 50
270.0000096592784
 51
359.9999903407216
  0
LINE
  5
19C55
  8
01
 10
2681.762120010976
 20
-341.2641471225796
 30
0.0
 11
2678.262120010976
 21
-341.2641471225796
 31
0.0
  0
LINE
  5
19C58
  8
01
 10
2700.012120010976
 20
-341.2641471225796
 30
0.0
 11
2686.262120010976
 21
-341.2641471225796
 31
0.0
  0
LINE
  5
19C65
  8
01
 10
2675.012120010976
 20
-402.2043458698462
 30
0.0
 11
2697.553650408575
 21
-402.2043458697689
 31
0.0
  0
LINE
  5
19C6A
  8
01
 10
2698.444326795959
 20
-422.2043458698466
 30
0.0
 11
2698.698387365483
 21
-422.2043458698466
 31
0.0
  0
LINE
  5
19C6F
  8
01
 10
2675.012120010976
 20
-422.2043458698466
 30
0.0
 11
2697.553547652558
 21
-422.2043458698466
 31
0.0
  0
ARC
  5
19C70
  8
01
 10
2697.553450054605
 20
-421.9043044287708
 30
0.0
 40
0.3000415277773418
 50
270.2355860214542
 51
43.84673540419697
  0
ARC
  5
19C9F
  8
01
 10
2697.553426206777
 20
-402.5044410855252
 30
0.0
 40
0.3000953493577608
 50
316.1034875553537
 51
89.89082275114586
  0
LINE
  5
19CA0
  8
01
 10
2755.012119842398
 20
-422.2043458698466
 30
0.0
 11
2762.92849100286
 21
-422.2043458698466
 31
0.0
  0
LINE
  5
19CA1
  8
01
 10
2755.012119842398
 20
-402.2043457496092
 30
0.0
 11
2762.92849100286
 21
-402.2043457496092
 31
0.0
  0
LINE
  5
19CA2
  8
01
 10
2710.012120179572
 20
-422.2043458698466
 30
0.0
 11
2755.012119842398
 21
-422.2043458698466
 31
0.0
  0
LINE
  5
19CA3
  8
01
 10
2710.012120179572
 20
-402.2043457496092
 30
0.0
 11
2755.012119842398
 21
-402.2043457496092
 31
0.0
  0
LINE
  5
19CA4
  8
01
 10
2702.111536833983
 20
-422.2043458698466
 30
0.0
 11
2710.012120179572
 21
-422.2043458698466
 31
0.0
  0
LINE
  5
19CA5
  8
01
 10
2702.379068989862
 20
-402.2043457496092
 30
0.0
 11
2710.012120179572
 21
-402.2043457496092
 31
0.0
  0
LINE
  5
19CA8
  8
01
 10
2766.994596110386
 20
-402.4608531347002
 30
0.0
 11
2767.088157005876
 21
-402.5472423771142
 31
0.0
  0
LINE
  5
19CA9
  8
01
 10
2767.088157005876
 20
-402.5472423771142
 30
0.0
 11
2767.180244501819
 21
-402.6367427742729
 31
0.0
  0
LINE
  5
19CAA
  8
01
 10
2767.180244501819
 20
-402.6367427742729
 30
0.0
 11
2767.270858598206
 21
-402.7293049427871
 31
0.0
  0
LINE
  5
19CAB
  8
01
 10
2767.270858598206
 20
-402.7293049427871
 30
0.0
 11
2767.359999295032
 21
-402.8248794992691
 31
0.0
  0
LINE
  5
19CAC
  8
01
 10
2767.359999295032
 20
-402.8248794992691
 30
0.0
 11
2767.44766659229
 21
-402.9234170603303
 31
0.0
  0
LINE
  5
19CAD
  8
01
 10
2767.44766659229
 20
-402.9234170603303
 30
0.0
 11
2767.533860489972
 21
-403.0248682425826
 31
0.0
  0
LINE
  5
19CAE
  8
01
 10
2767.533860489972
 20
-403.0248682425826
 30
0.0
 11
2767.618580988073
 21
-403.1291836626373
 31
0.0
  0
LINE
  5
19CAF
  8
01
 10
2767.618580988073
 20
-403.1291836626373
 30
0.0
 11
2767.701828086584
 21
-403.2363139371072
 31
0.0
  0
LINE
  5
19CB0
  8
01
 10
2767.701828086584
 20
-403.2363139371072
 30
0.0
 11
2767.783601785501
 21
-403.3462096826037
 31
0.0
  0
LINE
  5
19CB1
  8
01
 10
2767.783601785501
 20
-403.3462096826037
 30
0.0
 11
2767.863902084815
 21
-403.4588215157381
 31
0.0
  0
LINE
  5
19CB2
  8
01
 10
2767.863902084815
 20
-403.4588215157381
 30
0.0
 11
2767.94272898452
 21
-403.5741000531233
 31
0.0
  0
LINE
  5
19CB3
  8
01
 10
2767.94272898452
 20
-403.5741000531233
 30
0.0
 11
2768.020082484609
 21
-403.6919959113706
 31
0.0
  0
LINE
  5
19CB4
  8
01
 10
2768.020082484609
 20
-403.6919959113706
 30
0.0
 11
2768.095962585076
 21
-403.8124597070918
 31
0.0
  0
LINE
  5
19CB5
  8
01
 10
2768.095962585076
 20
-403.8124597070918
 30
0.0
 11
2768.170369285915
 21
-403.9354420568983
 31
0.0
  0
LINE
  5
19CB6
  8
01
 10
2768.170369285915
 20
-403.9354420568983
 30
0.0
 11
2768.314762488676
 21
-404.1887648852161
 31
0.0
  0
LINE
  5
19CB7
  8
01
 10
2768.314762488676
 20
-404.1887648852161
 30
0.0
 11
2768.453262092838
 21
-404.4515693292182
 31
0.0
  0
LINE
  5
19CB8
  8
01
 10
2768.453262092838
 20
-404.4515693292182
 30
0.0
 11
2768.58586809835
 21
-404.7234603217993
 31
0.0
  0
LINE
  5
19CB9
  8
01
 10
2768.58586809835
 20
-404.7234603217993
 30
0.0
 11
2768.712580505156
 21
-405.0040427958537
 31
0.0
  0
LINE
  5
19CBA
  8
01
 10
2768.712580505156
 20
-405.0040427958537
 30
0.0
 11
2768.833399313201
 21
-405.2929216842762
 31
0.0
  0
LINE
  5
19CBB
  8
01
 10
2768.833399313201
 20
-405.2929216842762
 30
0.0
 11
2768.948324522432
 21
-405.5897019199614
 31
0.0
  0
LINE
  5
19CBC
  8
01
 10
2768.948324522432
 20
-405.5897019199614
 30
0.0
 11
2769.057356132795
 21
-405.8939884358032
 31
0.0
  0
LINE
  5
19CBD
  8
01
 10
2769.057356132795
 20
-405.8939884358032
 30
0.0
 11
2769.160494144236
 21
-406.2053861646963
 31
0.0
  0
LINE
  5
19CBE
  8
01
 10
2769.160494144236
 20
-406.2053861646963
 30
0.0
 11
2769.2577385567
 21
-406.5235000395359
 31
0.0
  0
LINE
  5
19CBF
  8
01
 10
2769.2577385567
 20
-406.5235000395359
 30
0.0
 11
2769.349089370135
 21
-406.8479349932157
 31
0.0
  0
LINE
  5
19CC0
  8
01
 10
2769.349089370135
 20
-406.8479349932157
 30
0.0
 11
2769.434546584484
 21
-407.1782959586302
 31
0.0
  0
LINE
  5
19CC1
  8
01
 10
2769.434546584484
 20
-407.1782959586302
 30
0.0
 11
2769.514110199696
 21
-407.5141878686749
 31
0.0
  0
LINE
  5
19CC2
  8
01
 10
2769.514110199696
 20
-407.5141878686749
 30
0.0
 11
2769.587780215715
 21
-407.8552156562426
 31
0.0
  0
LINE
  5
19CC3
  8
01
 10
2769.587780215715
 20
-407.8552156562426
 30
0.0
 11
2769.655556632488
 21
-408.2009842542292
 31
0.0
  0
LINE
  5
19CC4
  8
01
 10
2769.655556632488
 20
-408.2009842542292
 30
0.0
 11
2769.71743944996
 21
-408.5510985955287
 31
0.0
  0
LINE
  5
19CC5
  8
01
 10
2769.71743944996
 20
-408.5510985955287
 30
0.0
 11
2769.773428668077
 21
-408.9051636130365
 31
0.0
  0
LINE
  5
19CC6
  8
01
 10
2769.773428668077
 20
-408.9051636130365
 30
0.0
 11
2769.823524286786
 21
-409.2627842396458
 31
0.0
  0
LINE
  5
19CC7
  8
01
 10
2769.823524286786
 20
-409.2627842396458
 30
0.0
 11
2769.906034725762
 21
-409.987112051749
 31
0.0
  0
LINE
  5
19CC8
  8
01
 10
2769.906034725762
 20
-409.987112051749
 30
0.0
 11
2769.964970766454
 21
-410.7209214949943
 31
0.0
  0
LINE
  5
19CC9
  8
01
 10
2769.964970766454
 20
-410.7209214949943
 30
0.0
 11
2770.00033240843
 21
-411.4610520325376
 31
0.0
  0
LINE
  5
19CCA
  8
01
 10
2770.00033240843
 20
-411.4610520325376
 30
0.0
 11
2770.012119651259
 21
-412.204343127535
 31
0.0
  0
LINE
  5
19CCB
  8
01
 10
2770.012119651259
 20
-412.204343127535
 30
0.0
 11
2770.000332494507
 21
-412.9476342431429
 31
0.0
  0
LINE
  5
19CCC
  8
01
 10
2770.000332494507
 20
-412.9476342431429
 30
0.0
 11
2769.964970937743
 21
-413.6877648425169
 31
0.0
  0
LINE
  5
19CCD
  8
01
 10
2769.964970937743
 20
-413.6877648425169
 30
0.0
 11
2769.906034980532
 21
-414.4215743888134
 31
0.0
  0
LINE
  5
19CCE
  8
01
 10
2769.906034980532
 20
-414.4215743888134
 30
0.0
 11
2769.823524622445
 21
-415.1459023451893
 31
0.0
  0
LINE
  5
19CCF
  8
01
 10
2769.823524622445
 20
-415.1459023451893
 30
0.0
 11
2769.773429042937
 21
-415.5035230593929
 31
0.0
  0
LINE
  5
19CD0
  8
01
 10
2769.773429042937
 20
-415.5035230593929
 30
0.0
 11
2769.717439863047
 21
-415.8575881747992
 31
0.0
  0
LINE
  5
19CD1
  8
01
 10
2769.717439863047
 20
-415.8575881747992
 30
0.0
 11
2769.655557082722
 21
-416.2077026243031
 31
0.0
  0
LINE
  5
19CD2
  8
01
 10
2769.655557082722
 20
-416.2077026243031
 30
0.0
 11
2769.587780701907
 21
-416.5534713407995
 31
0.0
  0
LINE
  5
19CD3
  8
01
 10
2769.587780701907
 20
-416.5534713407995
 30
0.0
 11
2769.514110720548
 21
-416.8944992571822
 31
0.0
  0
LINE
  5
19CD4
  8
01
 10
2769.514110720548
 20
-416.8944992571822
 30
0.0
 11
2769.434547138591
 21
-417.2303913063469
 31
0.0
  0
LINE
  5
19CD5
  8
01
 10
2769.434547138591
 20
-417.2303913063469
 30
0.0
 11
2769.349089955983
 21
-417.5607524211867
 31
0.0
  0
LINE
  5
19CD6
  8
01
 10
2769.349089955983
 20
-417.5607524211867
 30
0.0
 11
2769.257739172669
 21
-417.8851875345966
 31
0.0
  0
LINE
  5
19CD7
  8
01
 10
2769.257739172669
 20
-417.8851875345966
 30
0.0
 11
2769.160494788595
 21
-418.2033015794713
 31
0.0
  0
LINE
  5
19CD8
  8
01
 10
2769.160494788595
 20
-418.2033015794713
 30
0.0
 11
2769.057356803707
 21
-418.5146994887053
 31
0.0
  0
LINE
  5
19CD9
  8
01
 10
2769.057356803707
 20
-418.5146994887053
 30
0.0
 11
2768.948325217951
 21
-418.8189861951931
 31
0.0
  0
LINE
  5
19CDA
  8
01
 10
2768.948325217951
 20
-418.8189861951931
 30
0.0
 11
2768.833400031273
 21
-419.1157666318285
 31
0.0
  0
LINE
  5
19CDB
  8
01
 10
2768.833400031273
 20
-419.1157666318285
 30
0.0
 11
2768.712581243618
 21
-419.404645731507
 31
0.0
  0
LINE
  5
19CDC
  8
01
 10
2768.712581243618
 20
-419.404645731507
 30
0.0
 11
2768.585868854934
 21
-419.6852284271225
 31
0.0
  0
LINE
  5
19CDD
  8
01
 10
2768.585868854934
 20
-419.6852284271225
 30
0.0
 11
2768.453262865165
 21
-419.9571196515698
 31
0.0
  0
LINE
  5
19CDE
  8
01
 10
2768.453262865165
 20
-419.9571196515698
 30
0.0
 11
2768.314763274258
 21
-420.2199243377435
 31
0.0
  0
LINE
  5
19CDF
  8
01
 10
2768.314763274258
 20
-420.2199243377435
 30
0.0
 11
2768.170370082159
 21
-420.4732474185379
 31
0.0
  0
LINE
  5
19CE0
  8
01
 10
2768.170370082159
 20
-420.4732474185379
 30
0.0
 11
2768.095963385645
 21
-420.5962298984476
 31
0.0
  0
LINE
  5
19CE1
  8
01
 10
2768.095963385645
 20
-420.5962298984476
 30
0.0
 11
2768.020083288813
 21
-420.7166938268473
 31
0.0
  0
LINE
  5
19CE2
  8
01
 10
2768.020083288813
 20
-420.7166938268473
 30
0.0
 11
2767.942729791655
 21
-420.8345898203501
 31
0.0
  0
LINE
  5
19CE3
  8
01
 10
2767.942729791655
 20
-420.8345898203501
 30
0.0
 11
2767.863902894167
 21
-420.9498684955669
 31
0.0
  0
LINE
  5
19CE4
  8
01
 10
2767.863902894167
 20
-420.9498684955669
 30
0.0
 11
2767.783602596339
 21
-421.0624804691091
 31
0.0
  0
LINE
  5
19CE5
  8
01
 10
2767.783602596339
 20
-421.0624804691091
 30
0.0
 11
2767.701828898166
 21
-421.17237635759
 31
0.0
  0
LINE
  5
19CE6
  8
01
 10
2767.701828898166
 20
-421.17237635759
 30
0.0
 11
2767.618581799641
 21
-421.2795067776204
 31
0.0
  0
LINE
  5
19CE7
  8
01
 10
2767.618581799641
 20
-421.2795067776204
 30
0.0
 11
2767.533861300757
 21
-421.3838223458123
 31
0.0
  0
LINE
  5
19CE8
  8
01
 10
2767.533861300757
 20
-421.3838223458123
 30
0.0
 11
2767.447667401507
 21
-421.4852736787778
 31
0.0
  0
LINE
  5
19CE9
  8
01
 10
2767.447667401507
 20
-421.4852736787778
 30
0.0
 11
2767.360000101885
 21
-421.583811393128
 31
0.0
  0
LINE
  5
19CEA
  8
01
 10
2767.360000101885
 20
-421.583811393128
 30
0.0
 11
2767.270859401884
 21
-421.6793861054756
 31
0.0
  0
LINE
  5
19CEB
  8
01
 10
2767.270859401884
 20
-421.6793861054756
 30
0.0
 11
2767.180245301496
 21
-421.7719484324315
 31
0.0
  0
LINE
  5
19CEC
  8
01
 10
2767.180245301496
 20
-421.7719484324315
 30
0.0
 11
2767.088157800717
 21
-421.861448990608
 31
0.0
  0
LINE
  5
19CED
  8
01
 10
2767.088157800717
 20
-421.861448990608
 30
0.0
 11
2766.994596899537
 21
-421.9478383966169
 31
0.0
  0
ARC
  5
19CF0
  8
01
 10
2766.325852485699
 20
-421.2043454246308
 30
0.0
 40
1.000000445215907
 50
270.000009784369
 51
311.9702089305093
  0
ARC
  5
19CF1
  8
01
 10
2766.32585196531
 20
-403.2043457496055
 30
0.0
 40
0.9999999999963711
 50
48.02978883645185
 51
90.00000000007816
  0
LINE
  5
19CF2
  8
01
 10
2763.012120010976
 20
-402.2043457496092
 30
0.0
 11
2766.325851965308
 21
-402.2043457496092
 31
0.0
  0
LINE
  5
19CF3
  8
01
 10
2763.012120010976
 20
-422.2043458698466
 30
0.0
 11
2766.325852656469
 21
-422.2043458698466
 31
0.0
  0
ARC
  5
19CF6
  8
01
 10
2698.698381663298
 20
-421.2046047698321
 30
0.0
 40
0.999741100030751
 50
228.020090877917
 51
270.0003267957244
  0
ARC
  5
19CF7
  8
01
 10
2698.698395288761
 20
-403.2046654305681
 30
0.0
 40
1.000319668551806
 50
90.00041423738284
 51
131.958259918174
  0
LINE
  5
19CF8
  8
01
 10
2698.698388056644
 20
-402.2043457620424
 30
0.0
 11
2702.012120010976
 21
-402.2043457620424
 31
0.0
  0
LINE
  5
19CF9
  8
01
 10
2698.698387365483
 20
-422.2043458698466
 30
0.0
 11
2702.012120010976
 21
-422.2043458698466
 31
0.0
  0
LINE
  5
19CFC
  8
01
 10
2697.776656501401
 20
-402.7025970594785
 30
0.0
 11
2698.029592446146
 21
-402.4607956855979
 31
0.0
  0
LINE
  5
19CFD
  8
01
 10
2698.029684853685
 20
-421.9477917206754
 30
0.0
 11
2697.777006885152
 21
-421.7062671129487
 31
0.0
  0
LINE
  5
19CFF
  8
01
 10
2698.443763432751
 20
-422.2043458698466
 30
0.0
 11
2697.628232802296
 21
-422.2043458698466
 31
0.0
  0
LINE
  5
19D00
  8
01
 10
2664.29759807036
 20
-550.1850257998107
 30
0.0
 11
2664.29759807036
 21
-353.6973994116119
 31
0.0
  0
LINE
  5
19D85
  8
01
 10
2699.012119814361
 20
-341.2641469507702
 30
0.0
 11
2685.512119814623
 21
-341.2641472698446
 31
0.0
  0
LINE
  5
19D96
  8
1DIM
 10
2655.812883309232
 20
-341.2641472698446
 30
0.0
 11
2727.816463848823
 21
-341.2641472698446
 31
0.0
  0
LINE
  5
19D97
  8
1DIM
 10
2655.812883309232
 20
-328.2673532947477
 30
0.0
 11
2727.816463848823
 21
-328.2673532947477
 31
0.0
  0
LINE
  5
19D98
  8
1DIM
 10
2655.812883309232
 20
-319.4892828651313
 30
0.0
 11
2727.816463848823
 21
-319.4892828651313
 31
0.0
  0
LINE
  5
19DB4
  8
01
 10
2698.029643911584
 20
-402.4608531347002
 30
0.0
 11
2697.936083016094
 21
-402.5472423771142
 31
0.0
  0
LINE
  5
19DB5
  8
01
 10
2697.936083016094
 20
-402.5472423771142
 30
0.0
 11
2697.843995520152
 21
-402.6367427742729
 31
0.0
  0
LINE
  5
19DB6
  8
01
 10
2697.843995520152
 20
-402.6367427742729
 30
0.0
 11
2697.753381423764
 21
-402.7293049427871
 31
0.0
  0
LINE
  5
19DB7
  8
01
 10
2697.753381423764
 20
-402.7293049427871
 30
0.0
 11
2697.664240726938
 21
-402.8248794992691
 31
0.0
  0
LINE
  5
19DB8
  8
01
 10
2697.664240726938
 20
-402.8248794992691
 30
0.0
 11
2697.576573429681
 21
-402.9234170603303
 31
0.0
  0
LINE
  5
19DB9
  8
01
 10
2697.576573429681
 20
-402.9234170603303
 30
0.0
 11
2697.490379531998
 21
-403.0248682425826
 31
0.0
  0
LINE
  5
19DBA
  8
01
 10
2697.490379531998
 20
-403.0248682425826
 30
0.0
 11
2697.405659033898
 21
-403.1291836626373
 31
0.0
  0
LINE
  5
19DBB
  8
01
 10
2697.405659033898
 20
-403.1291836626373
 30
0.0
 11
2697.322411935386
 21
-403.2363139371072
 31
0.0
  0
LINE
  5
19DBC
  8
01
 10
2697.322411935386
 20
-403.2363139371072
 30
0.0
 11
2697.24063823647
 21
-403.3462096826037
 31
0.0
  0
LINE
  5
19DBD
  8
01
 10
2697.24063823647
 20
-403.3462096826037
 30
0.0
 11
2697.160337937155
 21
-403.4588215157381
 31
0.0
  0
LINE
  5
19DBE
  8
01
 10
2697.160337937155
 20
-403.4588215157381
 30
0.0
 11
2697.081511037451
 21
-403.5741000531233
 31
0.0
  0
LINE
  5
19DBF
  8
01
 10
2697.081511037451
 20
-403.5741000531233
 30
0.0
 11
2697.004157537361
 21
-403.6919959113706
 31
0.0
  0
LINE
  5
19DC0
  8
01
 10
2697.004157537361
 20
-403.6919959113706
 30
0.0
 11
2696.928277436894
 21
-403.8124597070918
 31
0.0
  0
LINE
  5
19DC1
  8
01
 10
2696.928277436894
 20
-403.8124597070918
 30
0.0
 11
2696.853870736056
 21
-403.9354420568983
 31
0.0
  0
LINE
  5
19DC2
  8
01
 10
2696.853870736056
 20
-403.9354420568983
 30
0.0
 11
2696.709477533295
 21
-404.1887648852161
 31
0.0
  0
LINE
  5
19DC3
  8
01
 10
2696.709477533295
 20
-404.1887648852161
 30
0.0
 11
2696.570977929131
 21
-404.4515693292182
 31
0.0
  0
LINE
  5
19DC4
  8
01
 10
2696.570977929131
 20
-404.4515693292182
 30
0.0
 11
2696.43837192362
 21
-404.7234603217993
 31
0.0
  0
LINE
  5
19DC5
  8
01
 10
2696.43837192362
 20
-404.7234603217993
 30
0.0
 11
2696.311659516815
 21
-405.0040427958537
 31
0.0
  0
LINE
  5
19DC6
  8
01
 10
2696.311659516815
 20
-405.0040427958537
 30
0.0
 11
2696.190840708769
 21
-405.2929216842762
 31
0.0
  0
LINE
  5
19DC7
  8
01
 10
2696.190840708769
 20
-405.2929216842762
 30
0.0
 11
2696.075915499538
 21
-405.5897019199614
 31
0.0
  0
LINE
  5
19DC8
  8
01
 10
2696.075915499538
 20
-405.5897019199614
 30
0.0
 11
2695.966883889175
 21
-405.8939884358032
 31
0.0
  0
LINE
  5
19DC9
  8
01
 10
2695.966883889175
 20
-405.8939884358032
 30
0.0
 11
2695.863745877734
 21
-406.2053861646963
 31
0.0
  0
LINE
  5
19DCA
  8
01
 10
2695.863745877734
 20
-406.2053861646963
 30
0.0
 11
2695.76650146527
 21
-406.5235000395359
 31
0.0
  0
LINE
  5
19DCB
  8
01
 10
2695.76650146527
 20
-406.5235000395359
 30
0.0
 11
2695.675150651836
 21
-406.8479349932157
 31
0.0
  0
LINE
  5
19DCC
  8
01
 10
2695.675150651836
 20
-406.8479349932157
 30
0.0
 11
2695.589693437485
 21
-407.1782959586302
 31
0.0
  0
LINE
  5
19DCD
  8
01
 10
2695.589693437485
 20
-407.1782959586302
 30
0.0
 11
2695.510129822274
 21
-407.5141878686749
 31
0.0
  0
LINE
  5
19DCE
  8
01
 10
2695.510129822274
 20
-407.5141878686749
 30
0.0
 11
2695.436459806255
 21
-407.8552156562426
 31
0.0
  0
LINE
  5
19DCF
  8
01
 10
2695.436459806255
 20
-407.8552156562426
 30
0.0
 11
2695.368683389483
 21
-408.2009842542292
 31
0.0
  0
LINE
  5
19DD0
  8
01
 10
2695.368683389483
 20
-408.2009842542292
 30
0.0
 11
2695.30680057201
 21
-408.5510985955287
 31
0.0
  0
LINE
  5
19DD1
  8
01
 10
2695.30680057201
 20
-408.5510985955287
 30
0.0
 11
2695.250811353893
 21
-408.9051636130365
 31
0.0
  0
LINE
  5
19DD2
  8
01
 10
2695.250811353893
 20
-408.9051636130365
 30
0.0
 11
2695.200715735184
 21
-409.2627842396458
 31
0.0
  0
LINE
  5
19DD3
  8
01
 10
2695.200715735184
 20
-409.2627842396458
 30
0.0
 11
2695.118205296209
 21
-409.987112051749
 31
0.0
  0
LINE
  5
19DD4
  8
01
 10
2695.118205296209
 20
-409.987112051749
 30
0.0
 11
2695.059269255516
 21
-410.7209214949943
 31
0.0
  0
LINE
  5
19DD5
  8
01
 10
2695.059269255516
 20
-410.7209214949943
 30
0.0
 11
2695.023907613539
 21
-411.4610520325376
 31
0.0
  0
LINE
  5
19DD6
  8
01
 10
2695.023907613539
 20
-411.4610520325376
 30
0.0
 11
2695.012120370711
 21
-412.204343127535
 31
0.0
  0
LINE
  5
19DD7
  8
01
 10
2695.012120370711
 20
-412.204343127535
 30
0.0
 11
2695.023907527463
 21
-412.9476342431429
 31
0.0
  0
LINE
  5
19DD8
  8
01
 10
2695.023907527463
 20
-412.9476342431429
 30
0.0
 11
2695.059269084228
 21
-413.6877648425169
 31
0.0
  0
LINE
  5
19DD9
  8
01
 10
2695.059269084228
 20
-413.6877648425169
 30
0.0
 11
2695.118205041438
 21
-414.4215743888134
 31
0.0
  0
LINE
  5
19DDA
  8
01
 10
2695.118205041438
 20
-414.4215743888134
 30
0.0
 11
2695.200715399526
 21
-415.1459023451893
 31
0.0
  0
LINE
  5
19DDB
  8
01
 10
2695.200715399526
 20
-415.1459023451893
 30
0.0
 11
2695.250810979033
 21
-415.5035230593929
 31
0.0
  0
LINE
  5
19DDC
  8
01
 10
2695.250810979033
 20
-415.5035230593929
 30
0.0
 11
2695.306800158923
 21
-415.8575881747992
 31
0.0
  0
LINE
  5
19DDD
  8
01
 10
2695.306800158923
 20
-415.8575881747992
 30
0.0
 11
2695.368682939248
 21
-416.2077026243031
 31
0.0
  0
LINE
  5
19DDE
  8
01
 10
2695.368682939248
 20
-416.2077026243031
 30
0.0
 11
2695.436459320063
 21
-416.5534713407995
 31
0.0
  0
LINE
  5
19DDF
  8
01
 10
2695.436459320063
 20
-416.5534713407995
 30
0.0
 11
2695.510129301422
 21
-416.8944992571822
 31
0.0
  0
LINE
  5
19DE0
  8
01
 10
2695.510129301422
 20
-416.8944992571822
 30
0.0
 11
2695.589692883379
 21
-417.2303913063469
 31
0.0
  0
LINE
  5
19DE1
  8
01
 10
2695.589692883379
 20
-417.2303913063469
 30
0.0
 11
2695.675150065987
 21
-417.5607524211867
 31
0.0
  0
LINE
  5
19DE2
  8
01
 10
2695.675150065987
 20
-417.5607524211867
 30
0.0
 11
2695.766500849301
 21
-417.8851875345966
 31
0.0
  0
LINE
  5
19DE3
  8
01
 10
2695.766500849301
 20
-417.8851875345966
 30
0.0
 11
2695.863745233375
 21
-418.2033015794713
 31
0.0
  0
LINE
  5
19DE4
  8
01
 10
2695.863745233375
 20
-418.2033015794713
 30
0.0
 11
2695.966883218263
 21
-418.5146994887053
 31
0.0
  0
LINE
  5
19DE5
  8
01
 10
2695.966883218263
 20
-418.5146994887053
 30
0.0
 11
2696.075914804019
 21
-418.8189861951931
 31
0.0
  0
LINE
  5
19DE6
  8
01
 10
2696.075914804019
 20
-418.8189861951931
 30
0.0
 11
2696.190839990697
 21
-419.1157666318285
 31
0.0
  0
LINE
  5
19DE7
  8
01
 10
2696.190839990697
 20
-419.1157666318285
 30
0.0
 11
2696.311658778352
 21
-419.404645731507
 31
0.0
  0
LINE
  5
19DE8
  8
01
 10
2696.311658778352
 20
-419.404645731507
 30
0.0
 11
2696.438371167037
 21
-419.6852284271225
 31
0.0
  0
LINE
  5
19DE9
  8
01
 10
2696.438371167037
 20
-419.6852284271225
 30
0.0
 11
2696.570977156805
 21
-419.9571196515698
 31
0.0
  0
LINE
  5
19DEA
  8
01
 10
2696.570977156805
 20
-419.9571196515698
 30
0.0
 11
2696.709476747712
 21
-420.2199243377435
 31
0.0
  0
LINE
  5
19DEB
  8
01
 10
2696.709476747712
 20
-420.2199243377435
 30
0.0
 11
2696.853869939811
 21
-420.4732474185379
 31
0.0
  0
LINE
  5
19DEC
  8
01
 10
2696.853869939811
 20
-420.4732474185379
 30
0.0
 11
2696.928276636325
 21
-420.5962298984476
 31
0.0
  0
LINE
  5
19DED
  8
01
 10
2696.928276636325
 20
-420.5962298984476
 30
0.0
 11
2697.004156733157
 21
-420.7166938268473
 31
0.0
  0
LINE
  5
19DEE
  8
01
 10
2697.004156733157
 20
-420.7166938268473
 30
0.0
 11
2697.081510230315
 21
-420.8345898203501
 31
0.0
  0
LINE
  5
19DEF
  8
01
 10
2697.081510230315
 20
-420.8345898203501
 30
0.0
 11
2697.160337127803
 21
-420.9498684955669
 31
0.0
  0
LINE
  5
19DF0
  8
01
 10
2697.160337127803
 20
-420.9498684955669
 30
0.0
 11
2697.240637425631
 21
-421.0624804691091
 31
0.0
  0
LINE
  5
19DF1
  8
01
 10
2697.240637425631
 20
-421.0624804691091
 30
0.0
 11
2697.322411123804
 21
-421.17237635759
 31
0.0
  0
LINE
  5
19DF2
  8
01
 10
2697.322411123804
 20
-421.17237635759
 30
0.0
 11
2697.405658222329
 21
-421.2795067776204
 31
0.0
  0
LINE
  5
19DF3
  8
01
 10
2697.405658222329
 20
-421.2795067776204
 30
0.0
 11
2697.490378721213
 21
-421.3838223458123
 31
0.0
  0
LINE
  5
19DF4
  8
01
 10
2697.490378721213
 20
-421.3838223458123
 30
0.0
 11
2697.576572620463
 21
-421.4852736787778
 31
0.0
  0
LINE
  5
19DF5
  8
01
 10
2697.576572620463
 20
-421.4852736787778
 30
0.0
 11
2697.664239920085
 21
-421.583811393128
 31
0.0
  0
LINE
  5
19DF6
  8
01
 10
2697.664239920085
 20
-421.583811393128
 30
0.0
 11
2697.753380620086
 21
-421.6793861054756
 31
0.0
  0
LINE
  5
19DF7
  8
01
 10
2697.753380620086
 20
-421.6793861054756
 30
0.0
 11
2697.843994720474
 21
-421.7719484324315
 31
0.0
  0
LINE
  5
19DF8
  8
01
 10
2697.843994720474
 20
-421.7719484324315
 30
0.0
 11
2697.936082221254
 21
-421.861448990608
 31
0.0
  0
LINE
  5
19DF9
  8
01
 10
2697.936082221254
 20
-421.861448990608
 30
0.0
 11
2698.029643122433
 21
-421.9478383966169
 31
0.0
  0
ARC
  5
19DFA
  8
01
 10
2698.698387536271
 20
-421.2043454246308
 30
0.0
 40
1.000000445215907
 50
228.0297910694906
 51
269.999990215605
  0
ARC
  5
19DFB
  8
01
 10
2698.69838805666
 20
-403.2043457496055
 30
0.0
 40
0.9999999999963711
 50
89.99999999992183
 51
131.9702111635481
  0
LINE
  5
19EA8
  8
01
 10
2684.012120010976
 20
-305.2639826958483
 30
0.0
 11
2685.512120010976
 21
-310.5639792057099
 31
0.0
  0
LINE
  5
19EA9
  8
01
 10
2685.512120010976
 20
-310.5639792057099
 30
0.0
 11
2685.512120010976
 21
-344.2641471225796
 31
0.0
  0
LINE
  5
19EAA
  8
01
 10
2685.512120010976
 20
-345.2641436323873
 30
0.0
 11
2687.512166546874
 21
-345.2641389786894
 31
0.0
  0
LINE
  5
19EAB
  8
01
 10
2687.512166546874
 20
-345.2641389786894
 30
0.0
 11
2687.512166546874
 21
-346.3641424688848
 31
0.0
  0
ARC
  5
19EAC
  8
01
 10
2686.012166546874
 20
-346.3641424688848
 30
0.0
 40
1.5
 50
270.000133315525
 51
0.0
  0
LINE
  5
19EAD
  8
01
 10
2686.012170037066
 20
-347.8641424688807
 30
0.0
 11
2682.012170037066
 21
-347.8641517760601
 31
0.0
  0
ARC
  5
19EAE
  8
01
 10
2682.012166546874
 20
-346.3641517760642
 30
0.0
 40
1.5
 50
180.0
 51
270.000133315525
  0
LINE
  5
19EAF
  8
01
 10
2680.512166546874
 20
-346.3641517760642
 30
0.0
 11
2680.512166546874
 21
-345.2641552662534
 31
0.0
  0
LINE
  5
19EB0
  8
01
 10
2680.512166546874
 20
-345.2641552662534
 30
0.0
 11
2682.512120010976
 21
-345.2641506127719
 31
0.0
  0
LINE
  5
19EB1
  8
01
 10
2682.512120010976
 20
-344.2641471225796
 30
0.0
 11
2682.512120010976
 21
-310.5639861860935
 31
0.0
  0
LINE
  5
19EB2
  8
01
 10
2682.512120010976
 20
-310.5639861860935
 30
0.0
 11
2684.012120010976
 21
-305.2639826958483
 31
0.0
  0
LINE
  5
19EB3
  8
1CENTER
 10
2684.012166546874
 20
-302.3030681045401
 30
0.0
 11
2684.012166546874
 21
-351.0146313797399
 31
0.0
  0
LINE
  5
19EB4
  8
01
 10
2685.106490360869
 20
-307.3639801495264
 30
0.0
 11
2683.144155271994
 21
-306.5639847154752
 31
0.0
  0
LINE
  5
19EB5
  8
01
 10
2683.144155271994
 20
-306.5639847154752
 30
0.0
 11
2683.732431847036
 21
-306.2522148592233
 31
0.0
  0
LINE
  5
19EB6
  8
01
 10
2686.012120010976
 20
-339.7641424691018
 30
0.0
 11
2682.012120010976
 21
-338.9641517762833
 31
0.0
  0
LINE
  5
19EB7
  8
01
 10
2686.012120010976
 20
-328.5641424690974
 30
0.0
 11
2682.012120010976
 21
-327.7641517762748
 31
0.0
  0
LINE
  5
19EB8
  8
01
 10
2686.012120010976
 20
-320.3641424690971
 30
0.0
 11
2682.012120010976
 21
-319.5641517762746
 31
0.0
  0
LINE
  5
19EB9
  8
01
 10
2682.012120010976
 20
-319.5641517762746
 30
0.0
 11
2682.512120010976
 21
-319.4641506128772
 31
0.0
  0
LINE
  5
19EBA
  8
01
 10
2685.512120010976
 20
-318.8641436324946
 30
0.0
 11
2686.012120010976
 21
-318.7641424690972
 31
0.0
  0
LINE
  5
19EBB
  8
01
 10
2682.012120010976
 20
-327.7641517762748
 30
0.0
 11
2682.512120010976
 21
-327.6641506128775
 31
0.0
  0
LINE
  5
19EBC
  8
01
 10
2682.012120010976
 20
-326.1641517762745
 30
0.0
 11
2682.512120010976
 21
-326.0641506128776
 31
0.0
  0
LINE
  5
19EBD
  8
01
 10
2685.512120010976
 20
-320.4641436324945
 30
0.0
 11
2686.012120010976
 21
-320.3641424690971
 31
0.0
  0
LINE
  5
19EBE
  8
01
 10
2685.512120010976
 20
-327.0641436324944
 30
0.0
 11
2686.012120010976
 21
-326.9641424690971
 31
0.0
  0
LINE
  5
19EBF
  8
01
 10
2686.012120010976
 20
-326.9641424690971
 30
0.0
 11
2682.012120010976
 21
-326.1641517762745
 31
0.0
  0
LINE
  5
19EC0
  8
01
 10
2682.691341167587
 20
-308.1639857690806
 30
0.0
 11
2683.24309063139
 21
-307.9812216264526
 31
0.0
  0
LINE
  5
19EC1
  8
01
 10
2682.012120010976
 20
-311.3639873494893
 30
0.0
 11
2682.512120010976
 21
-311.2639861860915
 31
0.0
  0
LINE
  5
19EC2
  8
01
 10
2682.012120010976
 20
-312.9639873494888
 30
0.0
 11
2682.512120010976
 21
-312.8639861860919
 31
0.0
  0
LINE
  5
19EC3
  8
01
 10
2682.23852706318
 20
-309.763986822686
 30
0.0
 11
2682.775120798452
 21
-309.6347161250568
 31
0.0
  0
LINE
  5
19EC4
  8
01
 10
2685.091205413768
 20
-309.0767486082722
 30
0.0
 11
2685.559303868918
 21
-308.9639790959217
 31
0.0
  0
LINE
  5
19EC5
  8
01
 10
2685.512120010976
 20
-312.2639792057088
 30
0.0
 11
2686.012120010976
 21
-312.1639780423119
 31
0.0
  0
LINE
  5
19EC6
  8
01
 10
2685.512120010976
 20
-310.6639792057084
 30
0.0
 11
2686.012120010976
 21
-310.5639780423115
 31
0.0
  0
LINE
  5
19EC7
  8
01
 10
2684.649318520238
 20
-307.5154159459661
 30
0.0
 11
2685.106490360869
 21
-307.3639801495264
 31
0.0
  0
LINE
  5
19EC8
  8
01
 10
2685.559303868918
 20
-308.9639790959217
 30
0.0
 11
2682.691341167587
 21
-308.1639857690806
 31
0.0
  0
LINE
  5
19EC9
  8
01
 10
2686.012120010976
 20
-312.1639780423119
 30
0.0
 11
2682.012120010976
 21
-311.3639873494893
 31
0.0
  0
LINE
  5
19ECA
  8
01
 10
2686.012120010976
 20
-310.5639780423115
 30
0.0
 11
2682.23852706318
 21
-309.763986822686
 31
0.0
  0
LINE
  5
19ECB
  8
01
 10
2686.012120010976
 20
-313.7639780423114
 30
0.0
 11
2682.012120010976
 21
-312.9639873494888
 31
0.0
  0
LINE
  5
19ECC
  8
01
 10
2686.012120010976
 20
-336.5641424691015
 30
0.0
 11
2682.012120010976
 21
-335.7641517762835
 31
0.0
  0
LINE
  5
19ECD
  8
01
 10
2682.012120010976
 20
-335.7641517762835
 30
0.0
 11
2682.512120010976
 21
-335.6641506128857
 31
0.0
  0
LINE
  5
19ECE
  8
01
 10
2685.512120010976
 20
-335.0641436324948
 30
0.0
 11
2686.012120010976
 21
-334.9641424690971
 31
0.0
  0
LINE
  5
19ECF
  8
01
 10
2682.012120010976
 20
-337.3641517762834
 30
0.0
 11
2682.512120010976
 21
-337.2641506128856
 31
0.0
  0
LINE
  5
19ED0
  8
01
 10
2682.012120010976
 20
-338.9641517762833
 30
0.0
 11
2682.512120010976
 21
-338.8641506128855
 31
0.0
  0
LINE
  5
19ED1
  8
01
 10
2685.512120010976
 20
-336.6641436324993
 30
0.0
 11
2686.012120010976
 21
-336.5641424691015
 31
0.0
  0
LINE
  5
19ED2
  8
01
 10
2685.512120010976
 20
-338.2641436324992
 30
0.0
 11
2686.012120010976
 21
-338.1641424691019
 31
0.0
  0
LINE
  5
19ED3
  8
01
 10
2686.012120010976
 20
-338.1641424691019
 30
0.0
 11
2682.012120010976
 21
-337.3641517762834
 31
0.0
  0
LINE
  5
19ED4
  8
01
 10
2682.012120010976
 20
-330.9641517762788
 30
0.0
 11
2682.512120010976
 21
-330.8641506128814
 31
0.0
  0
LINE
  5
19ED5
  8
01
 10
2682.012120010976
 20
-329.3641517762748
 30
0.0
 11
2682.512120010976
 21
-329.2641506128774
 31
0.0
  0
LINE
  5
19ED6
  8
01
 10
2682.012120010976
 20
-334.164151776279
 30
0.0
 11
2682.512120010976
 21
-334.0641506128812
 31
0.0
  0
LINE
  5
19ED7
  8
01
 10
2682.012120010976
 20
-332.5641517762791
 30
0.0
 11
2682.512120010976
 21
-332.4641506128813
 31
0.0
  0
LINE
  5
19ED8
  8
01
 10
2685.512120010976
 20
-328.6641436324943
 30
0.0
 11
2686.012120010976
 21
-328.5641424690974
 31
0.0
  0
LINE
  5
19ED9
  8
01
 10
2685.512120010976
 20
-330.2641436324951
 30
0.0
 11
2686.012120010976
 21
-330.1641424690973
 31
0.0
  0
LINE
  5
19EDA
  8
01
 10
2685.512120010976
 20
-333.4641436324949
 30
0.0
 11
2686.012120010976
 21
-333.3641424690971
 31
0.0
  0
LINE
  5
19EDB
  8
01
 10
2685.512120010976
 20
-331.864143632495
 30
0.0
 11
2686.012120010976
 21
-331.7641424690972
 31
0.0
  0
LINE
  5
19EDC
  8
01
 10
2686.012120010976
 20
-331.7641424690972
 30
0.0
 11
2682.012120010976
 21
-330.9641517762788
 31
0.0
  0
LINE
  5
19EDD
  8
01
 10
2686.012120010976
 20
-330.1641424690973
 30
0.0
 11
2682.012120010976
 21
-329.3641517762748
 31
0.0
  0
LINE
  5
19EDE
  8
01
 10
2686.012120010976
 20
-333.3641424690971
 30
0.0
 11
2682.012120010976
 21
-332.5641517762791
 31
0.0
  0
LINE
  5
19EDF
  8
01
 10
2686.012120010976
 20
-334.9641424690971
 30
0.0
 11
2682.012120010976
 21
-334.164151776279
 31
0.0
  0
LINE
  5
19EE0
  8
01
 10
2682.512120010976
 20
-345.2641506127719
 30
0.0
 11
2685.512120010976
 21
-345.2641436323873
 31
0.0
  0
LINE
  5
19EE1
  8
01
 10
2684.512125827448
 20
-344.2641471225796
 30
0.0
 11
2682.012120010976
 21
-343.7641517762876
 31
0.0
  0
LINE
  5
19EE2
  8
01
 10
2682.012120010976
 20
-343.7641517762876
 30
0.0
 11
2682.512120010976
 21
-343.6641506128898
 31
0.0
  0
LINE
  5
19EE3
  8
01
 10
2685.512120010976
 20
-343.0641436325035
 30
0.0
 11
2686.012120010976
 21
-342.9641424691057
 31
0.0
  0
LINE
  5
19EE4
  8
01
 10
2685.512120010976
 20
-341.4641436325036
 30
0.0
 11
2686.012120010976
 21
-341.3641424691058
 31
0.0
  0
LINE
  5
19EE5
  8
01
 10
2686.012120010976
 20
-341.3641424691058
 30
0.0
 11
2682.012120010976
 21
-340.5641517762878
 31
0.0
  0
LINE
  5
19EE6
  8
01
 10
2682.012120010976
 20
-342.1641517762877
 30
0.0
 11
2682.512120010976
 21
-342.0641506128899
 31
0.0
  0
LINE
  5
19EE7
  8
01
 10
2682.012120010976
 20
-340.5641517762878
 30
0.0
 11
2682.512120010976
 21
-340.46415061289
 31
0.0
  0
LINE
  5
19EE8
  8
01
 10
2686.012120010976
 20
-342.9641424691057
 30
0.0
 11
2682.012120010976
 21
-342.1641517762877
 31
0.0
  0
LINE
  5
19EE9
  8
01
 10
2685.512120010976
 20
-339.8641436324991
 30
0.0
 11
2686.012120010976
 21
-339.7641424691018
 31
0.0
  0
LINE
  5
19EEB
  8
01
 10
2682.012120010976
 20
-324.5641517762746
 30
0.0
 11
2682.512120010976
 21
-324.4641506128772
 31
0.0
  0
LINE
  5
19EEC
  8
01
 10
2685.512120010976
 20
-325.464143632494
 30
0.0
 11
2686.012120010976
 21
-325.3641424690971
 31
0.0
  0
LINE
  5
19EED
  8
01
 10
2686.012120010976
 20
-325.3641424690971
 30
0.0
 11
2682.012120010976
 21
-324.5641517762746
 31
0.0
  0
LINE
  5
19EEE
  8
01
 10
2682.012120010976
 20
-322.9641517762742
 30
0.0
 11
2682.512120010976
 21
-322.8641506128773
 31
0.0
  0
LINE
  5
19EEF
  8
01
 10
2685.512120010976
 20
-323.8641436324941
 30
0.0
 11
2686.012120010976
 21
-323.7641424690968
 31
0.0
  0
LINE
  5
19EF0
  8
01
 10
2686.012120010976
 20
-323.7641424690968
 30
0.0
 11
2682.012120010976
 21
-322.9641517762742
 31
0.0
  0
LINE
  5
19EF1
  8
01
 10
2682.012120010976
 20
-321.3641517762743
 30
0.0
 11
2682.512120010976
 21
-321.264150612877
 31
0.0
  0
LINE
  5
19EF2
  8
01
 10
2685.512120010976
 20
-322.2641436324938
 30
0.0
 11
2686.012120010976
 21
-322.1641424690969
 31
0.0
  0
LINE
  5
19EF3
  8
01
 10
2686.012120010976
 20
-322.1641424690969
 30
0.0
 11
2682.012120010976
 21
-321.3641517762743
 31
0.0
  0
LINE
  5
19EF4
  8
01
 10
2682.012120010976
 20
-317.9641517762747
 30
0.0
 11
2682.512120010976
 21
-317.8641506128778
 31
0.0
  0
LINE
  5
19EF5
  8
01
 10
2686.012120010976
 20
-318.7641424690972
 30
0.0
 11
2682.012120010976
 21
-317.9641517762747
 31
0.0
  0
LINE
  5
19EF6
  8
01
 10
2682.012120010976
 20
-316.3641517762748
 30
0.0
 11
2682.512120010976
 21
-316.2641506128774
 31
0.0
  0
LINE
  5
19EF7
  8
01
 10
2685.512120010976
 20
-317.2641436324942
 30
0.0
 11
2686.012120010976
 21
-317.1641424690973
 31
0.0
  0
LINE
  5
19EF8
  8
01
 10
2686.012120010976
 20
-317.1641424690973
 30
0.0
 11
2682.012120010976
 21
-316.3641517762748
 31
0.0
  0
LINE
  5
19EF9
  8
01
 10
2682.012120010976
 20
-314.7641517762748
 30
0.0
 11
2682.512120010976
 21
-314.6641506128775
 31
0.0
  0
LINE
  5
19EFA
  8
01
 10
2685.512120010976
 20
-315.6641436324943
 30
0.0
 11
2686.012120010976
 21
-315.5641424690974
 31
0.0
  0
LINE
  5
19EFB
  8
01
 10
2686.012120010976
 20
-315.5641424690974
 30
0.0
 11
2682.012120010976
 21
-314.7641517762748
 31
0.0
  0
LINE
  5
19EFC
  8
01
 10
2685.512120010976
 20
-313.8639792057082
 30
0.0
 11
2686.012120010976
 21
-313.7639780423114
 31
0.0
  0
LINE
  5
19F00
  8
01
 10
2694.012120010976
 20
-305.2639826958483
 30
0.0
 11
2695.512120010976
 21
-310.5639792057099
 31
0.0
  0
LINE
  5
19F01
  8
01
 10
2695.512120010976
 20
-310.5639792057099
 30
0.0
 11
2695.512120010976
 21
-344.2641471225796
 31
0.0
  0
LINE
  5
19F02
  8
01
 10
2695.512120010976
 20
-345.2641436323873
 30
0.0
 11
2697.512166546874
 21
-345.2641389786894
 31
0.0
  0
LINE
  5
19F03
  8
01
 10
2697.512166546874
 20
-345.2641389786894
 30
0.0
 11
2697.512166546874
 21
-346.3641424688848
 31
0.0
  0
ARC
  5
19F04
  8
01
 10
2696.012166546874
 20
-346.3641424688848
 30
0.0
 40
1.5
 50
270.000133315525
 51
0.0
  0
LINE
  5
19F05
  8
01
 10
2696.012170037066
 20
-347.8641424688807
 30
0.0
 11
2692.012170037066
 21
-347.8641517760601
 31
0.0
  0
ARC
  5
19F06
  8
01
 10
2692.012166546874
 20
-346.3641517760642
 30
0.0
 40
1.5
 50
180.0
 51
270.000133315525
  0
LINE
  5
19F07
  8
01
 10
2690.512166546874
 20
-346.3641517760642
 30
0.0
 11
2690.512166546874
 21
-345.2641552662534
 31
0.0
  0
LINE
  5
19F08
  8
01
 10
2690.512166546874
 20
-345.2641552662534
 30
0.0
 11
2692.512120010976
 21
-345.2641506127719
 31
0.0
  0
LINE
  5
19F09
  8
01
 10
2692.512120010976
 20
-344.2641471225796
 30
0.0
 11
2692.512120010976
 21
-310.5639861860935
 31
0.0
  0
LINE
  5
19F0A
  8
01
 10
2692.512120010976
 20
-310.5639861860935
 30
0.0
 11
2694.012120010976
 21
-305.2639826958483
 31
0.0
  0
LINE
  5
19F0B
  8
1CENTER
 10
2694.012166546874
 20
-302.3030681045401
 30
0.0
 11
2694.012166546874
 21
-351.0146313797399
 31
0.0
  0
LINE
  5
19F0C
  8
01
 10
2695.106490360869
 20
-307.3639801495264
 30
0.0
 11
2693.144155271994
 21
-306.5639847154752
 31
0.0
  0
LINE
  5
19F0D
  8
01
 10
2693.144155271994
 20
-306.5639847154752
 30
0.0
 11
2693.732431847036
 21
-306.2522148592233
 31
0.0
  0
LINE
  5
19F0E
  8
01
 10
2696.012120010976
 20
-339.7641424691018
 30
0.0
 11
2692.012120010976
 21
-338.9641517762833
 31
0.0
  0
LINE
  5
19F0F
  8
01
 10
2696.012120010976
 20
-328.5641424690974
 30
0.0
 11
2692.012120010976
 21
-327.7641517762748
 31
0.0
  0
LINE
  5
19F10
  8
01
 10
2696.012120010976
 20
-320.3641424690971
 30
0.0
 11
2692.012120010976
 21
-319.5641517762746
 31
0.0
  0
LINE
  5
19F11
  8
01
 10
2692.012120010976
 20
-319.5641517762746
 30
0.0
 11
2692.512120010976
 21
-319.4641506128772
 31
0.0
  0
LINE
  5
19F12
  8
01
 10
2695.512120010976
 20
-318.8641436324946
 30
0.0
 11
2696.012120010976
 21
-318.7641424690972
 31
0.0
  0
LINE
  5
19F13
  8
01
 10
2692.012120010976
 20
-327.7641517762748
 30
0.0
 11
2692.512120010976
 21
-327.6641506128775
 31
0.0
  0
LINE
  5
19F14
  8
01
 10
2692.012120010976
 20
-326.1641517762745
 30
0.0
 11
2692.512120010976
 21
-326.0641506128776
 31
0.0
  0
LINE
  5
19F15
  8
01
 10
2695.512120010976
 20
-320.4641436324945
 30
0.0
 11
2696.012120010976
 21
-320.3641424690971
 31
0.0
  0
LINE
  5
19F16
  8
01
 10
2695.512120010976
 20
-327.0641436324944
 30
0.0
 11
2696.012120010976
 21
-326.9641424690971
 31
0.0
  0
LINE
  5
19F17
  8
01
 10
2696.012120010976
 20
-326.9641424690971
 30
0.0
 11
2692.012120010976
 21
-326.1641517762745
 31
0.0
  0
LINE
  5
19F18
  8
01
 10
2692.691341167587
 20
-308.1639857690806
 30
0.0
 11
2693.24309063139
 21
-307.9812216264526
 31
0.0
  0
LINE
  5
19F19
  8
01
 10
2692.012120010976
 20
-311.3639873494893
 30
0.0
 11
2692.512120010976
 21
-311.2639861860915
 31
0.0
  0
LINE
  5
19F1A
  8
01
 10
2692.012120010976
 20
-312.9639873494888
 30
0.0
 11
2692.512120010976
 21
-312.8639861860919
 31
0.0
  0
LINE
  5
19F1B
  8
01
 10
2692.23852706318
 20
-309.763986822686
 30
0.0
 11
2692.775120798452
 21
-309.6347161250568
 31
0.0
  0
LINE
  5
19F1C
  8
01
 10
2695.091205413768
 20
-309.0767486082722
 30
0.0
 11
2695.559303868918
 21
-308.9639790959217
 31
0.0
  0
LINE
  5
19F1D
  8
01
 10
2695.512120010976
 20
-312.2639792057088
 30
0.0
 11
2696.012120010976
 21
-312.1639780423119
 31
0.0
  0
LINE
  5
19F1E
  8
01
 10
2695.512120010976
 20
-310.6639792057084
 30
0.0
 11
2696.012120010976
 21
-310.5639780423115
 31
0.0
  0
LINE
  5
19F1F
  8
01
 10
2694.649318520238
 20
-307.5154159459661
 30
0.0
 11
2695.106490360869
 21
-307.3639801495264
 31
0.0
  0
LINE
  5
19F20
  8
01
 10
2695.559303868918
 20
-308.9639790959217
 30
0.0
 11
2692.691341167587
 21
-308.1639857690806
 31
0.0
  0
LINE
  5
19F21
  8
01
 10
2696.012120010976
 20
-312.1639780423119
 30
0.0
 11
2692.012120010976
 21
-311.3639873494893
 31
0.0
  0
LINE
  5
19F22
  8
01
 10
2696.012120010976
 20
-310.5639780423115
 30
0.0
 11
2692.23852706318
 21
-309.763986822686
 31
0.0
  0
LINE
  5
19F23
  8
01
 10
2696.012120010976
 20
-313.7639780423114
 30
0.0
 11
2692.012120010976
 21
-312.9639873494888
 31
0.0
  0
LINE
  5
19F24
  8
01
 10
2696.012120010976
 20
-336.5641424691015
 30
0.0
 11
2692.012120010976
 21
-335.7641517762835
 31
0.0
  0
LINE
  5
19F25
  8
01
 10
2692.012120010976
 20
-335.7641517762835
 30
0.0
 11
2692.512120010976
 21
-335.6641506128857
 31
0.0
  0
LINE
  5
19F26
  8
01
 10
2695.512120010976
 20
-335.0641436324948
 30
0.0
 11
2696.012120010976
 21
-334.9641424690971
 31
0.0
  0
LINE
  5
19F27
  8
01
 10
2692.012120010976
 20
-337.3641517762834
 30
0.0
 11
2692.512120010976
 21
-337.2641506128856
 31
0.0
  0
LINE
  5
19F28
  8
01
 10
2692.012120010976
 20
-338.9641517762833
 30
0.0
 11
2692.512120010976
 21
-338.8641506128855
 31
0.0
  0
LINE
  5
19F29
  8
01
 10
2695.512120010976
 20
-336.6641436324993
 30
0.0
 11
2696.012120010976
 21
-336.5641424691015
 31
0.0
  0
LINE
  5
19F2A
  8
01
 10
2695.512120010976
 20
-338.2641436324992
 30
0.0
 11
2696.012120010976
 21
-338.1641424691019
 31
0.0
  0
LINE
  5
19F2B
  8
01
 10
2696.012120010976
 20
-338.1641424691019
 30
0.0
 11
2692.012120010976
 21
-337.3641517762834
 31
0.0
  0
LINE
  5
19F2C
  8
01
 10
2692.012120010976
 20
-330.9641517762788
 30
0.0
 11
2692.512120010976
 21
-330.8641506128814
 31
0.0
  0
LINE
  5
19F2D
  8
01
 10
2692.012120010976
 20
-329.3641517762748
 30
0.0
 11
2692.512120010976
 21
-329.2641506128774
 31
0.0
  0
LINE
  5
19F2E
  8
01
 10
2692.012120010976
 20
-334.164151776279
 30
0.0
 11
2692.512120010976
 21
-334.0641506128812
 31
0.0
  0
LINE
  5
19F2F
  8
01
 10
2692.012120010976
 20
-332.5641517762791
 30
0.0
 11
2692.512120010976
 21
-332.4641506128813
 31
0.0
  0
LINE
  5
19F30
  8
01
 10
2695.512120010976
 20
-328.6641436324943
 30
0.0
 11
2696.012120010976
 21
-328.5641424690974
 31
0.0
  0
LINE
  5
19F31
  8
01
 10
2695.512120010976
 20
-330.2641436324951
 30
0.0
 11
2696.012120010976
 21
-330.1641424690973
 31
0.0
  0
LINE
  5
19F32
  8
01
 10
2695.512120010976
 20
-333.4641436324949
 30
0.0
 11
2696.012120010976
 21
-333.3641424690971
 31
0.0
  0
LINE
  5
19F33
  8
01
 10
2695.512120010976
 20
-331.864143632495
 30
0.0
 11
2696.012120010976
 21
-331.7641424690972
 31
0.0
  0
LINE
  5
19F34
  8
01
 10
2696.012120010976
 20
-331.7641424690972
 30
0.0
 11
2692.012120010976
 21
-330.9641517762788
 31
0.0
  0
LINE
  5
19F35
  8
01
 10
2696.012120010976
 20
-330.1641424690973
 30
0.0
 11
2692.012120010976
 21
-329.3641517762748
 31
0.0
  0
LINE
  5
19F36
  8
01
 10
2696.012120010976
 20
-333.3641424690971
 30
0.0
 11
2692.012120010976
 21
-332.5641517762791
 31
0.0
  0
LINE
  5
19F37
  8
01
 10
2696.012120010976
 20
-334.9641424690971
 30
0.0
 11
2692.012120010976
 21
-334.164151776279
 31
0.0
  0
LINE
  5
19F38
  8
01
 10
2692.512120010976
 20
-345.2641506127719
 30
0.0
 11
2695.512120010976
 21
-345.2641436323873
 31
0.0
  0
LINE
  5
19F39
  8
01
 10
2694.512125827448
 20
-344.2641471225796
 30
0.0
 11
2692.012120010976
 21
-343.7641517762876
 31
0.0
  0
LINE
  5
19F3A
  8
01
 10
2692.012120010976
 20
-343.7641517762876
 30
0.0
 11
2692.512120010976
 21
-343.6641506128898
 31
0.0
  0
LINE
  5
19F3B
  8
01
 10
2695.512120010976
 20
-343.0641436325035
 30
0.0
 11
2696.012120010976
 21
-342.9641424691057
 31
0.0
  0
LINE
  5
19F3C
  8
01
 10
2695.512120010976
 20
-341.4641436325036
 30
0.0
 11
2696.012120010976
 21
-341.3641424691058
 31
0.0
  0
LINE
  5
19F3D
  8
01
 10
2696.012120010976
 20
-341.3641424691058
 30
0.0
 11
2692.012120010976
 21
-340.5641517762878
 31
0.0
  0
LINE
  5
19F3E
  8
01
 10
2692.012120010976
 20
-342.1641517762877
 30
0.0
 11
2692.512120010976
 21
-342.0641506128899
 31
0.0
  0
LINE
  5
19F3F
  8
01
 10
2692.012120010976
 20
-340.5641517762878
 30
0.0
 11
2692.512120010976
 21
-340.46415061289
 31
0.0
  0
LINE
  5
19F40
  8
01
 10
2696.012120010976
 20
-342.9641424691057
 30
0.0
 11
2692.012120010976
 21
-342.1641517762877
 31
0.0
  0
LINE
  5
19F41
  8
01
 10
2695.512120010976
 20
-339.8641436324991
 30
0.0
 11
2696.012120010976
 21
-339.7641424691018
 31
0.0
  0
LINE
  5
19F43
  8
01
 10
2692.012120010976
 20
-324.5641517762746
 30
0.0
 11
2692.512120010976
 21
-324.4641506128772
 31
0.0
  0
LINE
  5
19F44
  8
01
 10
2695.512120010976
 20
-325.464143632494
 30
0.0
 11
2696.012120010976
 21
-325.3641424690971
 31
0.0
  0
LINE
  5
19F45
  8
01
 10
2696.012120010976
 20
-325.3641424690971
 30
0.0
 11
2692.012120010976
 21
-324.5641517762746
 31
0.0
  0
LINE
  5
19F46
  8
01
 10
2692.012120010976
 20
-322.9641517762742
 30
0.0
 11
2692.512120010976
 21
-322.8641506128773
 31
0.0
  0
LINE
  5
19F47
  8
01
 10
2695.512120010976
 20
-323.8641436324941
 30
0.0
 11
2696.012120010976
 21
-323.7641424690968
 31
0.0
  0
LINE
  5
19F48
  8
01
 10
2696.012120010976
 20
-323.7641424690968
 30
0.0
 11
2692.012120010976
 21
-322.9641517762742
 31
0.0
  0
LINE
  5
19F49
  8
01
 10
2692.012120010976
 20
-321.3641517762743
 30
0.0
 11
2692.512120010976
 21
-321.264150612877
 31
0.0
  0
LINE
  5
19F4A
  8
01
 10
2695.512120010976
 20
-322.2641436324938
 30
0.0
 11
2696.012120010976
 21
-322.1641424690969
 31
0.0
  0
LINE
  5
19F4B
  8
01
 10
2696.012120010976
 20
-322.1641424690969
 30
0.0
 11
2692.012120010976
 21
-321.3641517762743
 31
0.0
  0
LINE
  5
19F4C
  8
01
 10
2692.012120010976
 20
-317.9641517762747
 30
0.0
 11
2692.512120010976
 21
-317.8641506128778
 31
0.0
  0
LINE
  5
19F4D
  8
01
 10
2696.012120010976
 20
-318.7641424690972
 30
0.0
 11
2692.012120010976
 21
-317.9641517762747
 31
0.0
  0
LINE
  5
19F4E
  8
01
 10
2692.012120010976
 20
-316.3641517762748
 30
0.0
 11
2692.512120010976
 21
-316.2641506128774
 31
0.0
  0
LINE
  5
19F4F
  8
01
 10
2695.512120010976
 20
-317.2641436324942
 30
0.0
 11
2696.012120010976
 21
-317.1641424690973
 31
0.0
  0
LINE
  5
19F50
  8
01
 10
2696.012120010976
 20
-317.1641424690973
 30
0.0
 11
2692.012120010976
 21
-316.3641517762748
 31
0.0
  0
LINE
  5
19F51
  8
01
 10
2692.012120010976
 20
-314.7641517762748
 30
0.0
 11
2692.512120010976
 21
-314.6641506128775
 31
0.0
  0
LINE
  5
19F52
  8
01
 10
2695.512120010976
 20
-315.6641436324943
 30
0.0
 11
2696.012120010976
 21
-315.5641424690974
 31
0.0
  0
LINE
  5
19F53
  8
01
 10
2696.012120010976
 20
-315.5641424690974
 30
0.0
 11
2692.012120010976
 21
-314.7641517762748
 31
0.0
  0
LINE
  5
19F54
  8
01
 10
2695.512120010976
 20
-313.8639792057082
 30
0.0
 11
2696.012120010976
 21
-313.7639780423114
 31
0.0
  0
LINE
  5
1A858
  8
01
 10
2364.028640971316
 20
-305.2643847059896
 30
0.0
 11
2365.528640971316
 21
-310.5643812158512
 31
0.0
  0
LINE
  5
1A859
  8
01
 10
2365.528640971316
 20
-310.5643812158512
 30
0.0
 11
2365.528640971316
 21
-344.264549132721
 31
0.0
  0
LINE
  5
1A85A
  8
01
 10
2365.528640971316
 20
-345.2645456425287
 30
0.0
 11
2367.528687507214
 21
-345.2645409888307
 31
0.0
  0
LINE
  5
1A85B
  8
01
 10
2367.528687507214
 20
-345.2645409888307
 30
0.0
 11
2367.528687507214
 21
-346.3645444790261
 31
0.0
  0
ARC
  5
1A85C
  8
01
 10
2366.028687507214
 20
-346.3645444790261
 30
0.0
 40
1.5
 50
270.000133315525
 51
0.0
  0
LINE
  5
1A85D
  8
01
 10
2366.028690997406
 20
-347.864544479022
 30
0.0
 11
2362.028690997406
 21
-347.8645537862014
 31
0.0
  0
ARC
  5
1A85E
  8
01
 10
2362.028687507214
 20
-346.3645537862055
 30
0.0
 40
1.5
 50
180.0
 51
270.000133315525
  0
LINE
  5
1A85F
  8
01
 10
2360.528687507214
 20
-346.3645537862055
 30
0.0
 11
2360.528687507214
 21
-345.2645572763947
 31
0.0
  0
LINE
  5
1A860
  8
01
 10
2360.528687507214
 20
-345.2645572763947
 30
0.0
 11
2362.528640971316
 21
-345.2645526229132
 31
0.0
  0
LINE
  5
1A861
  8
01
 10
2362.528640971316
 20
-344.264549132721
 30
0.0
 11
2362.528640971316
 21
-310.5643881962349
 31
0.0
  0
LINE
  5
1A862
  8
01
 10
2362.528640971316
 20
-310.5643881962349
 30
0.0
 11
2364.028640971316
 21
-305.2643847059896
 31
0.0
  0
LINE
  5
1A863
  8
1CENTER
 10
2364.028687507214
 20
-302.3034701146814
 30
0.0
 11
2364.028687507214
 21
-351.0150333898812
 31
0.0
  0
LINE
  5
1A864
  8
01
 10
2365.123011321209
 20
-307.3643821596677
 30
0.0
 11
2363.160676232334
 21
-306.5643867256165
 31
0.0
  0
LINE
  5
1A865
  8
01
 10
2363.160676232334
 20
-306.5643867256165
 30
0.0
 11
2363.748952807376
 21
-306.2526168693646
 31
0.0
  0
LINE
  5
1A866
  8
01
 10
2366.028640971316
 20
-339.7645444792431
 30
0.0
 11
2362.028640971316
 21
-338.9645537864246
 31
0.0
  0
LINE
  5
1A867
  8
01
 10
2366.028640971316
 20
-328.5645444792387
 30
0.0
 11
2362.028640971316
 21
-327.7645537864162
 31
0.0
  0
LINE
  5
1A868
  8
01
 10
2366.028640971316
 20
-320.3645444792385
 30
0.0
 11
2362.028640971316
 21
-319.5645537864159
 31
0.0
  0
LINE
  5
1A869
  8
01
 10
2362.028640971316
 20
-319.5645537864159
 30
0.0
 11
2362.528640971316
 21
-319.4645526230186
 31
0.0
  0
LINE
  5
1A86A
  8
01
 10
2365.528640971316
 20
-318.8645456426359
 30
0.0
 11
2366.028640971316
 21
-318.7645444792386
 31
0.0
  0
LINE
  5
1A86B
  8
01
 10
2362.028640971316
 20
-327.7645537864162
 30
0.0
 11
2362.528640971316
 21
-327.6645526230188
 31
0.0
  0
LINE
  5
1A86C
  8
01
 10
2362.028640971316
 20
-326.1645537864158
 30
0.0
 11
2362.528640971316
 21
-326.0645526230189
 31
0.0
  0
LINE
  5
1A86D
  8
01
 10
2365.528640971316
 20
-320.4645456426358
 30
0.0
 11
2366.028640971316
 21
-320.3645444792385
 31
0.0
  0
LINE
  5
1A86E
  8
01
 10
2365.528640971316
 20
-327.0645456426357
 30
0.0
 11
2366.028640971316
 21
-326.9645444792384
 31
0.0
  0
LINE
  5
1A86F
  8
01
 10
2366.028640971316
 20
-326.9645444792384
 30
0.0
 11
2362.028640971316
 21
-326.1645537864158
 31
0.0
  0
LINE
  5
1A870
  8
01
 10
2362.707862127927
 20
-308.1643877792219
 30
0.0
 11
2363.25961159173
 21
-307.9816236365939
 31
0.0
  0
LINE
  5
1A871
  8
01
 10
2362.028640971316
 20
-311.3643893596306
 30
0.0
 11
2362.528640971316
 21
-311.2643881962329
 31
0.0
  0
LINE
  5
1A872
  8
01
 10
2362.028640971316
 20
-312.9643893596301
 30
0.0
 11
2362.528640971316
 21
-312.8643881962332
 31
0.0
  0
LINE
  5
1A873
  8
01
 10
2362.25504802352
 20
-309.7643888328273
 30
0.0
 11
2362.791641758791
 21
-309.6351181351981
 31
0.0
  0
LINE
  5
1A874
  8
01
 10
2365.107726374107
 20
-309.0771506184135
 30
0.0
 11
2365.575824829257
 21
-308.964381106063
 31
0.0
  0
LINE
  5
1A875
  8
01
 10
2365.528640971316
 20
-312.2643812158501
 30
0.0
 11
2366.028640971316
 21
-312.1643800524532
 31
0.0
  0
LINE
  5
1A876
  8
01
 10
2365.528640971316
 20
-310.6643812158497
 30
0.0
 11
2366.028640971316
 21
-310.5643800524529
 31
0.0
  0
LINE
  5
1A877
  8
01
 10
2364.665839480578
 20
-307.5158179561074
 30
0.0
 11
2365.123011321209
 21
-307.3643821596677
 31
0.0
  0
LINE
  5
1A878
  8
01
 10
2365.575824829257
 20
-308.964381106063
 30
0.0
 11
2362.707862127927
 21
-308.1643877792219
 31
0.0
  0
LINE
  5
1A879
  8
01
 10
2366.028640971316
 20
-312.1643800524532
 30
0.0
 11
2362.028640971316
 21
-311.3643893596306
 31
0.0
  0
LINE
  5
1A87A
  8
01
 10
2366.028640971316
 20
-310.5643800524529
 30
0.0
 11
2362.25504802352
 21
-309.7643888328273
 31
0.0
  0
LINE
  5
1A87B
  8
01
 10
2366.028640971316
 20
-313.7643800524527
 30
0.0
 11
2362.028640971316
 21
-312.9643893596301
 31
0.0
  0
LINE
  5
1A87C
  8
01
 10
2366.028640971316
 20
-336.5645444792428
 30
0.0
 11
2362.028640971316
 21
-335.7645537864248
 31
0.0
  0
LINE
  5
1A87D
  8
01
 10
2362.028640971316
 20
-335.7645537864248
 30
0.0
 11
2362.528640971316
 21
-335.664552623027
 31
0.0
  0
LINE
  5
1A87E
  8
01
 10
2365.528640971316
 20
-335.0645456426362
 30
0.0
 11
2366.028640971316
 21
-334.9645444792384
 31
0.0
  0
LINE
  5
1A87F
  8
01
 10
2362.028640971316
 20
-337.3645537864247
 30
0.0
 11
2362.528640971316
 21
-337.2645526230269
 31
0.0
  0
LINE
  5
1A880
  8
01
 10
2362.028640971316
 20
-338.9645537864246
 30
0.0
 11
2362.528640971316
 21
-338.8645526230268
 31
0.0
  0
LINE
  5
1A881
  8
01
 10
2365.528640971316
 20
-336.6645456426406
 30
0.0
 11
2366.028640971316
 21
-336.5645444792428
 31
0.0
  0
LINE
  5
1A882
  8
01
 10
2365.528640971316
 20
-338.2645456426405
 30
0.0
 11
2366.028640971316
 21
-338.1645444792432
 31
0.0
  0
LINE
  5
1A883
  8
01
 10
2366.028640971316
 20
-338.1645444792432
 30
0.0
 11
2362.028640971316
 21
-337.3645537864247
 31
0.0
  0
LINE
  5
1A884
  8
01
 10
2362.028640971316
 20
-330.9645537864201
 30
0.0
 11
2362.528640971316
 21
-330.8645526230227
 31
0.0
  0
LINE
  5
1A885
  8
01
 10
2362.028640971316
 20
-329.3645537864161
 30
0.0
 11
2362.528640971316
 21
-329.2645526230187
 31
0.0
  0
LINE
  5
1A886
  8
01
 10
2362.028640971316
 20
-334.1645537864204
 30
0.0
 11
2362.528640971316
 21
-334.0645526230226
 31
0.0
  0
LINE
  5
1A887
  8
01
 10
2362.028640971316
 20
-332.5645537864204
 30
0.0
 11
2362.528640971316
 21
-332.4645526230227
 31
0.0
  0
LINE
  5
1A888
  8
01
 10
2365.528640971316
 20
-328.6645456426356
 30
0.0
 11
2366.028640971316
 21
-328.5645444792387
 31
0.0
  0
LINE
  5
1A889
  8
01
 10
2365.528640971316
 20
-330.2645456426364
 30
0.0
 11
2366.028640971316
 21
-330.1645444792387
 31
0.0
  0
LINE
  5
1A88A
  8
01
 10
2365.528640971316
 20
-333.4645456426363
 30
0.0
 11
2366.028640971316
 21
-333.3645444792385
 31
0.0
  0
LINE
  5
1A88B
  8
01
 10
2365.528640971316
 20
-331.8645456426364
 30
0.0
 11
2366.028640971316
 21
-331.7645444792386
 31
0.0
  0
LINE
  5
1A88C
  8
01
 10
2366.028640971316
 20
-331.7645444792386
 30
0.0
 11
2362.028640971316
 21
-330.9645537864201
 31
0.0
  0
LINE
  5
1A88D
  8
01
 10
2366.028640971316
 20
-330.1645444792387
 30
0.0
 11
2362.028640971316
 21
-329.3645537864161
 31
0.0
  0
LINE
  5
1A88E
  8
01
 10
2366.028640971316
 20
-333.3645444792385
 30
0.0
 11
2362.028640971316
 21
-332.5645537864204
 31
0.0
  0
LINE
  5
1A88F
  8
01
 10
2366.028640971316
 20
-334.9645444792384
 30
0.0
 11
2362.028640971316
 21
-334.1645537864204
 31
0.0
  0
LINE
  5
1A890
  8
01
 10
2362.528640971316
 20
-345.2645526229132
 30
0.0
 11
2365.528640971316
 21
-345.2645456425287
 31
0.0
  0
LINE
  5
1A891
  8
01
 10
2364.528646787787
 20
-344.264549132721
 30
0.0
 11
2362.028640971316
 21
-343.7645537864289
 31
0.0
  0
LINE
  5
1A892
  8
01
 10
2362.028640971316
 20
-343.7645537864289
 30
0.0
 11
2362.528640971316
 21
-343.6645526230311
 31
0.0
  0
LINE
  5
1A893
  8
01
 10
2365.528640971316
 20
-343.0645456426448
 30
0.0
 11
2366.028640971316
 21
-342.964544479247
 31
0.0
  0
LINE
  5
1A894
  8
01
 10
2365.528640971316
 20
-341.4645456426449
 30
0.0
 11
2366.028640971316
 21
-341.3645444792471
 31
0.0
  0
LINE
  5
1A895
  8
01
 10
2366.028640971316
 20
-341.3645444792471
 30
0.0
 11
2362.028640971316
 21
-340.5645537864291
 31
0.0
  0
LINE
  5
1A896
  8
01
 10
2362.028640971316
 20
-342.164553786429
 30
0.0
 11
2362.528640971316
 21
-342.0645526230312
 31
0.0
  0
LINE
  5
1A897
  8
01
 10
2362.028640971316
 20
-340.5645537864291
 30
0.0
 11
2362.528640971316
 21
-340.4645526230313
 31
0.0
  0
LINE
  5
1A898
  8
01
 10
2366.028640971316
 20
-342.964544479247
 30
0.0
 11
2362.028640971316
 21
-342.164553786429
 31
0.0
  0
LINE
  5
1A899
  8
01
 10
2365.528640971316
 20
-339.8645456426405
 30
0.0
 11
2366.028640971316
 21
-339.7645444792431
 31
0.0
  0
LINE
  5
1A89B
  8
01
 10
2362.028640971316
 20
-324.5645537864159
 30
0.0
 11
2362.528640971316
 21
-324.4645526230186
 31
0.0
  0
LINE
  5
1A89C
  8
01
 10
2365.528640971316
 20
-325.4645456426354
 30
0.0
 11
2366.028640971316
 21
-325.3645444792385
 31
0.0
  0
LINE
  5
1A89D
  8
01
 10
2366.028640971316
 20
-325.3645444792385
 30
0.0
 11
2362.028640971316
 21
-324.5645537864159
 31
0.0
  0
LINE
  5
1A89E
  8
01
 10
2362.028640971316
 20
-322.9645537864155
 30
0.0
 11
2362.528640971316
 21
-322.8645526230187
 31
0.0
  0
LINE
  5
1A89F
  8
01
 10
2365.528640971316
 20
-323.8645456426354
 30
0.0
 11
2366.028640971316
 21
-323.7645444792381
 31
0.0
  0
LINE
  5
1A8A0
  8
01
 10
2366.028640971316
 20
-323.7645444792381
 30
0.0
 11
2362.028640971316
 21
-322.9645537864155
 31
0.0
  0
LINE
  5
1A8A1
  8
01
 10
2362.028640971316
 20
-321.3645537864156
 30
0.0
 11
2362.528640971316
 21
-321.2645526230183
 31
0.0
  0
LINE
  5
1A8A2
  8
01
 10
2365.528640971316
 20
-322.2645456426351
 30
0.0
 11
2366.028640971316
 21
-322.1645444792382
 31
0.0
  0
LINE
  5
1A8A3
  8
01
 10
2366.028640971316
 20
-322.1645444792382
 30
0.0
 11
2362.028640971316
 21
-321.3645537864156
 31
0.0
  0
LINE
  5
1A8A4
  8
01
 10
2362.028640971316
 20
-317.964553786416
 30
0.0
 11
2362.528640971316
 21
-317.8645526230191
 31
0.0
  0
LINE
  5
1A8A5
  8
01
 10
2366.028640971316
 20
-318.7645444792386
 30
0.0
 11
2362.028640971316
 21
-317.964553786416
 31
0.0
  0
LINE
  5
1A8A6
  8
01
 10
2362.028640971316
 20
-316.3645537864161
 30
0.0
 11
2362.528640971316
 21
-316.2645526230187
 31
0.0
  0
LINE
  5
1A8A7
  8
01
 10
2365.528640971316
 20
-317.2645456426355
 30
0.0
 11
2366.028640971316
 21
-317.1645444792387
 31
0.0
  0
LINE
  5
1A8A8
  8
01
 10
2366.028640971316
 20
-317.1645444792387
 30
0.0
 11
2362.028640971316
 21
-316.3645537864161
 31
0.0
  0
LINE
  5
1A8A9
  8
01
 10
2362.028640971316
 20
-314.7645537864162
 30
0.0
 11
2362.528640971316
 21
-314.6645526230188
 31
0.0
  0
LINE
  5
1A8AA
  8
01
 10
2365.528640971316
 20
-315.6645456426356
 30
0.0
 11
2366.028640971316
 21
-315.5645444792387
 31
0.0
  0
LINE
  5
1A8AB
  8
01
 10
2366.028640971316
 20
-315.5645444792387
 30
0.0
 11
2362.028640971316
 21
-314.7645537864162
 31
0.0
  0
LINE
  5
1A8AC
  8
01
 10
2365.528640971316
 20
-313.8643812158496
 30
0.0
 11
2366.028640971316
 21
-313.7643800524527
 31
0.0
  0
LINE
  5
1A8AE
  8
01
 10
2349.278640971316
 20
-305.2643847059896
 30
0.0
 11
2350.778640971316
 21
-310.5643812158512
 31
0.0
  0
LINE
  5
1A8AF
  8
01
 10
2350.778640971316
 20
-310.5643812158512
 30
0.0
 11
2350.778640971316
 21
-344.264549132721
 31
0.0
  0
LINE
  5
1A8B0
  8
01
 10
2350.778640971316
 20
-345.2645456425287
 30
0.0
 11
2352.778687507214
 21
-345.2645409888307
 31
0.0
  0
LINE
  5
1A8B1
  8
01
 10
2352.778687507214
 20
-345.2645409888307
 30
0.0
 11
2352.778687507214
 21
-346.3645444790261
 31
0.0
  0
ARC
  5
1A8B2
  8
01
 10
2351.278687507214
 20
-346.3645444790261
 30
0.0
 40
1.5
 50
270.000133315525
 51
0.0
  0
LINE
  5
1A8B3
  8
01
 10
2351.278690997406
 20
-347.864544479022
 30
0.0
 11
2347.278690997406
 21
-347.8645537862014
 31
0.0
  0
ARC
  5
1A8B4
  8
01
 10
2347.278687507214
 20
-346.3645537862055
 30
0.0
 40
1.5
 50
180.0
 51
270.000133315525
  0
LINE
  5
1A8B5
  8
01
 10
2345.778687507214
 20
-346.3645537862055
 30
0.0
 11
2345.778687507214
 21
-345.2645572763947
 31
0.0
  0
LINE
  5
1A8B6
  8
01
 10
2345.778687507214
 20
-345.2645572763947
 30
0.0
 11
2347.778640971316
 21
-345.2645526229132
 31
0.0
  0
LINE
  5
1A8B7
  8
01
 10
2347.778640971316
 20
-344.264549132721
 30
0.0
 11
2347.778640971316
 21
-310.5643881962349
 31
0.0
  0
LINE
  5
1A8B8
  8
01
 10
2347.778640971316
 20
-310.5643881962349
 30
0.0
 11
2349.278640971316
 21
-305.2643847059896
 31
0.0
  0
LINE
  5
1A8B9
  8
1CENTER
 10
2349.278687507214
 20
-302.3034701146814
 30
0.0
 11
2349.278687507214
 21
-351.0150333898812
 31
0.0
  0
LINE
  5
1A8BA
  8
01
 10
2350.373011321209
 20
-307.3643821596677
 30
0.0
 11
2348.410676232334
 21
-306.5643867256165
 31
0.0
  0
LINE
  5
1A8BB
  8
01
 10
2348.410676232334
 20
-306.5643867256165
 30
0.0
 11
2348.998952807376
 21
-306.2526168693646
 31
0.0
  0
LINE
  5
1A8BC
  8
01
 10
2351.278640971316
 20
-339.7645444792431
 30
0.0
 11
2347.278640971316
 21
-338.9645537864246
 31
0.0
  0
LINE
  5
1A8BD
  8
01
 10
2351.278640971316
 20
-328.5645444792387
 30
0.0
 11
2347.278640971316
 21
-327.7645537864162
 31
0.0
  0
LINE
  5
1A8BE
  8
01
 10
2351.278640971316
 20
-320.3645444792385
 30
0.0
 11
2347.278640971316
 21
-319.5645537864159
 31
0.0
  0
LINE
  5
1A8BF
  8
01
 10
2347.278640971316
 20
-319.5645537864159
 30
0.0
 11
2347.778640971316
 21
-319.4645526230186
 31
0.0
  0
LINE
  5
1A8C0
  8
01
 10
2350.778640971316
 20
-318.8645456426359
 30
0.0
 11
2351.278640971316
 21
-318.7645444792386
 31
0.0
  0
LINE
  5
1A8C1
  8
01
 10
2347.278640971316
 20
-327.7645537864162
 30
0.0
 11
2347.778640971316
 21
-327.6645526230188
 31
0.0
  0
LINE
  5
1A8C2
  8
01
 10
2347.278640971316
 20
-326.1645537864158
 30
0.0
 11
2347.778640971316
 21
-326.0645526230189
 31
0.0
  0
LINE
  5
1A8C3
  8
01
 10
2350.778640971316
 20
-320.4645456426358
 30
0.0
 11
2351.278640971316
 21
-320.3645444792385
 31
0.0
  0
LINE
  5
1A8C4
  8
01
 10
2350.778640971316
 20
-327.0645456426357
 30
0.0
 11
2351.278640971316
 21
-326.9645444792384
 31
0.0
  0
LINE
  5
1A8C5
  8
01
 10
2351.278640971316
 20
-326.9645444792384
 30
0.0
 11
2347.278640971316
 21
-326.1645537864158
 31
0.0
  0
LINE
  5
1A8C6
  8
01
 10
2347.957862127927
 20
-308.1643877792219
 30
0.0
 11
2348.50961159173
 21
-307.9816236365939
 31
0.0
  0
LINE
  5
1A8C7
  8
01
 10
2347.278640971316
 20
-311.3643893596306
 30
0.0
 11
2347.778640971316
 21
-311.2643881962329
 31
0.0
  0
LINE
  5
1A8C8
  8
01
 10
2347.278640971316
 20
-312.9643893596301
 30
0.0
 11
2347.778640971316
 21
-312.8643881962332
 31
0.0
  0
LINE
  5
1A8C9
  8
01
 10
2347.50504802352
 20
-309.7643888328273
 30
0.0
 11
2348.041641758791
 21
-309.6351181351981
 31
0.0
  0
LINE
  5
1A8CA
  8
01
 10
2350.357726374107
 20
-309.0771506184135
 30
0.0
 11
2350.825824829257
 21
-308.964381106063
 31
0.0
  0
LINE
  5
1A8CB
  8
01
 10
2350.778640971316
 20
-312.2643812158501
 30
0.0
 11
2351.278640971316
 21
-312.1643800524532
 31
0.0
  0
LINE
  5
1A8CC
  8
01
 10
2350.778640971316
 20
-310.6643812158497
 30
0.0
 11
2351.278640971316
 21
-310.5643800524529
 31
0.0
  0
LINE
  5
1A8CD
  8
01
 10
2349.915839480578
 20
-307.5158179561074
 30
0.0
 11
2350.373011321209
 21
-307.3643821596677
 31
0.0
  0
LINE
  5
1A8CE
  8
01
 10
2350.825824829257
 20
-308.964381106063
 30
0.0
 11
2347.957862127927
 21
-308.1643877792219
 31
0.0
  0
LINE
  5
1A8CF
  8
01
 10
2351.278640971316
 20
-312.1643800524532
 30
0.0
 11
2347.278640971316
 21
-311.3643893596306
 31
0.0
  0
LINE
  5
1A8D0
  8
01
 10
2351.278640971316
 20
-310.5643800524529
 30
0.0
 11
2347.50504802352
 21
-309.7643888328273
 31
0.0
  0
LINE
  5
1A8D1
  8
01
 10
2351.278640971316
 20
-313.7643800524527
 30
0.0
 11
2347.278640971316
 21
-312.9643893596301
 31
0.0
  0
LINE
  5
1A8D2
  8
01
 10
2351.278640971316
 20
-336.5645444792428
 30
0.0
 11
2347.278640971316
 21
-335.7645537864248
 31
0.0
  0
LINE
  5
1A8D3
  8
01
 10
2347.278640971316
 20
-335.7645537864248
 30
0.0
 11
2347.778640971316
 21
-335.664552623027
 31
0.0
  0
LINE
  5
1A8D4
  8
01
 10
2350.778640971316
 20
-335.0645456426362
 30
0.0
 11
2351.278640971316
 21
-334.9645444792384
 31
0.0
  0
LINE
  5
1A8D5
  8
01
 10
2347.278640971316
 20
-337.3645537864247
 30
0.0
 11
2347.778640971316
 21
-337.2645526230269
 31
0.0
  0
LINE
  5
1A8D6
  8
01
 10
2347.278640971316
 20
-338.9645537864246
 30
0.0
 11
2347.778640971316
 21
-338.8645526230268
 31
0.0
  0
LINE
  5
1A8D7
  8
01
 10
2350.778640971316
 20
-336.6645456426406
 30
0.0
 11
2351.278640971316
 21
-336.5645444792428
 31
0.0
  0
LINE
  5
1A8D8
  8
01
 10
2350.778640971316
 20
-338.2645456426405
 30
0.0
 11
2351.278640971316
 21
-338.1645444792432
 31
0.0
  0
LINE
  5
1A8D9
  8
01
 10
2351.278640971316
 20
-338.1645444792432
 30
0.0
 11
2347.278640971316
 21
-337.3645537864247
 31
0.0
  0
LINE
  5
1A8DA
  8
01
 10
2347.278640971316
 20
-330.9645537864201
 30
0.0
 11
2347.778640971316
 21
-330.8645526230227
 31
0.0
  0
LINE
  5
1A8DB
  8
01
 10
2347.278640971316
 20
-329.3645537864161
 30
0.0
 11
2347.778640971316
 21
-329.2645526230187
 31
0.0
  0
LINE
  5
1A8DC
  8
01
 10
2347.278640971316
 20
-334.1645537864204
 30
0.0
 11
2347.778640971316
 21
-334.0645526230226
 31
0.0
  0
LINE
  5
1A8DD
  8
01
 10
2347.278640971316
 20
-332.5645537864204
 30
0.0
 11
2347.778640971316
 21
-332.4645526230227
 31
0.0
  0
LINE
  5
1A8DE
  8
01
 10
2350.778640971316
 20
-328.6645456426356
 30
0.0
 11
2351.278640971316
 21
-328.5645444792387
 31
0.0
  0
LINE
  5
1A8DF
  8
01
 10
2350.778640971316
 20
-330.2645456426364
 30
0.0
 11
2351.278640971316
 21
-330.1645444792387
 31
0.0
  0
LINE
  5
1A8E0
  8
01
 10
2350.778640971316
 20
-333.4645456426363
 30
0.0
 11
2351.278640971316
 21
-333.3645444792385
 31
0.0
  0
LINE
  5
1A8E1
  8
01
 10
2350.778640971316
 20
-331.8645456426364
 30
0.0
 11
2351.278640971316
 21
-331.7645444792386
 31
0.0
  0
LINE
  5
1A8E2
  8
01
 10
2351.278640971316
 20
-331.7645444792386
 30
0.0
 11
2347.278640971316
 21
-330.9645537864201
 31
0.0
  0
LINE
  5
1A8E3
  8
01
 10
2351.278640971316
 20
-330.1645444792387
 30
0.0
 11
2347.278640971316
 21
-329.3645537864161
 31
0.0
  0
LINE
  5
1A8E4
  8
01
 10
2351.278640971316
 20
-333.3645444792385
 30
0.0
 11
2347.278640971316
 21
-332.5645537864204
 31
0.0
  0
LINE
  5
1A8E5
  8
01
 10
2351.278640971316
 20
-334.9645444792384
 30
0.0
 11
2347.278640971316
 21
-334.1645537864204
 31
0.0
  0
LINE
  5
1A8E6
  8
01
 10
2347.778640971316
 20
-345.2645526229132
 30
0.0
 11
2350.778640971316
 21
-345.2645456425287
 31
0.0
  0
LINE
  5
1A8E7
  8
01
 10
2349.778646787787
 20
-344.264549132721
 30
0.0
 11
2347.278640971316
 21
-343.7645537864289
 31
0.0
  0
LINE
  5
1A8E8
  8
01
 10
2347.278640971316
 20
-343.7645537864289
 30
0.0
 11
2347.778640971316
 21
-343.6645526230311
 31
0.0
  0
LINE
  5
1A8E9
  8
01
 10
2350.778640971316
 20
-343.0645456426448
 30
0.0
 11
2351.278640971316
 21
-342.964544479247
 31
0.0
  0
LINE
  5
1A8EA
  8
01
 10
2350.778640971316
 20
-341.4645456426449
 30
0.0
 11
2351.278640971316
 21
-341.3645444792471
 31
0.0
  0
LINE
  5
1A8EB
  8
01
 10
2351.278640971316
 20
-341.3645444792471
 30
0.0
 11
2347.278640971316
 21
-340.5645537864291
 31
0.0
  0
LINE
  5
1A8EC
  8
01
 10
2347.278640971316
 20
-342.164553786429
 30
0.0
 11
2347.778640971316
 21
-342.0645526230312
 31
0.0
  0
LINE
  5
1A8ED
  8
01
 10
2347.278640971316
 20
-340.5645537864291
 30
0.0
 11
2347.778640971316
 21
-340.4645526230313
 31
0.0
  0
LINE
  5
1A8EE
  8
01
 10
2351.278640971316
 20
-342.964544479247
 30
0.0
 11
2347.278640971316
 21
-342.164553786429
 31
0.0
  0
LINE
  5
1A8EF
  8
01
 10
2350.778640971316
 20
-339.8645456426405
 30
0.0
 11
2351.278640971316
 21
-339.7645444792431
 31
0.0
  0
LINE
  5
1A8F1
  8
01
 10
2347.278640971316
 20
-324.5645537864159
 30
0.0
 11
2347.778640971316
 21
-324.4645526230186
 31
0.0
  0
LINE
  5
1A8F2
  8
01
 10
2350.778640971316
 20
-325.4645456426354
 30
0.0
 11
2351.278640971316
 21
-325.3645444792385
 31
0.0
  0
LINE
  5
1A8F3
  8
01
 10
2351.278640971316
 20
-325.3645444792385
 30
0.0
 11
2347.278640971316
 21
-324.5645537864159
 31
0.0
  0
LINE
  5
1A8F4
  8
01
 10
2347.278640971316
 20
-322.9645537864155
 30
0.0
 11
2347.778640971316
 21
-322.8645526230187
 31
0.0
  0
LINE
  5
1A8F5
  8
01
 10
2350.778640971316
 20
-323.8645456426354
 30
0.0
 11
2351.278640971316
 21
-323.7645444792381
 31
0.0
  0
LINE
  5
1A8F6
  8
01
 10
2351.278640971316
 20
-323.7645444792381
 30
0.0
 11
2347.278640971316
 21
-322.9645537864155
 31
0.0
  0
LINE
  5
1A8F7
  8
01
 10
2347.278640971316
 20
-321.3645537864156
 30
0.0
 11
2347.778640971316
 21
-321.2645526230183
 31
0.0
  0
LINE
  5
1A8F8
  8
01
 10
2350.778640971316
 20
-322.2645456426351
 30
0.0
 11
2351.278640971316
 21
-322.1645444792382
 31
0.0
  0
LINE
  5
1A8F9
  8
01
 10
2351.278640971316
 20
-322.1645444792382
 30
0.0
 11
2347.278640971316
 21
-321.3645537864156
 31
0.0
  0
LINE
  5
1A8FA
  8
01
 10
2347.278640971316
 20
-317.964553786416
 30
0.0
 11
2347.778640971316
 21
-317.8645526230191
 31
0.0
  0
LINE
  5
1A8FB
  8
01
 10
2351.278640971316
 20
-318.7645444792386
 30
0.0
 11
2347.278640971316
 21
-317.964553786416
 31
0.0
  0
LINE
  5
1A8FC
  8
01
 10
2347.278640971316
 20
-316.3645537864161
 30
0.0
 11
2347.778640971316
 21
-316.2645526230187
 31
0.0
  0
LINE
  5
1A8FD
  8
01
 10
2350.778640971316
 20
-317.2645456426355
 30
0.0
 11
2351.278640971316
 21
-317.1645444792387
 31
0.0
  0
LINE
  5
1A8FE
  8
01
 10
2351.278640971316
 20
-317.1645444792387
 30
0.0
 11
2347.278640971316
 21
-316.3645537864161
 31
0.0
  0
LINE
  5
1A8FF
  8
01
 10
2347.278640971316
 20
-314.7645537864162
 30
0.0
 11
2347.778640971316
 21
-314.6645526230188
 31
0.0
  0
LINE
  5
1A900
  8
01
 10
2350.778640971316
 20
-315.6645456426356
 30
0.0
 11
2351.278640971316
 21
-315.5645444792387
 31
0.0
  0
LINE
  5
1A901
  8
01
 10
2351.278640971316
 20
-315.5645444792387
 30
0.0
 11
2347.278640971316
 21
-314.7645537864162
 31
0.0
  0
LINE
  5
1A902
  8
01
 10
2350.778640971316
 20
-313.8643812158496
 30
0.0
 11
2351.278640971316
 21
-313.7643800524527
 31
0.0
  0
LINE
  5
1A904
  8
01
 10
2262.577464743584
 20
-305.2643847059896
 30
0.0
 11
2261.077464743584
 21
-310.5643812158512
 31
0.0
  0
LINE
  5
1A905
  8
01
 10
2261.077464743584
 20
-310.5643812158512
 30
0.0
 11
2261.077464743584
 21
-344.264549132721
 31
0.0
  0
LINE
  5
1A906
  8
01
 10
2261.077464743584
 20
-345.2645456425287
 30
0.0
 11
2259.077418207686
 21
-345.2645409888307
 31
0.0
  0
LINE
  5
1A907
  8
01
 10
2259.077418207686
 20
-345.2645409888307
 30
0.0
 11
2259.077418207686
 21
-346.3645444790261
 31
0.0
  0
ARC
  5
1A908
  8
01
 10
2260.577418207686
 20
-346.3645444790261
 30
0.0
 40
1.5
 50
180.0
 51
269.999866684475
  0
LINE
  5
1A909
  8
01
 10
2260.577414717494
 20
-347.864544479022
 30
0.0
 11
2264.577414717494
 21
-347.8645537862014
 31
0.0
  0
ARC
  5
1A90A
  8
01
 10
2264.577418207686
 20
-346.3645537862055
 30
0.0
 40
1.5
 50
269.999866684475
 51
0.000000000000007
  0
LINE
  5
1A90B
  8
01
 10
2266.077418207686
 20
-346.3645537862055
 30
0.0
 11
2266.077418207686
 21
-345.2645572763947
 31
0.0
  0
LINE
  5
1A90C
  8
01
 10
2266.077418207686
 20
-345.2645572763947
 30
0.0
 11
2264.077464743584
 21
-345.2645526229132
 31
0.0
  0
LINE
  5
1A90D
  8
01
 10
2264.077464743584
 20
-344.264549132721
 30
0.0
 11
2264.077464743584
 21
-310.5643881962349
 31
0.0
  0
LINE
  5
1A90E
  8
01
 10
2264.077464743584
 20
-310.5643881962349
 30
0.0
 11
2262.577464743584
 21
-305.2643847059896
 31
0.0
  0
LINE
  5
1A90F
  8
1CENTER
 10
2262.577418207686
 20
-302.3034701146814
 30
0.0
 11
2262.577418207686
 21
-351.0150333898812
 31
0.0
  0
LINE
  5
1A910
  8
01
 10
2261.483094393691
 20
-307.3643821596677
 30
0.0
 11
2263.445429482566
 21
-306.5643867256165
 31
0.0
  0
LINE
  5
1A911
  8
01
 10
2263.445429482566
 20
-306.5643867256165
 30
0.0
 11
2262.857152907524
 21
-306.2526168693646
 31
0.0
  0
LINE
  5
1A912
  8
01
 10
2260.577464743584
 20
-339.7645444792431
 30
0.0
 11
2264.577464743584
 21
-338.9645537864246
 31
0.0
  0
LINE
  5
1A913
  8
01
 10
2260.577464743584
 20
-328.5645444792387
 30
0.0
 11
2264.577464743584
 21
-327.7645537864162
 31
0.0
  0
LINE
  5
1A914
  8
01
 10
2260.577464743584
 20
-320.3645444792385
 30
0.0
 11
2264.577464743584
 21
-319.5645537864159
 31
0.0
  0
LINE
  5
1A915
  8
01
 10
2264.577464743584
 20
-319.5645537864159
 30
0.0
 11
2264.077464743584
 21
-319.4645526230186
 31
0.0
  0
LINE
  5
1A916
  8
01
 10
2261.077464743584
 20
-318.8645456426359
 30
0.0
 11
2260.577464743584
 21
-318.7645444792386
 31
0.0
  0
LINE
  5
1A917
  8
01
 10
2264.577464743584
 20
-327.7645537864162
 30
0.0
 11
2264.077464743584
 21
-327.6645526230188
 31
0.0
  0
LINE
  5
1A918
  8
01
 10
2264.577464743584
 20
-326.1645537864158
 30
0.0
 11
2264.077464743584
 21
-326.0645526230189
 31
0.0
  0
LINE
  5
1A919
  8
01
 10
2261.077464743584
 20
-320.4645456426358
 30
0.0
 11
2260.577464743584
 21
-320.3645444792385
 31
0.0
  0
LINE
  5
1A91A
  8
01
 10
2261.077464743584
 20
-327.0645456426357
 30
0.0
 11
2260.577464743584
 21
-326.9645444792384
 31
0.0
  0
LINE
  5
1A91B
  8
01
 10
2260.577464743584
 20
-326.9645444792384
 30
0.0
 11
2264.577464743584
 21
-326.1645537864158
 31
0.0
  0
LINE
  5
1A91C
  8
01
 10
2263.898243586973
 20
-308.1643877792219
 30
0.0
 11
2263.34649412317
 21
-307.9816236365939
 31
0.0
  0
LINE
  5
1A91D
  8
01
 10
2264.577464743584
 20
-311.3643893596306
 30
0.0
 11
2264.077464743584
 21
-311.2643881962329
 31
0.0
  0
LINE
  5
1A91E
  8
01
 10
2264.577464743584
 20
-312.9643893596301
 30
0.0
 11
2264.077464743584
 21
-312.8643881962332
 31
0.0
  0
LINE
  5
1A91F
  8
01
 10
2264.35105769138
 20
-309.7643888328273
 30
0.0
 11
2263.814463956109
 21
-309.6351181351981
 31
0.0
  0
LINE
  5
1A920
  8
01
 10
2261.498379340793
 20
-309.0771506184135
 30
0.0
 11
2261.030280885643
 21
-308.964381106063
 31
0.0
  0
LINE
  5
1A921
  8
01
 10
2261.077464743584
 20
-312.2643812158501
 30
0.0
 11
2260.577464743584
 21
-312.1643800524532
 31
0.0
  0
LINE
  5
1A922
  8
01
 10
2261.077464743584
 20
-310.6643812158497
 30
0.0
 11
2260.577464743584
 21
-310.5643800524529
 31
0.0
  0
LINE
  5
1A923
  8
01
 10
2261.940266234322
 20
-307.5158179561074
 30
0.0
 11
2261.483094393691
 21
-307.3643821596677
 31
0.0
  0
LINE
  5
1A924
  8
01
 10
2261.030280885643
 20
-308.964381106063
 30
0.0
 11
2263.898243586973
 21
-308.1643877792219
 31
0.0
  0
LINE
  5
1A925
  8
01
 10
2260.577464743584
 20
-312.1643800524532
 30
0.0
 11
2264.577464743584
 21
-311.3643893596306
 31
0.0
  0
LINE
  5
1A926
  8
01
 10
2260.577464743584
 20
-310.5643800524529
 30
0.0
 11
2264.35105769138
 21
-309.7643888328273
 31
0.0
  0
LINE
  5
1A927
  8
01
 10
2260.577464743584
 20
-313.7643800524527
 30
0.0
 11
2264.577464743584
 21
-312.9643893596301
 31
0.0
  0
LINE
  5
1A928
  8
01
 10
2260.577464743584
 20
-336.5645444792428
 30
0.0
 11
2264.577464743584
 21
-335.7645537864248
 31
0.0
  0
LINE
  5
1A929
  8
01
 10
2264.577464743584
 20
-335.7645537864248
 30
0.0
 11
2264.077464743584
 21
-335.664552623027
 31
0.0
  0
LINE
  5
1A92A
  8
01
 10
2261.077464743584
 20
-335.0645456426362
 30
0.0
 11
2260.577464743584
 21
-334.9645444792384
 31
0.0
  0
LINE
  5
1A92B
  8
01
 10
2264.577464743584
 20
-337.3645537864247
 30
0.0
 11
2264.077464743584
 21
-337.2645526230269
 31
0.0
  0
LINE
  5
1A92C
  8
01
 10
2264.577464743584
 20
-338.9645537864246
 30
0.0
 11
2264.077464743584
 21
-338.8645526230268
 31
0.0
  0
LINE
  5
1A92D
  8
01
 10
2261.077464743584
 20
-336.6645456426406
 30
0.0
 11
2260.577464743584
 21
-336.5645444792428
 31
0.0
  0
LINE
  5
1A92E
  8
01
 10
2261.077464743584
 20
-338.2645456426405
 30
0.0
 11
2260.577464743584
 21
-338.1645444792432
 31
0.0
  0
LINE
  5
1A92F
  8
01
 10
2260.577464743584
 20
-338.1645444792432
 30
0.0
 11
2264.577464743584
 21
-337.3645537864247
 31
0.0
  0
LINE
  5
1A930
  8
01
 10
2264.577464743584
 20
-330.9645537864201
 30
0.0
 11
2264.077464743584
 21
-330.8645526230227
 31
0.0
  0
LINE
  5
1A931
  8
01
 10
2264.577464743584
 20
-329.3645537864161
 30
0.0
 11
2264.077464743584
 21
-329.2645526230187
 31
0.0
  0
LINE
  5
1A932
  8
01
 10
2264.577464743584
 20
-334.1645537864204
 30
0.0
 11
2264.077464743584
 21
-334.0645526230226
 31
0.0
  0
LINE
  5
1A933
  8
01
 10
2264.577464743584
 20
-332.5645537864204
 30
0.0
 11
2264.077464743584
 21
-332.4645526230227
 31
0.0
  0
LINE
  5
1A934
  8
01
 10
2261.077464743584
 20
-328.6645456426356
 30
0.0
 11
2260.577464743584
 21
-328.5645444792387
 31
0.0
  0
LINE
  5
1A935
  8
01
 10
2261.077464743584
 20
-330.2645456426364
 30
0.0
 11
2260.577464743584
 21
-330.1645444792387
 31
0.0
  0
LINE
  5
1A936
  8
01
 10
2261.077464743584
 20
-333.4645456426363
 30
0.0
 11
2260.577464743584
 21
-333.3645444792385
 31
0.0
  0
LINE
  5
1A937
  8
01
 10
2261.077464743584
 20
-331.8645456426364
 30
0.0
 11
2260.577464743584
 21
-331.7645444792386
 31
0.0
  0
LINE
  5
1A938
  8
01
 10
2260.577464743584
 20
-331.7645444792386
 30
0.0
 11
2264.577464743584
 21
-330.9645537864201
 31
0.0
  0
LINE
  5
1A939
  8
01
 10
2260.577464743584
 20
-330.1645444792387
 30
0.0
 11
2264.577464743584
 21
-329.3645537864161
 31
0.0
  0
LINE
  5
1A93A
  8
01
 10
2260.577464743584
 20
-333.3645444792385
 30
0.0
 11
2264.577464743584
 21
-332.5645537864204
 31
0.0
  0
LINE
  5
1A93B
  8
01
 10
2260.577464743584
 20
-334.9645444792384
 30
0.0
 11
2264.577464743584
 21
-334.1645537864204
 31
0.0
  0
LINE
  5
1A93C
  8
01
 10
2264.077464743584
 20
-345.2645526229132
 30
0.0
 11
2261.077464743584
 21
-345.2645456425287
 31
0.0
  0
LINE
  5
1A93D
  8
01
 10
2262.077458927113
 20
-344.264549132721
 30
0.0
 11
2264.577464743584
 21
-343.7645537864289
 31
0.0
  0
LINE
  5
1A93E
  8
01
 10
2264.577464743584
 20
-343.7645537864289
 30
0.0
 11
2264.077464743584
 21
-343.6645526230311
 31
0.0
  0
LINE
  5
1A93F
  8
01
 10
2261.077464743584
 20
-343.0645456426448
 30
0.0
 11
2260.577464743584
 21
-342.964544479247
 31
0.0
  0
LINE
  5
1A940
  8
01
 10
2261.077464743584
 20
-341.4645456426449
 30
0.0
 11
2260.577464743584
 21
-341.3645444792471
 31
0.0
  0
LINE
  5
1A941
  8
01
 10
2260.577464743584
 20
-341.3645444792471
 30
0.0
 11
2264.577464743584
 21
-340.5645537864291
 31
0.0
  0
LINE
  5
1A942
  8
01
 10
2264.577464743584
 20
-342.164553786429
 30
0.0
 11
2264.077464743584
 21
-342.0645526230312
 31
0.0
  0
LINE
  5
1A943
  8
01
 10
2264.577464743584
 20
-340.5645537864291
 30
0.0
 11
2264.077464743584
 21
-340.4645526230313
 31
0.0
  0
LINE
  5
1A944
  8
01
 10
2260.577464743584
 20
-342.964544479247
 30
0.0
 11
2264.577464743584
 21
-342.164553786429
 31
0.0
  0
LINE
  5
1A945
  8
01
 10
2261.077464743584
 20
-339.8645456426405
 30
0.0
 11
2260.577464743584
 21
-339.7645444792431
 31
0.0
  0
LINE
  5
1A947
  8
01
 10
2264.577464743584
 20
-324.5645537864159
 30
0.0
 11
2264.077464743584
 21
-324.4645526230186
 31
0.0
  0
LINE
  5
1A948
  8
01
 10
2261.077464743584
 20
-325.4645456426354
 30
0.0
 11
2260.577464743584
 21
-325.3645444792385
 31
0.0
  0
LINE
  5
1A949
  8
01
 10
2260.577464743584
 20
-325.3645444792385
 30
0.0
 11
2264.577464743584
 21
-324.5645537864159
 31
0.0
  0
LINE
  5
1A94A
  8
01
 10
2264.577464743584
 20
-322.9645537864155
 30
0.0
 11
2264.077464743584
 21
-322.8645526230187
 31
0.0
  0
LINE
  5
1A94B
  8
01
 10
2261.077464743584
 20
-323.8645456426354
 30
0.0
 11
2260.577464743584
 21
-323.7645444792381
 31
0.0
  0
LINE
  5
1A94C
  8
01
 10
2260.577464743584
 20
-323.7645444792381
 30
0.0
 11
2264.577464743584
 21
-322.9645537864155
 31
0.0
  0
LINE
  5
1A94D
  8
01
 10
2264.577464743584
 20
-321.3645537864156
 30
0.0
 11
2264.077464743584
 21
-321.2645526230183
 31
0.0
  0
LINE
  5
1A94E
  8
01
 10
2261.077464743584
 20
-322.2645456426351
 30
0.0
 11
2260.577464743584
 21
-322.1645444792382
 31
0.0
  0
LINE
  5
1A94F
  8
01
 10
2260.577464743584
 20
-322.1645444792382
 30
0.0
 11
2264.577464743584
 21
-321.3645537864156
 31
0.0
  0
LINE
  5
1A950
  8
01
 10
2264.577464743584
 20
-317.964553786416
 30
0.0
 11
2264.077464743584
 21
-317.8645526230191
 31
0.0
  0
LINE
  5
1A951
  8
01
 10
2260.577464743584
 20
-318.7645444792386
 30
0.0
 11
2264.577464743584
 21
-317.964553786416
 31
0.0
  0
LINE
  5
1A952
  8
01
 10
2264.577464743584
 20
-316.3645537864161
 30
0.0
 11
2264.077464743584
 21
-316.2645526230187
 31
0.0
  0
LINE
  5
1A953
  8
01
 10
2261.077464743584
 20
-317.2645456426355
 30
0.0
 11
2260.577464743584
 21
-317.1645444792387
 31
0.0
  0
LINE
  5
1A954
  8
01
 10
2260.577464743584
 20
-317.1645444792387
 30
0.0
 11
2264.577464743584
 21
-316.3645537864161
 31
0.0
  0
LINE
  5
1A955
  8
01
 10
2264.577464743584
 20
-314.7645537864162
 30
0.0
 11
2264.077464743584
 21
-314.6645526230188
 31
0.0
  0
LINE
  5
1A956
  8
01
 10
2261.077464743584
 20
-315.6645456426356
 30
0.0
 11
2260.577464743584
 21
-315.5645444792387
 31
0.0
  0
LINE
  5
1A957
  8
01
 10
2260.577464743584
 20
-315.5645444792387
 30
0.0
 11
2264.577464743584
 21
-314.7645537864162
 31
0.0
  0
LINE
  5
1A958
  8
01
 10
2261.077464743584
 20
-313.8643812158496
 30
0.0
 11
2260.577464743584
 21
-313.7643800524527
 31
0.0
  0
LINE
  5
1A959
  8
01
 10
2277.327464743584
 20
-305.2643847059896
 30
0.0
 11
2275.827464743584
 21
-310.5643812158512
 31
0.0
  0
LINE
  5
1A95A
  8
01
 10
2275.827464743584
 20
-310.5643812158512
 30
0.0
 11
2275.827464743584
 21
-344.264549132721
 31
0.0
  0
LINE
  5
1A95B
  8
01
 10
2275.827464743584
 20
-345.2645456425287
 30
0.0
 11
2273.827418207686
 21
-345.2645409888307
 31
0.0
  0
LINE
  5
1A95C
  8
01
 10
2273.827418207686
 20
-345.2645409888307
 30
0.0
 11
2273.827418207686
 21
-346.3645444790261
 31
0.0
  0
ARC
  5
1A95D
  8
01
 10
2275.327418207686
 20
-346.3645444790261
 30
0.0
 40
1.5
 50
180.0
 51
269.999866684475
  0
LINE
  5
1A95E
  8
01
 10
2275.327414717494
 20
-347.864544479022
 30
0.0
 11
2279.327414717494
 21
-347.8645537862014
 31
0.0
  0
ARC
  5
1A95F
  8
01
 10
2279.327418207686
 20
-346.3645537862055
 30
0.0
 40
1.5
 50
269.999866684475
 51
0.000000000000007
  0
LINE
  5
1A960
  8
01
 10
2280.827418207686
 20
-346.3645537862055
 30
0.0
 11
2280.827418207686
 21
-345.2645572763947
 31
0.0
  0
LINE
  5
1A961
  8
01
 10
2280.827418207686
 20
-345.2645572763947
 30
0.0
 11
2278.827464743584
 21
-345.2645526229132
 31
0.0
  0
LINE
  5
1A962
  8
01
 10
2278.827464743584
 20
-344.264549132721
 30
0.0
 11
2278.827464743584
 21
-310.5643881962349
 31
0.0
  0
LINE
  5
1A963
  8
01
 10
2278.827464743584
 20
-310.5643881962349
 30
0.0
 11
2277.327464743584
 21
-305.2643847059896
 31
0.0
  0
LINE
  5
1A964
  8
1CENTER
 10
2277.327418207686
 20
-302.3034701146814
 30
0.0
 11
2277.327418207686
 21
-351.0150333898812
 31
0.0
  0
LINE
  5
1A965
  8
01
 10
2276.233094393691
 20
-307.3643821596677
 30
0.0
 11
2278.195429482566
 21
-306.5643867256165
 31
0.0
  0
LINE
  5
1A966
  8
01
 10
2278.195429482566
 20
-306.5643867256165
 30
0.0
 11
2277.607152907524
 21
-306.2526168693646
 31
0.0
  0
LINE
  5
1A967
  8
01
 10
2275.327464743584
 20
-339.7645444792431
 30
0.0
 11
2279.327464743584
 21
-338.9645537864246
 31
0.0
  0
LINE
  5
1A968
  8
01
 10
2275.327464743584
 20
-328.5645444792387
 30
0.0
 11
2279.327464743584
 21
-327.7645537864162
 31
0.0
  0
LINE
  5
1A969
  8
01
 10
2275.327464743584
 20
-320.3645444792385
 30
0.0
 11
2279.327464743584
 21
-319.5645537864159
 31
0.0
  0
LINE
  5
1A96A
  8
01
 10
2279.327464743584
 20
-319.5645537864159
 30
0.0
 11
2278.827464743584
 21
-319.4645526230186
 31
0.0
  0
LINE
  5
1A96B
  8
01
 10
2275.827464743584
 20
-318.8645456426359
 30
0.0
 11
2275.327464743584
 21
-318.7645444792386
 31
0.0
  0
LINE
  5
1A96C
  8
01
 10
2279.327464743584
 20
-327.7645537864162
 30
0.0
 11
2278.827464743584
 21
-327.6645526230188
 31
0.0
  0
LINE
  5
1A96D
  8
01
 10
2279.327464743584
 20
-326.1645537864158
 30
0.0
 11
2278.827464743584
 21
-326.0645526230189
 31
0.0
  0
LINE
  5
1A96E
  8
01
 10
2275.827464743584
 20
-320.4645456426358
 30
0.0
 11
2275.327464743584
 21
-320.3645444792385
 31
0.0
  0
LINE
  5
1A96F
  8
01
 10
2275.827464743584
 20
-327.0645456426357
 30
0.0
 11
2275.327464743584
 21
-326.9645444792384
 31
0.0
  0
LINE
  5
1A970
  8
01
 10
2275.327464743584
 20
-326.9645444792384
 30
0.0
 11
2279.327464743584
 21
-326.1645537864158
 31
0.0
  0
LINE
  5
1A971
  8
01
 10
2278.648243586973
 20
-308.1643877792219
 30
0.0
 11
2278.09649412317
 21
-307.9816236365939
 31
0.0
  0
LINE
  5
1A972
  8
01
 10
2279.327464743584
 20
-311.3643893596306
 30
0.0
 11
2278.827464743584
 21
-311.2643881962329
 31
0.0
  0
LINE
  5
1A973
  8
01
 10
2279.327464743584
 20
-312.9643893596301
 30
0.0
 11
2278.827464743584
 21
-312.8643881962332
 31
0.0
  0
LINE
  5
1A974
  8
01
 10
2279.10105769138
 20
-309.7643888328273
 30
0.0
 11
2278.564463956109
 21
-309.6351181351981
 31
0.0
  0
LINE
  5
1A975
  8
01
 10
2276.248379340793
 20
-309.0771506184135
 30
0.0
 11
2275.780280885643
 21
-308.964381106063
 31
0.0
  0
LINE
  5
1A976
  8
01
 10
2275.827464743584
 20
-312.2643812158501
 30
0.0
 11
2275.327464743584
 21
-312.1643800524532
 31
0.0
  0
LINE
  5
1A977
  8
01
 10
2275.827464743584
 20
-310.6643812158497
 30
0.0
 11
2275.327464743584
 21
-310.5643800524529
 31
0.0
  0
LINE
  5
1A978
  8
01
 10
2276.690266234322
 20
-307.5158179561074
 30
0.0
 11
2276.233094393691
 21
-307.3643821596677
 31
0.0
  0
LINE
  5
1A979
  8
01
 10
2275.780280885643
 20
-308.964381106063
 30
0.0
 11
2278.648243586973
 21
-308.1643877792219
 31
0.0
  0
LINE
  5
1A97A
  8
01
 10
2275.327464743584
 20
-312.1643800524532
 30
0.0
 11
2279.327464743584
 21
-311.3643893596306
 31
0.0
  0
LINE
  5
1A97B
  8
01
 10
2275.327464743584
 20
-310.5643800524529
 30
0.0
 11
2279.10105769138
 21
-309.7643888328273
 31
0.0
  0
LINE
  5
1A97C
  8
01
 10
2275.327464743584
 20
-313.7643800524527
 30
0.0
 11
2279.327464743584
 21
-312.9643893596301
 31
0.0
  0
LINE
  5
1A97D
  8
01
 10
2275.327464743584
 20
-336.5645444792428
 30
0.0
 11
2279.327464743584
 21
-335.7645537864248
 31
0.0
  0
LINE
  5
1A97E
  8
01
 10
2279.327464743584
 20
-335.7645537864248
 30
0.0
 11
2278.827464743584
 21
-335.664552623027
 31
0.0
  0
LINE
  5
1A97F
  8
01
 10
2275.827464743584
 20
-335.0645456426362
 30
0.0
 11
2275.327464743584
 21
-334.9645444792384
 31
0.0
  0
LINE
  5
1A980
  8
01
 10
2279.327464743584
 20
-337.3645537864247
 30
0.0
 11
2278.827464743584
 21
-337.2645526230269
 31
0.0
  0
LINE
  5
1A981
  8
01
 10
2279.327464743584
 20
-338.9645537864246
 30
0.0
 11
2278.827464743584
 21
-338.8645526230268
 31
0.0
  0
LINE
  5
1A982
  8
01
 10
2275.827464743584
 20
-336.6645456426406
 30
0.0
 11
2275.327464743584
 21
-336.5645444792428
 31
0.0
  0
LINE
  5
1A983
  8
01
 10
2275.827464743584
 20
-338.2645456426405
 30
0.0
 11
2275.327464743584
 21
-338.1645444792432
 31
0.0
  0
LINE
  5
1A984
  8
01
 10
2275.327464743584
 20
-338.1645444792432
 30
0.0
 11
2279.327464743584
 21
-337.3645537864247
 31
0.0
  0
LINE
  5
1A985
  8
01
 10
2279.327464743584
 20
-330.9645537864201
 30
0.0
 11
2278.827464743584
 21
-330.8645526230227
 31
0.0
  0
LINE
  5
1A986
  8
01
 10
2279.327464743584
 20
-329.3645537864161
 30
0.0
 11
2278.827464743584
 21
-329.2645526230187
 31
0.0
  0
LINE
  5
1A987
  8
01
 10
2279.327464743584
 20
-334.1645537864204
 30
0.0
 11
2278.827464743584
 21
-334.0645526230226
 31
0.0
  0
LINE
  5
1A988
  8
01
 10
2279.327464743584
 20
-332.5645537864204
 30
0.0
 11
2278.827464743584
 21
-332.4645526230227
 31
0.0
  0
LINE
  5
1A989
  8
01
 10
2275.827464743584
 20
-328.6645456426356
 30
0.0
 11
2275.327464743584
 21
-328.5645444792387
 31
0.0
  0
LINE
  5
1A98A
  8
01
 10
2275.827464743584
 20
-330.2645456426364
 30
0.0
 11
2275.327464743584
 21
-330.1645444792387
 31
0.0
  0
LINE
  5
1A98B
  8
01
 10
2275.827464743584
 20
-333.4645456426363
 30
0.0
 11
2275.327464743584
 21
-333.3645444792385
 31
0.0
  0
LINE
  5
1A98C
  8
01
 10
2275.827464743584
 20
-331.8645456426364
 30
0.0
 11
2275.327464743584
 21
-331.7645444792386
 31
0.0
  0
LINE
  5
1A98D
  8
01
 10
2275.327464743584
 20
-331.7645444792386
 30
0.0
 11
2279.327464743584
 21
-330.9645537864201
 31
0.0
  0
LINE
  5
1A98E
  8
01
 10
2275.327464743584
 20
-330.1645444792387
 30
0.0
 11
2279.327464743584
 21
-329.3645537864161
 31
0.0
  0
LINE
  5
1A98F
  8
01
 10
2275.327464743584
 20
-333.3645444792385
 30
0.0
 11
2279.327464743584
 21
-332.5645537864204
 31
0.0
  0
LINE
  5
1A990
  8
01
 10
2275.327464743584
 20
-334.9645444792384
 30
0.0
 11
2279.327464743584
 21
-334.1645537864204
 31
0.0
  0
LINE
  5
1A991
  8
01
 10
2278.827464743584
 20
-345.2645526229132
 30
0.0
 11
2275.827464743584
 21
-345.2645456425287
 31
0.0
  0
LINE
  5
1A992
  8
01
 10
2276.827458927113
 20
-344.264549132721
 30
0.0
 11
2279.327464743584
 21
-343.7645537864289
 31
0.0
  0
LINE
  5
1A993
  8
01
 10
2279.327464743584
 20
-343.7645537864289
 30
0.0
 11
2278.827464743584
 21
-343.6645526230311
 31
0.0
  0
LINE
  5
1A994
  8
01
 10
2275.827464743584
 20
-343.0645456426448
 30
0.0
 11
2275.327464743584
 21
-342.964544479247
 31
0.0
  0
LINE
  5
1A995
  8
01
 10
2275.827464743584
 20
-341.4645456426449
 30
0.0
 11
2275.327464743584
 21
-341.3645444792471
 31
0.0
  0
LINE
  5
1A996
  8
01
 10
2275.327464743584
 20
-341.3645444792471
 30
0.0
 11
2279.327464743584
 21
-340.5645537864291
 31
0.0
  0
LINE
  5
1A997
  8
01
 10
2279.327464743584
 20
-342.164553786429
 30
0.0
 11
2278.827464743584
 21
-342.0645526230312
 31
0.0
  0
LINE
  5
1A998
  8
01
 10
2279.327464743584
 20
-340.5645537864291
 30
0.0
 11
2278.827464743584
 21
-340.4645526230313
 31
0.0
  0
LINE
  5
1A999
  8
01
 10
2275.327464743584
 20
-342.964544479247
 30
0.0
 11
2279.327464743584
 21
-342.164553786429
 31
0.0
  0
LINE
  5
1A99A
  8
01
 10
2275.827464743584
 20
-339.8645456426405
 30
0.0
 11
2275.327464743584
 21
-339.7645444792431
 31
0.0
  0
LINE
  5
1A99C
  8
01
 10
2279.327464743584
 20
-324.5645537864159
 30
0.0
 11
2278.827464743584
 21
-324.4645526230186
 31
0.0
  0
LINE
  5
1A99D
  8
01
 10
2275.827464743584
 20
-325.4645456426354
 30
0.0
 11
2275.327464743584
 21
-325.3645444792385
 31
0.0
  0
LINE
  5
1A99E
  8
01
 10
2275.327464743584
 20
-325.3645444792385
 30
0.0
 11
2279.327464743584
 21
-324.5645537864159
 31
0.0
  0
LINE
  5
1A99F
  8
01
 10
2279.327464743584
 20
-322.9645537864155
 30
0.0
 11
2278.827464743584
 21
-322.8645526230187
 31
0.0
  0
LINE
  5
1A9A0
  8
01
 10
2275.827464743584
 20
-323.8645456426354
 30
0.0
 11
2275.327464743584
 21
-323.7645444792381
 31
0.0
  0
LINE
  5
1A9A1
  8
01
 10
2275.327464743584
 20
-323.7645444792381
 30
0.0
 11
2279.327464743584
 21
-322.9645537864155
 31
0.0
  0
LINE
  5
1A9A2
  8
01
 10
2279.327464743584
 20
-321.3645537864156
 30
0.0
 11
2278.827464743584
 21
-321.2645526230183
 31
0.0
  0
LINE
  5
1A9A3
  8
01
 10
2275.827464743584
 20
-322.2645456426351
 30
0.0
 11
2275.327464743584
 21
-322.1645444792382
 31
0.0
  0
LINE
  5
1A9A4
  8
01
 10
2275.327464743584
 20
-322.1645444792382
 30
0.0
 11
2279.327464743584
 21
-321.3645537864156
 31
0.0
  0
LINE
  5
1A9A5
  8
01
 10
2279.327464743584
 20
-317.964553786416
 30
0.0
 11
2278.827464743584
 21
-317.8645526230191
 31
0.0
  0
LINE
  5
1A9A6
  8
01
 10
2275.327464743584
 20
-318.7645444792386
 30
0.0
 11
2279.327464743584
 21
-317.964553786416
 31
0.0
  0
LINE
  5
1A9A7
  8
01
 10
2279.327464743584
 20
-316.3645537864161
 30
0.0
 11
2278.827464743584
 21
-316.2645526230187
 31
0.0
  0
LINE
  5
1A9A8
  8
01
 10
2275.827464743584
 20
-317.2645456426355
 30
0.0
 11
2275.327464743584
 21
-317.1645444792387
 31
0.0
  0
LINE
  5
1A9A9
  8
01
 10
2275.327464743584
 20
-317.1645444792387
 30
0.0
 11
2279.327464743584
 21
-316.3645537864161
 31
0.0
  0
LINE
  5
1A9AA
  8
01
 10
2279.327464743584
 20
-314.7645537864162
 30
0.0
 11
2278.827464743584
 21
-314.6645526230188
 31
0.0
  0
LINE
  5
1A9AB
  8
01
 10
2275.827464743584
 20
-315.6645456426356
 30
0.0
 11
2275.327464743584
 21
-315.5645444792387
 31
0.0
  0
LINE
  5
1A9AC
  8
01
 10
2275.327464743584
 20
-315.5645444792387
 30
0.0
 11
2279.327464743584
 21
-314.7645537864162
 31
0.0
  0
LINE
  5
1A9AD
  8
01
 10
2275.827464743584
 20
-313.8643812158496
 30
0.0
 11
2275.327464743584
 21
-313.7643800524527
 31
0.0
  0
LINE
  5
1A9B5
  8
1CENTER
 10
2364.028687507214
 20
-608.7219880880566
 30
0.0
 11
2364.028687507214
 21
-599.0803148415052
 31
0.0
  0
LINE
  5
1A9B6
  8
1CENTER
 10
2368.849524130489
 20
-603.9011514647809
 30
0.0
 11
2359.207850883938
 21
-603.9011514647809
 31
0.0
  0
LINE
  5
1A9B7
  8
1CENTER
 10
2349.278687507214
 20
-618.7219880880566
 30
0.0
 11
2349.278687507214
 21
-609.0803148415052
 31
0.0
  0
LINE
  5
1A9B8
  8
1CENTER
 10
2354.099524130489
 20
-613.9011514647809
 30
0.0
 11
2344.457850883938
 21
-613.9011514647809
 31
0.0
  0
LINE
  5
1A9B9
  8
1CENTER
 10
2262.028687507227
 20
-608.7219880880566
 30
0.0
 11
2262.028687507227
 21
-599.0803148415052
 31
0.0
  0
LINE
  5
1A9BA
  8
1CENTER
 10
2257.207850883952
 20
-603.9011514647809
 30
0.0
 11
2266.849524130503
 21
-603.9011514647809
 31
0.0
  0
LINE
  5
1A9BB
  8
1CENTER
 10
2276.778687507227
 20
-618.7219880880566
 30
0.0
 11
2276.778687507227
 21
-609.0803148415052
 31
0.0
  0
LINE
  5
1A9BC
  8
1CENTER
 10
2271.957850883952
 20
-613.9011514647809
 30
0.0
 11
2281.599524130503
 21
-613.9011514647809
 31
0.0
  0
LINE
  5
1AC4B
  8
01
 10
2313.75023683456
 20
-366.3126289035163
 30
0.0
 11
2315.091541204852
 21
-369.3110738445585
 31
0.0
  0
LINE
  5
1AC4C
  8
01
 10
2316.630409780705
 20
-366.3126622195712
 30
0.0
 11
2315.914447760894
 21
-366.3126622195712
 31
0.0
  0
LINE
  5
1AC4D
  8
01
 10
2314.26896780936
 20
-366.3126622195712
 30
0.0
 11
2313.75023683456
 21
-366.3126622195712
 31
0.0
  0
LINE
  5
1AC4E
  8
01
 10
2311.659321229006
 20
-366.3126622195712
 30
0.0
 11
2311.140590254206
 21
-366.3126622195712
 31
0.0
  0
LINE
  5
1AF36
  8
01
 10
2687.812120010976
 20
-344.2641471225796
 30
0.0
 11
2680.212120010976
 21
-344.2641471225796
 31
0.0
  0
LINE
  5
1AF37
  8
01
 10
2680.212120010976
 20
-344.2641471225796
 30
0.0
 11
2680.212120010976
 21
-345.2641471225796
 31
0.0
  0
LINE
  5
1AF38
  8
01
 10
2687.812120010976
 20
-345.2641471225796
 30
0.0
 11
2680.212120010976
 21
-345.2641471225796
 31
0.0
  0
LINE
  5
1AF39
  8
01
 10
2687.812120010976
 20
-344.2641471225796
 30
0.0
 11
2687.812120010976
 21
-345.2641471225796
 31
0.0
  0
LINE
  5
1AF3A
  8
01
 10
2697.812120010976
 20
-344.2641471225796
 30
0.0
 11
2690.212120010976
 21
-344.2641471225796
 31
0.0
  0
LINE
  5
1AF3B
  8
01
 10
2690.212120010976
 20
-344.2641471225796
 30
0.0
 11
2690.212120010976
 21
-345.2641471225796
 31
0.0
  0
LINE
  5
1AF3C
  8
01
 10
2697.812120010976
 20
-345.2641471225796
 30
0.0
 11
2690.212120010976
 21
-345.2641471225796
 31
0.0
  0
LINE
  5
1AF3D
  8
01
 10
2697.812120010976
 20
-344.2641471225796
 30
0.0
 11
2697.812120010976
 21
-345.2641471225796
 31
0.0
  0
LINE
  5
1AF3E
  8
1HATCH
 10
2699.913212276221
 20
-381.6141472698446
 30
0.0
 11
2700.263212102147
 21
-381.2641472698446
 31
0.0
  0
LINE
  5
1AF3F
  8
1HATCH
 10
2700.263212102147
 20
-385.2641472698446
 30
0.0
 11
2699.913212276221
 21
-384.9141472698445
 31
0.0
  0
LINE
  5
1AF40
  8
1HATCH
 10
2701.263212266221
 20
-380.2641472698446
 30
0.0
 11
2701.263212266221
 21
-386.2641472698446
 31
0.0
  0
LINE
  5
1AF41
  8
1HATCH
 10
2693.913212276221
 20
-381.2641472698446
 30
0.0
 11
2693.913212276221
 21
-385.2641472698446
 31
0.0
  0
LINE
  5
1AF43
  8
1HATCH
 10
2693.563212276221
 20
-384.9141472698445
 30
0.0
 11
2699.913212276221
 21
-384.9141472698445
 31
0.0
  0
LINE
  5
1AF44
  8
1HATCH
 10
2693.563212276221
 20
-381.6141472698446
 30
0.0
 11
2699.913212276221
 21
-381.6141472698446
 31
0.0
  0
LINE
  5
1AF45
  8
1CENTER
 10
2691.961537276221
 20
-383.2641472698446
 30
0.0
 11
2703.121981176221
 21
-383.2641472698446
 31
0.0
  0
LINE
  5
1AF46
  8
01
 10
2367.828640971316
 20
-344.264549132721
 30
0.0
 11
2360.228640971316
 21
-344.264549132721
 31
0.0
  0
LINE
  5
1AF47
  8
01
 10
2360.228640971316
 20
-344.264549132721
 30
0.0
 11
2360.228640971316
 21
-345.264549132721
 31
0.0
  0
LINE
  5
1AF48
  8
01
 10
2367.828640971316
 20
-345.264549132721
 30
0.0
 11
2360.228640971316
 21
-345.264549132721
 31
0.0
  0
LINE
  5
1AF49
  8
01
 10
2367.828640971316
 20
-344.264549132721
 30
0.0
 11
2367.828640971316
 21
-345.264549132721
 31
0.0
  0
LINE
  5
1AF4A
  8
01
 10
2353.078640971316
 20
-344.264549132721
 30
0.0
 11
2345.478640971316
 21
-344.264549132721
 31
0.0
  0
LINE
  5
1AF4B
  8
01
 10
2345.478640971316
 20
-344.264549132721
 30
0.0
 11
2345.478640971316
 21
-345.264549132721
 31
0.0
  0
LINE
  5
1AF4C
  8
01
 10
2353.078640971316
 20
-345.264549132721
 30
0.0
 11
2345.478640971316
 21
-345.264549132721
 31
0.0
  0
LINE
  5
1AF4D
  8
01
 10
2353.078640971316
 20
-344.264549132721
 30
0.0
 11
2353.078640971316
 21
-345.264549132721
 31
0.0
  0
LINE
  5
1AF4E
  8
01
 10
2258.777464743585
 20
-344.264549132721
 30
0.0
 11
2266.377464743586
 21
-344.264549132721
 31
0.0
  0
LINE
  5
1AF4F
  8
01
 10
2258.777464743585
 20
-344.264549132721
 30
0.0
 11
2258.777464743585
 21
-345.264549132721
 31
0.0
  0
LINE
  5
1AF50
  8
01
 10
2258.777464743585
 20
-345.264549132721
 30
0.0
 11
2266.377464743586
 21
-345.264549132721
 31
0.0
  0
LINE
  5
1AF51
  8
01
 10
2266.377464743584
 20
-344.264549132721
 30
0.0
 11
2266.377464743584
 21
-345.264549132721
 31
0.0
  0
LINE
  5
1AF52
  8
01
 10
2273.527464743585
 20
-344.264549132721
 30
0.0
 11
2281.127464743586
 21
-344.264549132721
 31
0.0
  0
LINE
  5
1AF53
  8
01
 10
2273.527464743585
 20
-344.264549132721
 30
0.0
 11
2273.527464743585
 21
-345.264549132721
 31
0.0
  0
LINE
  5
1AF54
  8
01
 10
2273.527464743585
 20
-345.264549132721
 30
0.0
 11
2281.127464743586
 21
-345.264549132721
 31
0.0
  0
LINE
  5
1AF55
  8
01
 10
2281.127464743584
 20
-344.264549132721
 30
0.0
 11
2281.127464743584
 21
-345.264549132721
 31
0.0
  0
TEXT
  5
1AF56
  8
01
  6
CONTINUOUS
 10
2631.438053657962
 20
-330.2290076035702
 30
0.0
 40
7.0
  1
PB
 50
0.000000000000014
  0
TEXT
  5
1AF57
  8
01
  6
CONTINUOUS
 10
2568.575989684688
 20
-299.8988661323471
 30
0.0
 40
7.0
  1
Plywood 9mm
 50
0.000000000000014
  0
TEXT
  5
1AF58
  8
01
  6
CONTINUOUS
 10
2579.08895264765
 20
-311.5655327990138
 30
0.0
 40
7.0
  1
and above
 50
0.000000000000014
  0
LINE
  5
1AF59
  8
01
 10
2309.847927324068
 20
-367.1017196638338
 30
0.0
 11
2309.500055848421
 21
-366.3236898337402
 31
0.0
  0
LINE
  5
1AF5A
  8
01
 10
2309.500055848421
 20
-366.3236898337402
 30
0.0
 11
2308.706519283178
 21
-366.3236898337402
 31
0.0
  0
ARC
  5
1AF5B
  8
01
 10
2308.706519283178
 20
-367.1032855184121
 30
0.0
 40
0.7795956846719037
 50
90.0
 51
180.0
  0
LINE
  5
1AF5C
  8
01
 10
2307.926923598506
 20
-367.1032855184119
 30
0.0
 11
2307.926923598506
 21
-369.232181426554
 31
0.0
  0
LINE
  5
1AF5D
  8
01
 10
2307.926923598506
 20
-369.232181426554
 30
0.0
 11
2308.406674789074
 21
-369.232181426554
 31
0.0
  0
LINE
  5
1AF5E
  8
01
 10
2308.406674789074
 20
-369.232181426554
 30
0.0
 11
2308.406674789074
 21
-367.0733010690016
 31
0.0
  0
ARC
  5
1AF5F
  8
01
 10
2308.706519283178
 20
-367.0733010690016
 30
0.0
 40
0.2998444941044909
 50
90.0
 51
180.0
  0
LINE
  5
1AF60
  8
01
 10
2308.706519283178
 20
-366.7734565748971
 30
0.0
 11
2309.182409500037
 21
-366.7734565748971
 31
0.0
  0
LINE
  5
1AF61
  8
01
 10
2309.182409500037
 20
-366.7734565748971
 30
0.0
 11
2310.317683698164
 21
-369.3110738445585
 31
0.0
  0
LINE
  5
1AF62
  8
01
 10
2310.317683698164
 20
-369.3110738445585
 30
0.0
 11
2311.659321229006
 21
-366.3126289035163
 31
0.0
  0
LINE
  5
1AF63
  8
01
 10
2306.097872184469
 20
-369.232181426554
 30
0.0
 11
2306.097872184469
 21
-367.1394399089344
 31
0.0
  0
ARC
  5
1AF64
  8
01
 10
2306.487670026805
 20
-367.1394399089346
 30
0.0
 40
0.3897978423358002
 50
119.9999999999701
 51
180.0
  0
ARC
  5
1AF65
  8
01
 10
2306.622600049152
 20
-367.3731455631061
 30
0.0
 40
0.659657887030015
 50
60.00000000003944
 51
119.9999999999803
  0
ARC
  5
1AF66
  8
01
 10
2306.757530071499
 20
-367.1394399089345
 30
0.0
 40
0.3897978423359068
 50
0.0000000000235361
 51
60.00000000005207
  0
LINE
  5
1AF67
  8
01
 10
2307.147327913835
 20
-367.1394399089344
 30
0.0
 11
2307.147327913835
 21
-369.232181426554
 31
0.0
  0
LINE
  5
1AF68
  8
01
 10
2307.147327913835
 20
-369.232181426554
 30
0.0
 11
2307.627079104402
 21
-369.232181426554
 31
0.0
  0
LINE
  5
1AF69
  8
01
 10
2307.627079104402
 20
-369.232181426554
 30
0.0
 11
2307.627079104402
 21
-367.1394399089344
 31
0.0
  0
ARC
  5
1AF6A
  8
01
 10
2306.757530071499
 20
-367.1394399089343
 30
0.0
 40
0.86954903290305
 50
0.0
 51
60.00000000002854
  0
ARC
  5
1AF6B
  8
01
 10
2306.622600049152
 20
-367.373145563106
 30
0.0
 40
1.139409077597151
 50
60.00000000004032
 51
119.9999999999826
  0
ARC
  5
1AF6C
  8
01
 10
2306.487670026805
 20
-367.1394399089348
 30
0.0
 40
0.8695490329030803
 50
119.9999999999416
 51
179.9999999999701
  0
LINE
  5
1AF6D
  8
01
 10
2305.618120993902
 20
-367.1394399089344
 30
0.0
 11
2305.618120993903
 21
-369.232181426554
 31
0.0
  0
LINE
  5
1AF6E
  8
01
 10
2305.618120993903
 20
-369.232181426554
 30
0.0
 11
2306.097872184469
 21
-369.232181426554
 31
0.0
  0
LINE
  5
1AF6F
  8
01
 10
2305.307282201683
 20
-369.3111071606132
 30
0.0
 11
2305.307282201683
 21
-366.3126622195712
 31
0.0
  0
LINE
  5
1AF70
  8
01
 10
2305.307282201683
 20
-366.3126622195712
 30
0.0
 11
2304.833861061547
 21
-366.3126622195712
 31
0.0
  0
LINE
  5
1AF71
  8
01
 10
2304.833861061547
 20
-366.3126622195712
 30
0.0
 11
2304.833861061547
 21
-368.0923392402444
 31
0.0
  0
LINE
  5
1AF72
  8
01
 10
2304.833861061547
 20
-368.0923392402444
 30
0.0
 11
2303.176720490798
 21
-366.2337364855119
 31
0.0
  0
LINE
  5
1AF73
  8
01
 10
2303.176720490798
 20
-366.2337364855119
 30
0.0
 11
2303.176720490798
 21
-369.232181426554
 31
0.0
  0
LINE
  5
1AF74
  8
01
 10
2303.176720490798
 20
-369.232181426554
 30
0.0
 11
2303.650141630933
 21
-369.232181426554
 31
0.0
  0
LINE
  5
1AF75
  8
01
 10
2303.650141630933
 20
-369.232181426554
 30
0.0
 11
2303.650141630933
 21
-367.4524710898258
 31
0.0
  0
LINE
  5
1AF76
  8
01
 10
2303.650141630933
 20
-367.4524710898258
 30
0.0
 11
2305.307282201683
 21
-369.3110738445585
 31
0.0
  0
LINE
  5
1AF77
  8
01
 10
2310.593207472191
 20
-367.5356945949674
 30
0.0
 11
2310.042159924137
 21
-367.5356945949674
 31
0.0
  0
LINE
  5
1AF78
  8
01
 10
2310.042159924137
 20
-367.5356945949674
 30
0.0
 11
2310.317683698164
 21
-368.1517417661319
 31
0.0
  0
LINE
  5
1AF79
  8
01
 10
2310.317683698164
 20
-368.1517417661319
 30
0.0
 11
2310.593207472191
 21
-367.5356945949674
 31
0.0
  0
LINE
  5
1AF7A
  8
01
 10
2314.657766170048
 20
-369.232181426554
 30
0.0
 11
2314.161023791482
 21
-369.232181426554
 31
0.0
  0
LINE
  5
1AF7B
  8
01
 10
2314.161023791482
 20
-369.232181426554
 30
0.0
 11
2313.396753492066
 21
-367.4173559679608
 31
0.0
  0
LINE
  5
1AF7C
  8
01
 10
2313.396753492066
 20
-367.4173559679608
 30
0.0
 11
2312.684789398842
 21
-369.3110738445585
 31
0.0
  0
LINE
  5
1AF7D
  8
01
 10
2312.684789398842
 20
-369.3110738445585
 30
0.0
 11
2311.97282530562
 21
-367.4173559679608
 31
0.0
  0
LINE
  5
1AF7E
  8
01
 10
2311.97282530562
 20
-367.4173559679608
 30
0.0
 11
2311.208888166752
 21
-369.232181426554
 31
0.0
  0
LINE
  5
1AF7F
  8
01
 10
2311.208888166752
 20
-369.232181426554
 30
0.0
 11
2310.712145788186
 21
-369.232181426554
 31
0.0
  0
LINE
  5
1AF80
  8
01
 10
2310.712145788186
 20
-369.232181426554
 30
0.0
 11
2311.974824268913
 21
-366.2337364855119
 31
0.0
  0
LINE
  5
1AF81
  8
01
 10
2311.974824268913
 20
-366.2337364855119
 30
0.0
 11
2312.684789398842
 21
-368.1226901662586
 31
0.0
  0
LINE
  5
1AF82
  8
01
 10
2312.684789398842
 20
-368.1226901662586
 30
0.0
 11
2313.39508768932
 21
-366.2337364855119
 31
0.0
  0
LINE
  5
1AF83
  8
01
 10
2313.39508768932
 20
-366.2337364855119
 30
0.0
 11
2314.657766170048
 21
-369.232181426554
 31
0.0
  0
LINE
  5
1AF84
  8
01
 10
2315.091541204852
 20
-368.1517417661319
 30
0.0
 11
2315.367064978879
 21
-367.5356945949674
 31
0.0
  0
LINE
  5
1AF85
  8
01
 10
2315.367064978879
 20
-367.5356945949674
 30
0.0
 11
2314.816017430825
 21
-367.5356945949674
 31
0.0
  0
LINE
  5
1AF86
  8
01
 10
2314.816017430825
 20
-367.5356945949674
 30
0.0
 11
2315.091541204852
 21
-368.1517417661319
 31
0.0
  0
LINE
  5
1AF87
  8
01
 10
2316.630409780705
 20
-366.3126289035163
 30
0.0
 11
2317.695524055873
 21
-367.8907771080966
 31
0.0
  0
LINE
  5
1AF88
  8
01
 10
2317.695524055873
 20
-367.8907771080966
 30
0.0
 11
2316.630409780705
 21
-369.232181426554
 31
0.0
  0
LINE
  5
1AF89
  8
01
 10
2316.630409780705
 20
-369.232181426554
 30
0.0
 11
2316.025723384261
 21
-369.232181426554
 31
0.0
  0
LINE
  5
1AF8A
  8
01
 10
2316.025723384261
 20
-369.232181426554
 30
0.0
 11
2317.108828329076
 21
-367.8680555586543
 31
0.0
  0
LINE
  5
1AF8B
  8
01
 10
2317.108828329076
 20
-367.8680555586543
 30
0.0
 11
2316.28392280974
 21
-366.6458227685757
 31
0.0
  0
LINE
  5
1AF8C
  8
01
 10
2316.28392280974
 20
-366.6458227685757
 30
0.0
 11
2315.091541204852
 21
-369.3111071606132
 31
0.0
  0
LINE
  5
1AF8D
  8
01
 10
2317.695524055873
 20
-366.3126622195712
 30
0.0
 11
2318.168945196009
 21
-366.3126622195712
 31
0.0
  0
LINE
  5
1AF8E
  8
01
 10
2318.168945196009
 20
-366.3126622195712
 30
0.0
 11
2318.168945196009
 21
-369.232181426554
 31
0.0
  0
LINE
  5
1AF8F
  8
01
 10
2318.168945196009
 20
-369.232181426554
 30
0.0
 11
2317.695524055873
 21
-369.232181426554
 31
0.0
  0
LINE
  5
1AF90
  8
01
 10
2317.695524055873
 20
-369.232181426554
 30
0.0
 11
2317.695524055873
 21
-366.3126622195712
 31
0.0
  0
LINE
  5
1AF91
  8
01
 10
2311.140590254206
 20
-366.3126289035163
 30
0.0
 11
2310.787440072261
 21
-367.1017196638338
 31
0.0
  0
LINE
  5
1AF92
  8
01
 10
2310.787440072261
 20
-367.1017196638338
 30
0.0
 11
2309.847927324068
 21
-367.1017196638338
 31
0.0
  0
LINE
  5
1AF93
  8
01
 10
2315.914447760894
 20
-366.3126289035163
 30
0.0
 11
2315.561297578949
 21
-367.1017196638338
 31
0.0
  0
LINE
  5
1AF94
  8
01
 10
2315.561297578949
 20
-367.1017196638338
 30
0.0
 11
2314.621784830756
 21
-367.1017196638338
 31
0.0
  0
LINE
  5
1AF95
  8
01
 10
2314.621784830756
 20
-367.1017196638338
 30
0.0
 11
2314.26896780936
 21
-366.3126289035163
 31
0.0
  0
LINE
  5
1AF96
  8
01
 10
2700.263212102147
 20
-381.2641472698446
 30
0.0
 11
2693.913212276221
 21
-381.2641472698446
 31
0.0
  0
LINE
  5
1AF97
  8
01
 10
2693.913212276221
 20
-381.2641472698446
 30
0.0
 11
2693.563212276221
 21
-381.6141472698446
 31
0.0
  0
LINE
  5
1AF98
  8
01
 10
2693.563212276221
 20
-381.6141472698446
 30
0.0
 11
2693.563212276221
 21
-384.9141472698444
 31
0.0
  0
LINE
  5
1AF99
  8
01
 10
2693.563212276221
 20
-384.9141472698444
 30
0.0
 11
2693.913212276221
 21
-385.2641472698446
 31
0.0
  0
LINE
  5
1AF9A
  8
01
 10
2693.913212276221
 20
-385.2641472698446
 30
0.0
 11
2700.263212102147
 21
-385.2641472698446
 31
0.0
  0
LINE
  5
1AF9B
  8
01
 10
2700.263212102147
 20
-385.2641472698446
 30
0.0
 11
2701.263212266221
 21
-386.2641472698446
 31
0.0
  0
LINE
  5
1AF9C
  8
01
 10
2701.263212266221
 20
-386.2641472698446
 30
0.0
 11
2701.563212276221
 21
-386.2641472698446
 31
0.0
  0
LINE
  5
1AF9D
  8
01
 10
2701.563212276221
 20
-386.2641472698446
 30
0.0
 11
2701.563212276221
 21
-380.2641472698446
 31
0.0
  0
LINE
  5
1AF9E
  8
01
 10
2701.563212276221
 20
-380.2641472698446
 30
0.0
 11
2701.263212176221
 21
-380.2641472698446
 31
0.0
  0
LINE
  5
1AF9F
  8
01
 10
2701.263212176221
 20
-380.2641472698446
 30
0.0
 11
2700.263212102147
 21
-381.2641472698446
 31
0.0
  0
LINE
  5
1AFA0
  8
1DIM
 10
2667.801287438846
 20
-341.2641472698445
 30
0.0
 11
2667.801287438846
 21
-271.4789468608997
 31
0.0
  0
LINE
  5
1AFA1
  8
1DIM
 10
2703.012120010976
 20
-341.2641472698446
 30
0.0
 11
2703.012120010976
 21
-271.4789468608997
 31
0.0
  0
LINE
  5
1AFA2
  8
1DIM
 10
2669.801287438846
 20
-272.4789468608997
 30
0.0
 11
2701.012120010976
 21
-272.4789468608997
 31
0.0
  0
LINE
  5
1AFA6
  8
1DIM
 10
2667.801287438846
 20
-305.1829216962645
 30
0.0
 11
2667.801287438846
 21
-287.282382166371
 31
0.0
  0
LINE
  5
1AFA7
  8
1DIM
 10
2684.012166546874
 20
-302.3030681045401
 30
0.0
 11
2684.012166546874
 21
-287.282382166371
 31
0.0
  0
LINE
  5
1AFA8
  8
1DIM
 10
2682.012166546874
 20
-288.282382166371
 30
0.0
 11
2669.801287438846
 21
-288.282382166371
 31
0.0
  0
LINE
  5
1AFA9
  8
1DIM
 10
2667.801287438846
 20
-288.282382166371
 30
0.0
 11
2638.984620772179
 21
-288.282382166371
 31
0.0
  0
LINE
  5
1AFAD
  8
1DIM
  6
CONTINUOUS
 10
2373.028687507214
 20
-341.264549132721
 30
0.0
 11
2620.387692880487
 21
-341.264549132721
 31
0.0
1001
ACAD
1000
DSTYLE
1002
{
1070
    50
1040
1.570796326794897
1070
   345
1005
14
1070
   346
1005
14
1070
   347
1005
14
1002
}
  0
LINE
  5
1AFAE
  8
1DIM
  6
CONTINUOUS
 10
2569.177844239474
 20
-551.9149801986423
 30
0.0
 11
2620.387692880487
 21
-551.9149801986423
 31
0.0
1001
ACAD
1000
DSTYLE
1002
{
1070
    50
1040
1.570796326794897
1070
   345
1005
14
1070
   346
1005
14
1070
   347
1005
14
1002
}
  0
LINE
  5
1AFAF
  8
1DIM
  6
CONTINUOUS
 10
2619.387692880487
 20
-343.264549132721
 30
0.0
 11
2619.387692880487
 21
-549.9149801986423
 31
0.0
1001
ACAD
1000
DSTYLE
1002
{
1070
    50
1040
1.570796326794897
1070
   345
1005
14
1070
   346
1005
14
1070
   347
1005
14
1002
}
  0
LINE
  5
1AFB3
  8
1DIM
  6
DASHED2
 10
2679.268324526653
 20
-368.2641472698446
 30
0.0
 11
2692.012120010976
 21
-368.2641472698446
 31
0.0
  0
LINE
  5
1AFB4
  8
1DIM
  6
DASHED2
 10
2692.012120010976
 20
-368.2641472698446
 30
0.0
 11
2692.012120010976
 21
-398.0141472698446
 31
0.0
  0
LINE
  5
1AFB5
  8
1DIM
  6
DASHED2
 10
2692.012120010976
 20
-398.0141472698446
 30
0.0
 11
2693.012120010976
 21
-399.0141472698446
 31
0.0
  0
LINE
  5
1AFB6
  8
1DIM
  6
DASHED2
 10
2693.012120010976
 20
-399.0141472698446
 30
0.0
 11
2699.012120010976
 21
-399.0141472698446
 31
0.0
  0
LINE
  5
1AFB7
  8
1DIM
  6
DASHED2
 10
2699.012120010976
 20
-399.0141472698446
 30
0.0
 11
2700.012120010976
 21
-398.0141472698446
 31
0.0
  0
LINE
  5
1AFB8
  8
1DIM
  6
DASHED2
 10
2700.012120010976
 20
-398.0141472698446
 30
0.0
 11
2700.012120010976
 21
-362.2641211230297
 31
0.0
  0
LINE
  5
1AFB9
  8
1DIM
  6
DASHED2
 10
2700.012120010976
 20
-362.2641211230297
 30
0.0
 11
2700.012120010976
 21
-341.2641472698446
 31
0.0
  0
LINE
  5
1AFBA
  8
1DIM
  6
DASHED2
 10
2700.012120010976
 20
-341.2641472698446
 30
0.0
 11
2678.262120010976
 21
-341.2641472698446
 31
0.0
  0
LINE
  5
1AFBB
  8
1DIM
  6
DASHED2
 10
2678.262120010976
 20
-341.2641472698446
 30
0.0
 11
2678.262120010976
 21
-367.2641472698446
 31
0.0
  0
LINE
  5
1AFBC
  8
1DIM
  6
DASHED2
 10
2678.262120010976
 20
-367.2641472698446
 30
0.0
 11
2679.262120010976
 21
-368.2641472698446
 31
0.0
  0
SOLID
  5
1AFBD
  8
1DIM
 10
2505.005590670288
 20
-582.3764641068936
 30
0.0
 11
2506.919317889117
 21
-583.0463590561395
 31
0.0
 12
2504.891772158037
 22
-583.0333429318785
 32
0.0
 13
2504.891772158037
 23
-583.0333429318785
 33
0.0
1001
ACAD
1000
DSTYLE
1002
{
1070
    45
1040
0.5
1002
}
  0
LINE
  5
1AFBE
  8
1DIM
 10
2504.948681414162
 20
-582.704903519386
 30
0.0
 11
2473.981857773157
 21
-577.3392292703415
 31
0.0
1001
ACAD
1000
DSTYLE
1002
{
1070
    45
1040
0.5
1002
}
  0
LINE
  5
1AFBF
  8
1DIM
 10
2473.981857773157
 20
-577.3392292703415
 30
0.0
 11
2383.470427122377
 21
-577.3392292703415
 31
0.0
1001
ACAD
1000
DSTYLE
1002
{
1070
    45
1040
0.5
1002
}
  0
TEXT
  5
1AFC0
  8
1DIM
  6
CONTINUOUS
 10
2384.593780988972
 20
-565.2505048966198
 30
0.0
 40
5.972261062908103
  1
Material\U+FF1AAluminium
  0
TEXT
  5
1AFC1
  8
1DIM
  6
CONTINUOUS
 10
2371.012416942211
 20
-575.2042733348
 30
0.0
 40
5.972261062908103
  1
Finish\U+FF1ABlasted black
  0
LINE
  5
1AFC2
  8
1DIM
  6
CONTINUOUS
 10
2038.680858148198
 20
-588.2837144182528
 30
0.0
 11
2038.680858148198
 21
-710.8136900779627
 31
0.0
1001
ACAD
1000
DSTYLE
1002
{
1070
    50
1040
1.570796326794897
1070
   345
1005
14
1070
   346
1005
14
1070
   347
1005
14
1002
}
  0
LINE
  5
1AFC3
  8
1DIM
  6
CONTINUOUS
 10
2587.376516891967
 20
-588.2837156584607
 30
0.0
 11
2587.376516891967
 21
-710.8136900779627
 31
0.0
1001
ACAD
1000
DSTYLE
1002
{
1070
    50
1040
1.570796326794897
1070
   345
1005
14
1070
   346
1005
14
1070
   347
1005
14
1002
}
  0
LINE
  5
1AFC4
  8
1DIM
  6
CONTINUOUS
 10
2040.680858148198
 20
-709.8136900779627
 30
0.0
 11
2585.376516891967
 21
-709.8136900779627
 31
0.0
1001
ACAD
1000
DSTYLE
1002
{
1070
    50
1040
1.570796326794897
1070
   345
1005
14
1070
   346
1005
14
1070
   347
1005
14
1002
}
  0
LINE
  5
1AFC8
  8
1DIM
 10
2262.028687507227
 20
-608.7219880880566
 30
0.0
 11
2262.028687507227
 21
-655.0220194345188
 31
0.0
  0
LINE
  5
1AFC9
  8
1DIM
 10
2364.028687507214
 20
-608.7219880880566
 30
0.0
 11
2364.028687507214
 21
-655.0220194345188
 31
0.0
  0
LINE
  5
1AFCA
  8
1DIM
 10
2264.028687507227
 20
-654.0220194345188
 30
0.0
 11
2362.028687507214
 21
-654.0220194345188
 31
0.0
  0
SOLID
  5
1AFCE
  8
1DIM
 10
2658.91524907258
 20
-334.7863648168073
 30
0.0
 11
2660.752755623777
 21
-335.643500036839
 31
0.0
 12
2658.736583949932
 22
-335.4286445209811
 32
0.0
 13
2658.736583949932
 23
-335.4286445209811
 33
0.0
1001
ACAD
1000
DSTYLE
1002
{
1070
    45
1040
0.5
1002
}
  0
LINE
  5
1AFCF
  8
1DIM
 10
2658.825916511256
 20
-335.1075046688942
 30
0.0
 11
2643.804720324629
 21
-330.9290076035701
 31
0.0
1001
ACAD
1000
DSTYLE
1002
{
1070
    45
1040
0.5
1002
}
  0
SOLID
  5
1AFD0
  8
1DIM
 10
2662.887875172431
 20
-324.1139140489718
 30
0.0
 11
2664.54301396919
 21
-325.2850787148375
 31
0.0
 12
2662.597504945488
 22
-324.7140220190487
 32
0.0
 13
2662.597504945488
 23
-324.7140220190487
 33
0.0
1001
ACAD
1000
DSTYLE
1002
{
1070
    45
1040
0.5
1002
}
  0
LINE
  5
1AFD1
  8
1DIM
 10
2662.742690058959
 20
-324.4139680340102
 30
0.0
 11
2637.655619314317
 21
-312.275255021236
 31
0.0
1001
ACAD
1000
DSTYLE
1002
{
1070
    45
1040
0.5
1002
}
  0
LINE
  5
1AFD2
  8
1DIM
 10
2703.121981176221
 20
-383.2641472698446
 30
0.0
 11
2733.596507076643
 21
-383.2641472698446
 31
0.0
  0
LINE
  5
1AFD3
  8
1DIM
 10
2727.816463848823
 20
-341.2641472698446
 30
0.0
 11
2733.596507076643
 21
-341.2641472698446
 31
0.0
  0
LINE
  5
1AFD4
  8
1DIM
 10
2732.596507076643
 20
-381.2641472698446
 30
0.0
 11
2732.596507076643
 21
-343.2641472698446
 31
0.0
  0
SOLID
  5
1AFD8
  8
1DIM
 10
2505.381021301304
 20
-679.307271105665
 30
0.0
 11
2506.919317889117
 21
-680.6281627435502
 31
0.0
 12
2505.03577518025
 22
-679.8775776551115
 32
0.0
 13
2505.03577518025
 23
-679.8775776551115
 33
0.0
1001
ACAD
1000
DSTYLE
1002
{
1070
    45
1040
0.5
1002
}
  0
LINE
  5
1AFD9
  8
1DIM
 10
2505.208398240777
 20
-679.5924243803883
 30
0.0
 11
2484.142091366835
 21
-666.8395272933406
 31
0.0
1001
ACAD
1000
DSTYLE
1002
{
1070
    45
1040
0.5
1002
}
  0
LINE
  5
1AFDA
  8
1DIM
 10
2484.142091366835
 20
-666.8395272933406
 30
0.0
 11
2391.630660716055
 21
-666.8395272933406
 31
0.0
1001
ACAD
1000
DSTYLE
1002
{
1070
    45
1040
0.5
1002
}
  0
TEXT
  5
1AFDB
  8
1DIM
  6
CONTINUOUS
 10
2392.75401458265
 20
-654.7508029196188
 30
0.0
 40
5.972261062908103
  1
Material\U+FF1AAluminium
  0
TEXT
  5
1AFDC
  8
1DIM
  6
CONTINUOUS
 10
2379.172650535889
 20
-664.704571357799
 30
0.0
 40
5.972261062908103
  1
Finish\U+FF1ABlasted black
  0
LINE
  5
1AFDD
  8
0
  6
BYBLOCK
 10
2669.801287438846
 20
-273.0148452408997
 30
0.0
 11
2667.801287438846
 21
-272.4789468608997
 31
0.0
  0
LINE
  5
1AFDE
  8
0
  6
BYBLOCK
 10
2667.801287438846
 20
-272.4789468608997
 30
0.0
 11
2669.801287438846
 21
-271.9430484808997
 31
0.0
  0
LINE
  5
1AFDF
  8
0
  6
BYBLOCK
 10
2667.801287438846
 20
-272.4789468608997
 30
0.0
 11
2669.801287438846
 21
-272.4789468608997
 31
0.0
  0
LINE
  5
1AFE0
  8
0
  6
BYBLOCK
 10
2701.012120010976
 20
-271.9430484808997
 30
0.0
 11
2703.012120010976
 21
-272.4789468608997
 31
0.0
  0
LINE
  5
1AFE1
  8
0
  6
BYBLOCK
 10
2703.012120010976
 20
-272.4789468608997
 30
0.0
 11
2701.012120010976
 21
-273.0148452408997
 31
0.0
  0
LINE
  5
1AFE2
  8
0
  6
BYBLOCK
 10
2703.012120010976
 20
-272.4789468608997
 30
0.0
 11
2701.012120010976
 21
-272.4789468608997
 31
0.0
  0
TEXT
  5
1AFE3
  8
1DIM
  6
CONTINUOUS
 10
2679.573370391577
 20
-271.7789468608997
 30
0.0
 40
7.0
  1
35
  0
LINE
  5
1AFE4
  8
0
  6
BYBLOCK
 10
2682.012166546874
 20
-287.746483786371
 30
0.0
 11
2684.012166546874
 21
-288.282382166371
 31
0.0
  0
LINE
  5
1AFE5
  8
0
  6
BYBLOCK
 10
2684.012166546874
 20
-288.282382166371
 30
0.0
 11
2682.012166546874
 21
-288.818280546371
 31
0.0
  0
LINE
  5
1AFE6
  8
0
  6
BYBLOCK
 10
2684.012166546874
 20
-288.282382166371
 30
0.0
 11
2682.012166546874
 21
-288.282382166371
 31
0.0
  0
LINE
  5
1AFE7
  8
0
  6
BYBLOCK
 10
2669.801287438846
 20
-288.818280546371
 30
0.0
 11
2667.801287438846
 21
-288.282382166371
 31
0.0
  0
LINE
  5
1AFE8
  8
0
  6
BYBLOCK
 10
2667.801287438846
 20
-288.282382166371
 30
0.0
 11
2669.801287438846
 21
-287.746483786371
 31
0.0
  0
LINE
  5
1AFE9
  8
0
  6
BYBLOCK
 10
2667.801287438846
 20
-288.282382166371
 30
0.0
 11
2669.801287438846
 21
-288.282382166371
 31
0.0
  0
TEXT
  5
1AFEA
  8
1DIM
  6
CONTINUOUS
 10
2640.493648549957
 20
-287.582382166371
 30
0.0
 40
7.0
  1
16.2
  0
LINE
  5
1AFEB
  8
0
  6
BYBLOCK
 10
2618.851794500486
 20
-343.264549132721
 30
0.0
 11
2619.387692880487
 21
-341.264549132721
 31
0.0
  0
LINE
  5
1AFEC
  8
0
  6
BYBLOCK
 10
2619.387692880487
 20
-341.264549132721
 30
0.0
 11
2619.923591260487
 21
-343.264549132721
 31
0.0
  0
LINE
  5
1AFED
  8
0
  6
BYBLOCK
 10
2619.387692880487
 20
-341.264549132721
 30
0.0
 11
2619.387692880487
 21
-343.264549132721
 31
0.0
  0
LINE
  5
1AFEE
  8
0
  6
BYBLOCK
 10
2619.923591260487
 20
-549.9149801986423
 30
0.0
 11
2619.387692880487
 21
-551.9149801986423
 31
0.0
  0
LINE
  5
1AFEF
  8
0
  6
BYBLOCK
 10
2619.387692880487
 20
-551.9149801986423
 30
0.0
 11
2618.851794500486
 21
-549.9149801986423
 31
0.0
  0
LINE
  5
1AFF0
  8
0
  6
BYBLOCK
 10
2619.387692880487
 20
-551.9149801986423
 30
0.0
 11
2619.387692880487
 21
-549.9149801986423
 31
0.0
  0
TEXT
  5
1AFF1
  8
1DIM
  6
CONTINUOUS
 10
2618.687692880487
 20
-462.3640702212369
 30
0.0
 40
7.0
  1
210.65
 50
90.0
1001
ACAD
1000
DSTYLE
1002
{
1070
    50
1040
1.570796326794897
1070
   345
1005
14
1070
   346
1005
14
1070
   347
1005
14
1002
}
  0
LINE
  5
1AFF2
  8
0
  6
BYBLOCK
 10
2040.680858148198
 20
-710.3495884579628
 30
0.0
 11
2038.680858148198
 21
-709.8136900779627
 31
0.0
  0
LINE
  5
1AFF3
  8
0
  6
BYBLOCK
 10
2038.680858148198
 20
-709.8136900779627
 30
0.0
 11
2040.680858148198
 21
-709.2777916979627
 31
0.0
  0
LINE
  5
1AFF4
  8
0
  6
BYBLOCK
 10
2038.680858148198
 20
-709.8136900779627
 30
0.0
 11
2040.680858148198
 21
-709.8136900779627
 31
0.0
  0
LINE
  5
1AFF5
  8
0
  6
BYBLOCK
 10
2585.376516891967
 20
-709.2777916979627
 30
0.0
 11
2587.376516891967
 21
-709.8136900779627
 31
0.0
  0
LINE
  5
1AFF6
  8
0
  6
BYBLOCK
 10
2587.376516891967
 20
-709.8136900779627
 30
0.0
 11
2585.376516891967
 21
-710.3495884579628
 31
0.0
  0
LINE
  5
1AFF7
  8
0
  6
BYBLOCK
 10
2587.376516891967
 20
-709.8136900779627
 30
0.0
 11
2585.376516891967
 21
-709.8136900779627
 31
0.0
  0
TEXT
  5
1AFF8
  8
1DIM
  6
CONTINUOUS
 10
2304.084243075638
 20
-709.1136900779627
 30
0.0
 40
7.0
  1
550
1001
ACAD
1000
DSTYLE
1002
{
1070
    50
1040
1.570796326794897
1070
   345
1005
14
1070
   346
1005
14
1070
   347
1005
14
1002
}
  0
LINE
  5
1AFF9
  8
0
  6
BYBLOCK
 10
2264.028687507227
 20
-654.5579178145189
 30
0.0
 11
2262.028687507227
 21
-654.0220194345188
 31
0.0
  0
LINE
  5
1AFFA
  8
0
  6
BYBLOCK
 10
2262.028687507227
 20
-654.0220194345188
 30
0.0
 11
2264.028687507227
 21
-653.4861210545188
 31
0.0
  0
LINE
  5
1AFFB
  8
0
  6
BYBLOCK
 10
2262.028687507227
 20
-654.0220194345188
 30
0.0
 11
2264.028687507227
 21
-654.0220194345188
 31
0.0
  0
LINE
  5
1AFFC
  8
0
  6
BYBLOCK
 10
2362.028687507214
 20
-653.4861210545188
 30
0.0
 11
2364.028687507214
 21
-654.0220194345188
 31
0.0
  0
LINE
  5
1AFFD
  8
0
  6
BYBLOCK
 10
2364.028687507214
 20
-654.0220194345188
 30
0.0
 11
2362.028687507214
 21
-654.5579178145189
 31
0.0
  0
LINE
  5
1AFFE
  8
0
  6
BYBLOCK
 10
2364.028687507214
 20
-654.0220194345188
 30
0.0
 11
2362.028687507214
 21
-654.0220194345188
 31
0.0
  0
TEXT
  5
1AFFF
  8
1DIM
  6
CONTINUOUS
 10
2301.945354173887
 20
-653.3220194345188
 30
0.0
 40
7.0
  1
P102
  0
LINE
  5
1B000
  8
0
  6
BYBLOCK
 10
2733.132405456643
 20
-381.2641472698446
 30
0.0
 11
2732.596507076643
 21
-383.2641472698446
 31
0.0
  0
LINE
  5
1B001
  8
0
  6
BYBLOCK
 10
2732.596507076643
 20
-383.2641472698446
 30
0.0
 11
2732.060608696643
 21
-381.2641472698446
 31
0.0
  0
LINE
  5
1B002
  8
0
  6
BYBLOCK
 10
2732.596507076643
 20
-383.2641472698446
 30
0.0
 11
2732.596507076643
 21
-381.2641472698446
 31
0.0
  0
LINE
  5
1B003
  8
0
  6
BYBLOCK
 10
2732.060608696643
 20
-343.2641472698446
 30
0.0
 11
2732.596507076643
 21
-341.2641472698446
 31
0.0
  0
LINE
  5
1B004
  8
0
  6
BYBLOCK
 10
2732.596507076643
 20
-341.2641472698446
 30
0.0
 11
2733.132405456643
 21
-343.2641472698446
 31
0.0
  0
LINE
  5
1B005
  8
0
  6
BYBLOCK
 10
2732.596507076643
 20
-341.2641472698446
 30
0.0
 11
2732.596507076643
 21
-343.2641472698446
 31
0.0
  0
TEXT
  5
1B006
  8
1DIM
  6
CONTINUOUS
 10
2731.896507076644
 20
-368.0974806031777
 30
0.0
 40
7.0
  1
42
 50
90.0
  0
VIEWPORT
  5
57
 67
     1
  8
0
 10
0.0
 20
0.0
 30
0.0
 40
615.2903225806451
 41
297.0
 68
     1
 69
     1
1001
ACAD
1000
MVIEW
1002
{
1070
    16
1010
0.0
1020
0.0
1030
0.0
1010
0.0
1020
0.0
1030
1.0
1040
0.0
1040
297.0
1040
-4.171999999925305
1040
12.83903210976956
1040
50.0
1040
0.0
1040
0.0
1070
    16
1070
   100
1070
     0
1070
     1
1070
     0
1070
     0
1070
     0
1070
     0
1040
0.0
1040
0.0
1040
0.0
1040
10.0
1040
10.0
1040
10.0
1040
10.0
1070
     0
1002
{
1002
}
1002
}
  0
ENDSEC
  0
EOF
