  0
SECTION
  2
HEADER
  9
$ACADVER
  1
AC1009
  9
$DWGCODEPAGE
  3
ansi_1252
  9
$INSBASE
 10
0.0
 20
0.0
 30
0.0
  9
$EXTMIN
 10
177.1124863956447
 20
-161.93014391271
 30
0.0
  9
$EXTMAX
 10
1244.935349053897
 20
93.03268813432825
 30
0.0
  9
$LIMMIN
 10
0.0
 20
0.0
  9
$LIMMAX
 10
420.0
 20
297.0
  9
$ORTHOMODE
 70
     0
  9
$REGENMODE
 70
     1
  9
$FILLMODE
 70
     1
  9
$QTEXTMODE
 70
     0
  9
$MIRRTEXT
 70
     0
  9
$DRAGMODE
 70
     2
  9
$LTSCALE
 40
0.5
  9
$OSMODE
 70
 15199
  9
$ATTMODE
 70
     1
  9
$TEXTSIZE
 40
4.0
  9
$TRACEWID
 40
1.0
  9
$TEXTSTYLE
  7
STANDARD
  9
$CLAYER
  8
1TEXT
  9
$CELTYPE
  6
BYLAYER
  9
$CECOLOR
 62
   256
  9
$DIMSCALE
 40
1.0
  9
$DIMASZ
 40
2.0
  9
$DIMEXO
 40
0.0
  9
$DIMDLI
 40
7.0
  9
$DIMRND
 40
0.0
  9
$DIMDLE
 40
0.0
  9
$DIMEXE
 40
1.0
  9
$DIMTP
 40
0.0
  9
$DIMTM
 40
0.0
  9
$DIMTXT
 40
3.5
  9
$DIMCEN
 40
0.0
  9
$DIMTSZ
 40
0.0
  9
$DIMTOL
 70
     0
  9
$DIMLIM
 70
     0
  9
$DIMTIH
 70
     0
  9
$DIMTOH
 70
     0
  9
$DIMSE1
 70
     0
  9
$DIMSE2
 70
     0
  9
$DIMTAD
 70
     1
  9
$DIMZIN
 70
     8
  9
$DIMBLK
  1

  9
$DIMASO
 70
     1
  9
$DIMSHO
 70
     1
  9
$DIMPOST
  1
 
  9
$DIMAPOST
  1

  9
$DIMALT
 70
     0
  9
$DIMALTD
 70
     2
  9
$DIMALTF
 40
25.4
  9
$DIMLFAC
 40
1.0
  9
$DIMTOFL
 70
     1
  9
$DIMTVP
 40
0.0
  9
$DIMTIX
 70
     0
  9
$DIMSOXD
 70
     0
  9
$DIMSAH
 70
     1
  9
$DIMBLK1
  1
OPEN30
  9
$DIMBLK2
  1
OPEN30
  9
$DIMSTYLE
  2
NEWX10
  9
$DIMCLRD
 70
   256
  9
$DIMCLRE
 70
   256
  9
$DIMCLRT
 70
   201
  9
$DIMTFAC
 40
0.7
  9
$DIMGAP
 40
0.7
  9
$LUNITS
 70
     2
  9
$LUPREC
 70
     4
  9
$SKETCHINC
 40
1.0
  9
$FILLETRAD
 40
0.0
  9
$AUNITS
 70
     0
  9
$AUPREC
 70
     2
  9
$MENU
  1
acad
  9
$ELEVATION
 40
0.0
  9
$PELEVATION
 40
0.0
  9
$THICKNESS
 40
0.0
  9
$LIMCHECK
 70
     0
  9
$CHAMFERA
 40
10.0
  9
$CHAMFERB
 40
10.0
  9
$SKPOLY
 70
     0
  9
$TDCREATE
 40
2451318.57968625
  9
$TDUPDATE
 40
2459102.65175037
  9
$TDINDWG
 40
1.557750463
  9
$TDUSRTIMER
 40
1.557750463
  9
$USRTIMER
 70
     1
  9
$ANGBASE
 50
0.0
  9
$ANGDIR
 70
     0
  9
$PDMODE
 70
     0
  9
$PDSIZE
 40
0.0
  9
$PLINEWID
 40
0.0
  9
$COORDS
 70
     2
  9
$SPLFRAME
 70
     0
  9
$SPLINETYPE
 70
     6
  9
$SPLINESEGS
 70
     8
  9
$ATTDIA
 70
     0
  9
$ATTREQ
 70
     1
  9
$HANDLING
 70
     1
  9
$HANDSEED
  5
1551D
  9
$SURFTAB1
 70
     6
  9
$SURFTAB2
 70
     6
  9
$SURFTYPE
 70
     6
  9
$SURFU
 70
     6
  9
$SURFV
 70
     6
  9
$UCSNAME
  2

  9
$UCSORG
 10
0.0
 20
0.0
 30
0.0
  9
$UCSXDIR
 10
1.0
 20
0.0
 30
0.0
  9
$UCSYDIR
 10
0.0
 20
1.0
 30
0.0
  9
$PUCSNAME
  2

  9
$PUCSORG
 10
0.0
 20
0.0
 30
0.0
  9
$PUCSXDIR
 10
1.0
 20
0.0
 30
0.0
  9
$PUCSYDIR
 10
0.0
 20
1.0
 30
0.0
  9
$USERI1
 70
     0
  9
$USERI2
 70
     0
  9
$USERI3
 70
     0
  9
$USERI4
 70
     0
  9
$USERI5
 70
     0
  9
$USERR1
 40
0.0
  9
$USERR2
 40
0.0
  9
$USERR3
 40
0.0
  9
$USERR4
 40
0.0
  9
$USERR5
 40
0.0
  9
$WORLDVIEW
 70
     1
  9
$SHADEDGE
 70
     3
  9
$SHADEDIF
 70
    70
  9
$TILEMODE
 70
     1
  9
$MAXACTVP
 70
    48
  9
$PLIMCHECK
 70
     0
  9
$PEXTMIN
 10
1.000000000000000E+20
 20
1.000000000000000E+20
 30
1.000000000000000E+20
  9
$PEXTMAX
 10
-1.000000000000000E+20
 20
-1.000000000000000E+20
 30
-1.000000000000000E+20
  9
$PLIMMIN
 10
0.0
 20
0.0
  9
$PLIMMAX
 10
420.0
 20
297.0
  9
$UNITMODE
 70
     0
  9
$VISRETAIN
 70
     1
  9
$PLINEGEN
 70
     0
  9
$PSLTSCALE
 70
     1
  0
ENDSEC
  0
SECTION
  2
TABLES
  0
TABLE
  2
VPORT
 70
     1
  0
VPORT
  2
*ACTIVE
 70
     0
 10
0.0
 20
0.0
 11
1.0
 21
1.0
 12
711.0239177247707
 22
-34.44872788919089
 13
0.0
 23
0.0
 14
10.0
 24
10.0
 15
10.0
 25
10.0
 16
0.0
 26
0.0
 36
1.0
 17
0.0
 27
0.0
 37
0.0
 40
553.4165548265988
 41
2.07168458781362
 42
50.0
 43
0.0
 44
0.0
 50
0.0
 51
0.0
 71
    16
 72
   100
 73
     1
 74
     1
 75
     0
 76
     0
 77
     0
 78
     0
  0
ENDTAB
  0
TABLE
  2
LTYPE
 70
    13
  0
LTYPE
  2
CONTINUOUS
 70
     0
  3
Solid line
 72
    65
 73
     0
 40
0.0
  0
LTYPE
  2
HIDDEN
 70
     0
  3
Hidden __ __ __ __ __ __ __ __ __ __ __ __ __ _
 72
    65
 73
     2
 40
9.524999999999999
 49
6.35
 49
-3.175
  0
LTYPE
  2
CENTER2
 70
     0
  3
Center (.5x) ___ _ ___ _ ___ _ ___ _ ___ _ ___
 72
    65
 73
     4
 40
28.575
 49
19.05
 49
-3.175
 49
3.175
 49
-3.175
  0
LTYPE
  2
DASHED2
 70
     0
  3
Dashed (0.5x) _ _ _ _ _ _ _ _ _ _ _ _ _ _ _ _ _
 72
    65
 73
     2
 40
9.524999999999999
 49
6.35
 49
-3.175
  0
ENDTAB
  0
TABLE
  2
LAYER
 70
    52
  0
LAYER
  2
0
 70
     0
 62
     7
  6
CONTINUOUS
  0
LAYER
  2
1CENTER
 70
     0
 62
     7
  6
CENTER2
  0
LAYER
  2
1TEXT
 70
     0
 62
     7
  6
CONTINUOUS
  0
LAYER
  2
01
 70
     0
 62
     1
  6
CONTINUOUS
  0
LAYER
  2
1DIM
 70
     0
 62
     7
  6
CONTINUOUS
  0
LAYER
  2
1HATCH
 70
     0
 62
     7
  6
CONTINUOUS
  0
ENDTAB
  0
TABLE
  2
STYLE
 70
    19
  0
STYLE
  2
STANDARD
 70
     0
 40
0.0
 41
1.0
 50
0.0
 71
     0
 42
4.0
  3
txt.shx
  4
extfont.shx
  0
STYLE
  2
STANDARD06
 70
     0
 40
0.0
 41
0.6
 50
0.0
 71
     0
 42
2.0
  3
romans.shx
  4
extfont2.shx
  0
ENDTAB
  0
TABLE
  2
VIEW
 70
     0
  0
ENDTAB
  0
TABLE
  2
UCS
 70
     0
  0
ENDTAB
  0
TABLE
  2
APPID
 70
    24
  0
APPID
  2
ACAD
 70
     0
  0
APPID
  2
DRAWINGVARIABLESXDATA
 70
     0
  0
APPID
  2
CONTENTTABDATA
 70
     0
  0
APPID
  2
CONTENTCURRENTTAB
 70
     0
  0
APPID
  2
CONTENTBLOCKDESCRIPTION
 70
     0
  0
APPID
  2
CONTENTBLOCKICON
 70
     0
  0
APPID
  2
CONTENTLONGBLOCKNAME
 70
     0
  0
APPID
  2
ACAD_PSEXT
 70
     0
  0
APPID
  2
ACAD_MLEADERVER
 70
     0
  0
APPID
  2
ACAD_EXEMPT_FROM_CAD_STAND
 70
     0
  0
APPID
  2
ACAECLAYERSTANDARD
 70
     0
  0
APPID
  2
ACADANNOTATIVE
 70
     0
  0
APPID
  2
ACDBBLOCKREPETAG
 70
     0
  0
APPID
  2
ACAD_OBJECT_CHANGE_GUID
 70
     0
  0
APPID
  2
ACLAYERTOOLS
 70
     0
  0
APPID
  2
ACAD_NAV_VCDISPLAY
 70
     0
  0
APPID
  2
ACADSTRINGINFO
 70
     0
  0
APPID
  2
GRADIENTCOLOR1ACI
 70
     0
  0
APPID
  2
GRADIENTCOLOR2ACI
 70
     0
  0
APPID
  2
ACADANNOMONITORALERTICONDI
 70
     0
  0
APPID
  2
ACAD_DSTYLE_DIMJOGGED_JOGA
 70
     0
  0
APPID
  2
ACAD_DSTYLE_DIM_LINETYPE
 70
     0
  0
APPID
  2
ACAD_DSTYLE_DIM_EXT1_LINET
 70
     0
  0
APPID
  2
ACAD_DSTYLE_DIM_EXT2_LINET
 70
     0
  0
ENDTAB
  0
TABLE
  2
DIMSTYLE
 70
     3
  0
DIMSTYLE
  2
NEWX10
 70
     0
  3
 
  4

  5

  6
OPEN30
  7
OPEN30
 40
1.0
 41
2.0
 42
0.0
 43
7.0
 44
1.0
 45
0.0
 46
0.0
 47
0.0
 48
0.0
140
3.5
141
0.0
142
0.0
143
25.4
144
1.0
145
0.0
146
0.7
147
0.7
 71
     0
 72
     0
 73
     0
 74
     0
 75
     0
 76
     0
 77
     1
 78
     8
170
     0
171
     2
172
     1
173
     1
174
     0
175
     0
176
   256
177
   256
178
   201
  0
ENDTAB
  0
ENDSEC
  0
SECTION
  2
BLOCKS
  0
BLOCK
  8
0
  2
$MODEL_SPACE
 70
     0
 10
0.0
 20
0.0
 30
0.0
  3
$MODEL_SPACE
  1

  0
ENDBLK
  5
1A
  8
0
  0
BLOCK
 67
     1
  8
0
  2
$PAPER_SPACE
 70
     0
 10
0.0
 20
0.0
 30
0.0
  3
$PAPER_SPACE
  1

  0
ENDBLK
  5
17
 67
     1
  8
0
  0
BLOCK
  8
0
  2
_OPEN30
 70
     0
 10
0.0
 20
0.0
 30
0.0
  3
_OPEN30
  1

  0
LINE
  5
44
  8
0
  6
BYBLOCK
 62
     0
 10
-1.0
 20
0.26794919
 30
0.0
 11
0.0
 21
0.0
 31
0.0
  0
LINE
  5
45
  8
0
  6
BYBLOCK
 62
     0
 10
0.0
 20
0.0
 30
0.0
 11
-1.0
 21
-0.26794919
 31
0.0
  0
LINE
  5
46
  8
0
  6
BYBLOCK
 62
     0
 10
0.0
 20
0.0
 30
0.0
 11
-1.0
 21
0.0
 31
0.0
  0
ENDBLK
  5
47
  8
0
  0
BLOCK
  8
0
  2
A3WAKUKAWAJUN2017_HYOUDAI_
 70
     0
 10
0.0
 20
0.0
 30
0.0
  3
A3WAKUKAWAJUN2017_HYOUDAI_
  1

  0
LINE
  5
1057F
  8
0
 10
13.26299999998673
 20
-0.0001000000000317
 30
0.0
 11
9.236999999990758
 21
8.999899999990987
 31
0.0
1001
ACAD
1000
ASC_BOUNDS
1002
{
1070
    19
1005
105C0
1002
}
  0
LINE
  5
10580
  8
0
 10
5.657999999994331
 20
0.9999999999989768
 30
0.0
 11
9.236999999990758
 21
8.999999999991019
 31
0.0
1001
ACAD
1000
ASC_BOUNDS
1002
{
1070
    19
1005
105C0
1002
}
  0
LINE
  5
10581
  8
0
 10
18.59199999998134
 20
-0.2368999999997641
 30
0.0
 11
16.46099999998353
 21
5.432899999994561
 31
0.0
1001
ACAD
1000
ASC_BOUNDS
1002
{
1070
    19
1005
105C1
1002
}
  0
LINE
  5
10582
  8
0
 10
18.59199999998134
 20
-0.2368999999997641
 30
0.0
 11
22.38199999997767
 21
8.763099999991255
 31
0.0
1001
ACAD
1000
ASC_BOUNDS
1002
{
1070
    19
1005
105C1
1002
}
  0
LINE
  5
10583
  8
0
 10
14.32899999998563
 20
-0.2368999999997641
 30
0.0
 11
16.46099999998353
 21
5.432899999994561
 31
0.0
1001
ACAD
1000
ASC_BOUNDS
1002
{
1070
    19
1005
105C1
1002
}
  0
LINE
  5
10584
  8
0
 10
14.32899999998563
 20
-0.2368999999997641
 30
0.0
 11
10.53899999998941
 21
8.763099999991255
 31
0.0
1001
ACAD
1000
ASC_BOUNDS
1002
{
1070
    19
1005
105C1
1002
}
  0
LINE
  5
10585
  8
0
 10
19.53899999998043
 20
-0.0001000000000317
 30
0.0
 11
23.56599999997638
 21
8.999899999990987
 31
0.0
1001
ACAD
1000
ASC_BOUNDS
1002
{
1070
    19
1005
105C2
1002
}
  0
LINE
  5
10586
  8
0
 10
26.97358892824991
 20
1.383099999991202
 30
0.0
 11
23.56599999997638
 21
8.999899999990987
 31
0.0
1001
ACAD
1000
ASC_BOUNDS
1002
{
1070
    19
1005
105C2
1002
}
  0
LINE
  5
10587
  8
0
 10
5.657999999994331
 20
0.9999999999989768
 30
0.0
 11
3.181999999996833
 21
4.668599999995308
 31
0.0
1001
ACAD
1000
ASC_BOUNDS
1002
{
1070
    19
1005
105C0
1002
}
  0
LINE
  5
10588
  8
0
 10
4.617999999995391
 20
-0.0001000000000317
 30
0.0
 11
1.420999999998571
 21
4.736799999995242
 31
0.0
1001
ACAD
1000
ASC_BOUNDS
1002
{
1070
    19
1005
105C0
1002
}
  0
LINE
  5
10589
  8
0
 10
1.420999999998571
 20
8.763099999991255
 30
0.0
 11
1.420999999998571
 21
0.0
 31
0.0
1001
ACAD
1000
ASC_BOUNDS
1002
{
1070
    19
1005
105C5
1002
}
  0
LINE
  5
1058A
  8
0
 10
0.0
 20
8.763099999991255
 30
0.0
 11
0.0
 21
0.0
 31
0.0
1001
ACAD
1000
ASC_BOUNDS
1002
{
1070
    19
1005
105C5
1002
}
  0
LINE
  5
1058B
  8
0
 10
6.766999999993232
 20
-0.0001000000000317
 30
0.0
 11
7.826999999992154
 21
2.368399999997621
 31
0.0
1001
ACAD
1000
ASC_BOUNDS
1002
{
1070
    19
1005
105C0
1002
}
  0
LINE
  5
1058C
  8
0
 10
0.0
 20
0.0
 30
0.0
 11
1.420999999998571
 21
0.0
 31
0.0
1001
ACAD
1000
ASC_BOUNDS
1002
{
1070
    19
1005
105C5
1002
}
  0
LINE
  5
1058D
  8
0
 10
4.617999999995391
 20
0.0
 30
0.0
 11
6.766999999993232
 21
0.0
 31
0.0
1001
ACAD
1000
ASC_BOUNDS
1002
{
1070
    19
1005
105C0
1002
}
  0
LINE
  5
1058E
  8
0
 10
11.70599999998831
 20
-0.0001000000000317
 30
0.0
 11
10.64699999998936
 21
2.368399999997621
 31
0.0
1001
ACAD
1000
ASC_BOUNDS
1002
{
1070
    19
1005
105C0
1002
}
  0
LINE
  5
1058F
  8
0
 10
7.826999999992154
 20
2.368399999997621
 30
0.0
 11
10.64699999998936
 21
2.368399999997621
 31
0.0
1001
ACAD
1000
ASC_BOUNDS
1002
{
1070
    19
1005
105C0
1002
}
  0
LINE
  5
10590
  8
0
 10
11.70599999998831
 20
0.0
 30
0.0
 11
13.26299999998673
 21
0.0
 31
0.0
1001
ACAD
1000
ASC_BOUNDS
1002
{
1070
    19
1005
105C0
1002
}
  0
LINE
  5
10591
  8
0
 10
22.15599999997789
 20
2.368399999997621
 30
0.0
 11
24.97599999997499
 21
2.368399999997621
 31
0.0
1001
ACAD
1000
ASC_BOUNDS
1002
{
1070
    19
1005
105C2
1002
}
  0
LINE
  5
10592
  8
0
 10
19.53899999998043
 20
0.0
 30
0.0
 11
21.09599999997886
 21
0.0
 31
0.0
1001
ACAD
1000
ASC_BOUNDS
1002
{
1070
    19
1005
105C2
1002
}
  0
LINE
  5
10593
  8
0
 10
21.09599999997886
 20
-0.0001000000000317
 30
0.0
 11
22.15599999997789
 21
2.368399999997621
 31
0.0
1001
ACAD
1000
ASC_BOUNDS
1002
{
1070
    19
1005
105C2
1002
}
  0
LINE
  5
10594
  8
0
 10
26.02015566812236
 20
0.0330999999912365
 30
0.0
 11
24.97599999997499
 21
2.368399999997621
 31
0.0
1001
ACAD
1000
ASC_BOUNDS
1002
{
1070
    19
1005
105C2
1002
}
  0
LINE
  5
10595
  8
0
 10
14.32399999998563
 20
3.315799999996671
 30
0.0
 11
16.46099999998353
 21
8.999899999990987
 31
0.0
1001
ACAD
1000
ASC_BOUNDS
1002
{
1070
    19
1005
105C1
1002
}
  0
LINE
  5
10596
  8
0
 10
6.432999999993513
 20
8.763099999991255
 30
0.0
 11
3.181999999996833
 21
4.668599999995308
 31
0.0
1001
ACAD
1000
ASC_BOUNDS
1002
{
1070
    19
1005
105C0
1002
}
  0
LINE
  5
10597
  8
0
 10
4.617999999995391
 20
8.763099999991255
 30
0.0
 11
1.420999999998571
 21
4.736799999995242
 31
0.0
1001
ACAD
1000
ASC_BOUNDS
1002
{
1070
    19
1005
105C0
1002
}
  0
LINE
  5
10598
  8
0
 10
0.0
 20
8.763099999991255
 30
0.0
 11
1.420999999998571
 21
8.763099999991255
 31
0.0
1001
ACAD
1000
ASC_BOUNDS
1002
{
1070
    19
1005
105C5
1002
}
  0
LINE
  5
10599
  8
0
 10
4.617999999995391
 20
8.763099999991255
 30
0.0
 11
6.432999999993513
 21
8.763099999991255
 31
0.0
1001
ACAD
1000
ASC_BOUNDS
1002
{
1070
    19
1005
105C0
1002
}
  0
LINE
  5
1059A
  8
0
 10
14.32399999998563
 20
3.315799999996671
 30
0.0
 11
12.02999999998792
 21
8.763099999991255
 31
0.0
1001
ACAD
1000
ASC_BOUNDS
1002
{
1070
    19
1005
105C1
1002
}
  0
LINE
  5
1059B
  8
0
 10
10.06399999998996
 20
3.670999999996297
 30
0.0
 11
9.236999999990758
 21
5.5200999999945
 31
0.0
1001
ACAD
1000
ASC_BOUNDS
1002
{
1070
    19
1005
105C0
1002
}
  0
LINE
  5
1059C
  8
0
 10
8.409999999991555
 20
3.670999999996297
 30
0.0
 11
9.236999999990758
 21
5.5200999999945
 31
0.0
1001
ACAD
1000
ASC_BOUNDS
1002
{
1070
    19
1005
105C0
1002
}
  0
LINE
  5
1059D
  8
0
 10
8.409999999991555
 20
3.670999999996297
 30
0.0
 11
10.06399999998996
 21
3.670999999996297
 31
0.0
1001
ACAD
1000
ASC_BOUNDS
1002
{
1070
    19
1005
105C0
1002
}
  0
LINE
  5
1059E
  8
0
 10
10.53899999998941
 20
8.763099999991255
 30
0.0
 11
12.02999999998792
 21
8.763099999991255
 31
0.0
1001
ACAD
1000
ASC_BOUNDS
1002
{
1070
    19
1005
105C1
1002
}
  0
LINE
  5
1059F
  8
0
 10
22.7389999999773
 20
3.670999999996297
 30
0.0
 11
23.56599999997638
 21
5.5200999999945
 31
0.0
1001
ACAD
1000
ASC_BOUNDS
1002
{
1070
    19
1005
105C2
1002
}
  0
LINE
  5
105A0
  8
0
 10
22.7389999999773
 20
3.670999999996297
 30
0.0
 11
24.39299999997559
 21
3.670999999996297
 31
0.0
1001
ACAD
1000
ASC_BOUNDS
1002
{
1070
    19
1005
105C2
1002
}
  0
LINE
  5
105A1
  8
0
 10
18.59799999998143
 20
3.315799999996671
 30
0.0
 11
20.89099999997916
 21
8.763099999991255
 31
0.0
1001
ACAD
1000
ASC_BOUNDS
1002
{
1070
    19
1005
105C1
1002
}
  0
LINE
  5
105A2
  8
0
 10
18.59799999998143
 20
3.315799999996671
 30
0.0
 11
16.46099999998353
 21
8.999899999990987
 31
0.0
1001
ACAD
1000
ASC_BOUNDS
1002
{
1070
    19
1005
105C1
1002
}
  0
LINE
  5
105A3
  8
0
 10
20.89099999997916
 20
8.763099999991255
 30
0.0
 11
22.38199999997767
 21
8.763099999991255
 31
0.0
1001
ACAD
1000
ASC_BOUNDS
1002
{
1070
    19
1005
105C1
1002
}
  0
LINE
  5
105A4
  8
0
 10
24.39299999997559
 20
3.670999999996297
 30
0.0
 11
23.56599999997638
 21
5.5200999999945
 31
0.0
1001
ACAD
1000
ASC_BOUNDS
1002
{
1070
    19
1005
105C2
1002
}
  0
LINE
  5
105A5
  8
0
 10
44.99999999995498
 20
-0.2368999999997641
 30
0.0
 11
40.02599999995994
 21
5.341799999994635
 31
0.0
1001
ACAD
1000
ASC_BOUNDS
1002
{
1070
    19
1005
105C4
1002
}
  0
LINE
  5
105A6
  8
0
 10
40.02599999995994
 20
5.341799999994635
 30
0.0
 11
40.02599999995994
 21
0.0
 31
0.0
1001
ACAD
1000
ASC_BOUNDS
1002
{
1070
    19
1005
105C4
1002
}
  0
LINE
  5
105A7
  8
0
 10
38.60499999996136
 20
8.999999999991019
 30
0.0
 11
38.60499999996136
 21
0.0
 31
0.0
1001
ACAD
1000
ASC_BOUNDS
1002
{
1070
    19
1005
105C4
1002
}
  0
LINE
  5
105A8
  8
0
 10
44.99999999995498
 20
8.763099999991255
 30
0.0
 11
44.99999999995498
 21
-0.2368999999997641
 31
0.0
1001
ACAD
1000
ASC_BOUNDS
1002
{
1070
    19
1005
105C4
1002
}
  0
LINE
  5
105A9
  8
0
 10
38.60499999996136
 20
0.0
 30
0.0
 11
40.02599999995994
 21
0.0
 31
0.0
1001
ACAD
1000
ASC_BOUNDS
1002
{
1070
    19
1005
105C4
1002
}
  0
LINE
  5
105AA
  8
0
 10
43.57899999995641
 20
3.421199999996588
 30
0.0
 11
38.60499999996136
 21
8.999899999990987
 31
0.0
1001
ACAD
1000
ASC_BOUNDS
1002
{
1070
    19
1005
105C4
1002
}
  0
LINE
  5
105AB
  8
0
 10
43.57899999995641
 20
8.763099999991255
 30
0.0
 11
43.57899999995641
 21
3.421199999996588
 31
0.0
1001
ACAD
1000
ASC_BOUNDS
1002
{
1070
    19
1005
105C4
1002
}
  0
LINE
  5
105AC
  8
0
 10
43.57899999995641
 20
8.763099999991255
 30
0.0
 11
44.99999999995498
 21
8.763099999991255
 31
0.0
1001
ACAD
1000
ASC_BOUNDS
1002
{
1070
    19
1005
105C4
1002
}
  0
LINE
  5
105AD
  8
0
 10
37.67199999996831
 20
8.763099999991255
 30
0.0
 11
36.23199999996837
 21
8.763099999991255
 31
0.0
  0
LINE
  5
105AE
  8
0
 10
31.64199999996833
 20
8.763099999991255
 30
0.0
 11
31.64199999996833
 21
2.481619422925121
 31
0.0
  0
LINE
  5
105AF
  8
0
 10
37.67199999996831
 20
8.763099999991255
 30
0.0
 11
37.67199999996831
 21
2.481619422925121
 31
0.0
  0
LINE
  5
105B0
  8
0
 10
36.23199999996837
 20
8.763099999991255
 30
0.0
 11
36.23199999996837
 21
2.481619422925064
 31
0.0
  0
LINE
  5
105B1
  8
0
 10
33.08199999996839
 20
8.763099999991255
 30
0.0
 11
33.08199999996839
 21
2.481619422925121
 31
0.0
  0
ARC
  5
105B2
  8
0
 10
34.65699999996832
 20
3.183099999991214
 30
0.0
 40
3.420000000000007
 50
240.0000000000255
 51
299.9999999999766
  0
ARC
  5
105B3
  8
0
 10
34.65699999996832
 20
3.183099999991214
 30
0.0
 40
1.97999999999999
 50
240.000000000026
 51
299.9999999999703
  0
LINE
  5
105B4
  8
0
 10
33.08199999996828
 20
8.763099999991255
 30
0.0
 11
31.64199999996833
 21
8.763099999991255
 31
0.0
  0
ARC
  5
105B5
  8
0
 10
35.06199999996829
 20
2.481619422925064
 30
0.0
 40
1.17
 50
299.9999999999699
 51
0.0
  0
ARC
  5
105B6
  8
0
 10
34.25199999996835
 20
2.481619422925121
 30
0.0
 40
1.17
 50
180.0
 51
240.0000000000238
  0
ARC
  5
105B7
  8
0
 10
35.06199999996841
 20
2.481619422925121
 30
0.0
 40
2.61
 50
299.9999999999756
 51
0.0
  0
ARC
  5
105B8
  8
0
 10
34.25199999996835
 20
2.481619422925121
 30
0.0
 40
2.61
 50
180.0
 51
240.0000000000244
  0
LINE
  5
105B9
  8
0
 10
29.30199999996933
 20
8.763099999991255
 30
0.0
 11
30.74199999996927
 21
8.763099999991255
 31
0.0
1001
ACAD
1000
ASC_BOUNDS
1002
{
1070
    19
1005
105C2
1002
}
  0
LINE
  5
105BA
  8
0
 10
30.74199999996927
 20
8.763099999991255
 30
0.0
 11
30.74199999996927
 21
2.373099999991211
 31
0.0
1001
ACAD
1000
ASC_BOUNDS
1002
{
1070
    19
1005
105C2
1002
}
  0
LINE
  5
105BB
  8
0
 10
26.02015566812236
 20
0.0330999999912365
 30
0.0
 11
28.40199999996923
 21
0.0330999999912365
 31
0.0
1001
ACAD
1000
ASC_BOUNDS
1002
{
1070
    19
1005
105C2
1002
}
  0
LINE
  5
105BC
  8
0
 10
29.30199999996933
 20
8.763099999991255
 30
0.0
 11
29.30199999996933
 21
2.283099999991236
 31
0.0
1001
ACAD
1000
ASC_BOUNDS
1002
{
1070
    19
1005
105C2
1002
}
  0
LINE
  5
105BD
  8
0
 10
26.97358892824991
 20
1.383099999991202
 30
0.0
 11
28.40199999996923
 21
1.383099999991202
 31
0.0
1001
ACAD
1000
ASC_BOUNDS
1002
{
1070
    19
1005
105C2
1002
}
  0
ARC
  5
105BE
  8
0
 10
28.40199999996923
 20
2.283099999991236
 30
0.0
 40
0.9
 50
270.0
 51
0.0
1001
ACAD
1000
ASC_BOUNDS
1002
{
1070
    19
1005
105C2
1002
}
  0
ARC
  5
105BF
  8
0
 10
28.40199999996923
 20
2.373099999991211
 30
0.0
 40
2.34
 50
270.0
 51
0.0
1001
ACAD
1000
ASC_BOUNDS
1002
{
1070
    19
1005
105C2
1002
}
  0
INSERT
  5
105C0
  8
0
  2
*X47
 10
0.0
 20
0.0
 30
0.0
1001
ACAD
1000
HATCH
1002
{
1070
    19
1000
ANSI37
1040
0.15
1040
0.0
1000
ASC_BOUNDS
1070
     2
1070
     2
1070
    12
1005
1057F
1005
10580
1005
10587
1005
10596
1005
10599
1005
10597
1005
10588
1005
1058D
1005
1058B
1005
1058F
1005
1058E
1005
10590
1070
     2
1070
     3
1005
1059B
1005
1059D
1005
1059C
1000
ASC_SEEDPOINT
1011
3.614004224891801
1021
2.996669441146025
1031
0.0
1021
2.996669441146025
1031
0.0
1000
R14_HATCH_DATA
1000
105C0
1011
1.0
1021
0.0
1031
0.0
1021
0.0
1031
0.0
1011
0.0
1021
1.0
1031
0.0
1021
1.0
1031
0.0
1011
0.0
1021
0.0
1031
1.0
1021
0.0
1031
1.0
1040
0.0
1010
0.0
1020
0.0
1030
1.0
1000
ANSI37
1070
     0
1070
     1
1071
        2
1071
        7
1070
     0
1070
     1
1071
       17
1040
13.26299999998673
1040
-0.0001000000000317
1040
9.236999999990758
1040
8.999899999990987
1040
9.236999999990758
1040
8.999999999991019
1040
5.657999999994331
1040
0.9999999999989768
1040
3.181999999996833
1040
4.668599999995308
1040
6.432999999993513
1040
8.763099999991255
1040
4.617999999995391
1040
8.763099999991255
1040
1.420999999998571
1040
4.736799999995242
1040
4.617999999995391
1040
-0.0001000000000317
1040
4.617999999995391
1040
0.0
1040
6.766999999993232
1040
0.0
1040
6.766999999993232
1040
-0.0001000000000317
1040
7.826999999992154
1040
2.368399999997621
1040
10.64699999998936
1040
2.368399999997621
1040
11.70599999998831
1040
-0.0001000000000317
1040
11.70599999998831
1040
0.0
1040
13.26299999998673
1040
0.0
1071
       12
1005
1057F
1005
10580
1005
10587
1005
10596
1005
10599
1005
10597
1005
10588
1005
1058D
1005
1058B
1005
1058F
1005
1058E
1005
10590
1071
       22
1070
     0
1070
     1
1071
        3
1040
9.236999999990758
1040
5.5200999999945
1040
10.06399999998996
1040
3.670999999996297
1040
8.409999999991555
1040
3.670999999996297
1071
        3
1005
1059B
1005
1059D
1005
1059C
1070
     0
1070
     1
1040
0.0
1040
0.15
1070
     0
1070
     2
1040
0.7853981633974483
1040
49.29960901727088
1040
-10.17736998311392
1040
-0.3367596045400932
1040
0.3367596045400932
1070
     0
1040
2.356194490192345
1040
49.29960901727088
1040
-10.17736998311392
1040
-0.3367596045400932
1040
-0.3367596045400932
1070
     0
1040
0.0110235143455945
1071
        2
1040
3.614004224891801
1040
2.996669441146025
1040
0.0
1040
3.614004224891801
1040
2.996669441146025
1040
0.0
1002
}
  0
INSERT
  5
105C1
  8
0
  2
*X48
 10
0.0
 20
0.0
 30
0.0
1001
ACAD
1000
HATCH
1002
{
1070
    19
1000
ANSI37
1040
0.15
1040
0.0
1000
ASC_BOUNDS
1070
     1
1070
     2
1070
    10
1005
10581
1005
10582
1005
105A3
1005
105A1
1005
105A2
1005
10595
1005
1059A
1005
1059E
1005
10584
1005
10583
1000
ASC_SEEDPOINT
1011
14.73245321214324
1021
2.798246178283421
1031
0.0
1021
2.798246178283421
1031
0.0
1000
R14_HATCH_DATA
1000
105C1
1011
1.0
1021
0.0
1031
0.0
1021
0.0
1031
0.0
1011
0.0
1021
1.0
1031
0.0
1021
1.0
1031
0.0
1011
0.0
1021
0.0
1031
1.0
1021
0.0
1031
1.0
1040
0.0
1010
0.0
1020
0.0
1030
1.0
1000
ANSI37
1070
     0
1070
     1
1071
        1
1071
        7
1070
     0
1070
     1
1071
       10
1040
16.46099999998353
1040
5.432899999994561
1040
18.59199999998134
1040
-0.2368999999997641
1040
22.38199999997767
1040
8.763099999991255
1040
20.89099999997916
1040
8.763099999991255
1040
18.59799999998143
1040
3.315799999996671
1040
16.46099999998353
1040
8.999899999990987
1040
14.32399999998563
1040
3.315799999996671
1040
12.02999999998792
1040
8.763099999991255
1040
10.53899999998941
1040
8.763099999991255
1040
14.32899999998563
1040
-0.2368999999997641
1071
       10
1005
10581
1005
10582
1005
105A3
1005
105A1
1005
105A2
1005
10595
1005
1059A
1005
1059E
1005
10584
1005
10583
1070
     0
1070
     1
1040
0.0
1040
0.15
1070
     0
1070
     2
1040
0.7853981633974483
1040
49.29960901727088
1040
-10.17736998311392
1040
-0.3367596045400932
1040
0.3367596045400932
1070
     0
1040
2.356194490192345
1040
49.29960901727088
1040
-10.17736998311392
1040
-0.3367596045400932
1040
-0.3367596045400932
1070
     0
1040
0.0110235143455945
1071
        1
1040
14.73245321214324
1040
2.798246178283421
1040
0.0
1002
}
  0
INSERT
  5
105C2
  8
0
  2
*X49
 10
0.0
 20
0.0
 30
0.0
1001
ACAD
1000
HATCH
1002
{
1070
    19
1000
ANSI37
1040
0.15
1040
0.0
1000
ASC_BOUNDS
1070
     2
1070
     2
1070
    13
1005
10585
1005
10592
1005
10593
1005
10591
1005
10594
1005
105BB
1005
105BF
1005
105BA
1005
105B9
1005
105BC
1005
105BE
1005
105BD
1005
10586
1070
     2
1070
     3
1005
1059F
1005
105A4
1005
105A0
1000
ASC_SEEDPOINT
1011
21.97929957367762
1021
3.294304244259308
1031
0.0
1021
3.294304244259308
1031
0.0
1000
R14_HATCH_DATA
1000
105C2
1011
1.0
1021
0.0
1031
0.0
1021
0.0
1031
0.0
1011
0.0
1021
1.0
1031
0.0
1021
1.0
1031
0.0
1011
0.0
1021
0.0
1031
1.0
1021
0.0
1031
1.0
1040
0.0
1010
0.0
1020
0.0
1030
1.0
1000
ANSI37
1070
     0
1070
     1
1071
        2
1071
        7
1070
     1
1070
     1
1071
       15
1040
23.56599999997638
1040
8.999899999990987
1040
0.0
1040
19.53899999998043
1040
-0.0001000000000317
1040
0.0
1040
19.53899999998043
1040
0.0
1040
0.0
1040
21.09599999997886
1040
0.0
1040
0.0
1040
21.09599999997886
1040
-0.0001000000000317
1040
0.0
1040
22.15599999997789
1040
2.368399999997621
1040
0.0
1040
24.97599999997499
1040
2.368399999997621
1040
0.0
1040
26.02015566812236
1040
0.0330999999912365
1040
0.0
1040
28.40199999996923
1040
0.0330999999912365
1040
0.414213562373095
1040
30.74199999996923
1040
2.373099999991211
1040
0.0
1040
30.74199999996927
1040
8.763099999991255
1040
0.0
1040
29.30199999996933
1040
8.763099999991255
1040
0.0
1040
29.30199999996933
1040
2.283099999991236
1040
-0.414213562373095
1040
28.40199999996923
1040
1.383099999991237
1040
0.0
1040
26.97358892824991
1040
1.383099999991202
1040
0.0
1071
       13
1005
10585
1005
10592
1005
10593
1005
10591
1005
10594
1005
105BB
1005
105BF
1005
105BA
1005
105B9
1005
105BC
1005
105BE
1005
105BD
1005
10586
1071
       22
1070
     0
1070
     1
1071
        3
1040
22.7389999999773
1040
3.670999999996297
1040
23.56599999997638
1040
5.5200999999945
1040
24.39299999997559
1040
3.670999999996297
1071
        3
1005
1059F
1005
105A4
1005
105A0
1070
     0
1070
     1
1040
0.0
1040
0.15
1070
     0
1070
     2
1040
0.7853981633974483
1040
49.29960901727088
1040
-10.17736998311392
1040
-0.3367596045400932
1040
0.3367596045400932
1070
     0
1040
2.356194490192345
1040
49.29960901727088
1040
-10.17736998311392
1040
-0.3367596045400932
1040
-0.3367596045400932
1070
     0
1040
0.0110235143455945
1071
        2
1040
21.97929957367762
1040
3.294304244259308
1040
0.0
1040
21.97929957367762
1040
3.294304244259308
1040
0.0
1002
}
  0
INSERT
  5
105C3
  8
0
  2
*X50
 10
0.0
 20
0.0
 30
0.0
1001
ACAD
1000
HATCH
1002
{
1070
    19
1000
ANSI37
1040
0.15
1040
0.0
1000
R14_HATCH_DATA
1000
105C3
1011
1.0
1021
0.0
1031
0.0
1021
0.0
1031
0.0
1011
0.0
1021
1.0
1031
0.0
1021
1.0
1031
0.0
1011
0.0
1021
0.0
1031
1.0
1021
0.0
1031
1.0
1040
0.0
1010
0.0
1020
0.0
1030
1.0
1000
ANSI37
1070
     0
1070
     1
1071
        1
1071
        7
1070
     1
1070
     1
1071
       12
1040
31.64199999996833
1040
2.481619422925121
1040
0.2679491924310942
1040
32.94699999997067
1040
0.2212931190493919
1040
0.2679491924301353
1040
36.36699999995983
1040
0.2212931190459813
1040
0.2679491924321411
1040
37.67199999996831
1040
2.481619422928361
1040
0.0
1040
37.67199999996831
1040
8.763099999991255
1040
0.0
1040
36.23199999996837
1040
8.763099999991255
1040
0.0
1040
36.23199999996837
1040
2.481619422925064
1040
-0.2679491924310291
1040
35.64699999996708
1040
1.468369700498386
1040
-0.267949192430519
1040
33.66699999997093
1040
1.468369700497703
1040
-0.267949192431809
1040
33.08199999996839
1040
2.481619422926997
1040
0.0
1040
33.08199999996839
1040
8.763099999991255
1040
0.0
1040
31.64199999996833
1040
8.763099999991255
1040
0.0
1071
        0
1070
     0
1070
     1
1040
0.0
1040
0.15
1070
     0
1070
     2
1040
0.7853981633974483
1040
49.29960901727088
1040
-10.17736998311392
1040
-0.3367596045400932
1040
0.3367596045400932
1070
     0
1040
2.356194490192345
1040
49.29960901727088
1040
-10.17736998311392
1040
-0.3367596045400932
1040
-0.3367596045400932
1070
     0
1040
0.0110235143455945
1071
        1
1040
32.30357378967278
1040
3.988785755459219
1040
0.0
1002
}
  0
INSERT
  5
105C4
  8
0
  2
*X51
 10
0.0
 20
0.0
 30
0.0
1001
ACAD
1000
HATCH
1002
{
1070
    19
1000
ANSI37
1040
0.15
1040
0.0
1000
ASC_BOUNDS
1070
     1
1070
     2
1070
     8
1005
105A5
1005
105A8
1005
105AC
1005
105AB
1005
105AA
1005
105A7
1005
105A9
1005
105A6
1000
ASC_SEEDPOINT
1011
39.74896370716704
1021
4.484843821435049
1031
0.0
1021
4.484843821435049
1031
0.0
1000
R14_HATCH_DATA
1000
105C4
1011
1.0
1021
0.0
1031
0.0
1021
0.0
1031
0.0
1011
0.0
1021
1.0
1031
0.0
1021
1.0
1031
0.0
1011
0.0
1021
0.0
1031
1.0
1021
0.0
1031
1.0
1040
0.0
1010
0.0
1020
0.0
1030
1.0
1000
ANSI37
1070
     0
1070
     1
1071
        1
1071
        7
1070
     0
1070
     1
1071
        9
1040
40.02599999995994
1040
5.341799999994635
1040
44.99999999995498
1040
-0.2368999999997641
1040
44.99999999995498
1040
8.763099999991255
1040
43.57899999995641
1040
8.763099999991255
1040
43.57899999995641
1040
3.421199999996588
1040
38.60499999996136
1040
8.999899999990987
1040
38.60499999996136
1040
8.999999999991019
1040
38.60499999996136
1040
0.0
1040
40.02599999995994
1040
0.0
1071
        8
1005
105A5
1005
105A8
1005
105AC
1005
105AB
1005
105AA
1005
105A7
1005
105A9
1005
105A6
1070
     0
1070
     1
1040
0.0
1040
0.15
1070
     0
1070
     2
1040
0.7853981633974483
1040
49.29960901727088
1040
-10.17736998311392
1040
-0.3367596045400932
1040
0.3367596045400932
1070
     0
1040
2.356194490192345
1040
49.29960901727088
1040
-10.17736998311392
1040
-0.3367596045400932
1040
-0.3367596045400932
1070
     0
1040
0.0110235143455945
1071
        1
1040
39.74896370716704
1040
4.484843821435049
1040
0.0
1002
}
  0
INSERT
  5
105C5
  8
0
  2
*X52
 10
0.0
 20
0.0
 30
0.0
1001
ACAD
1000
HATCH
1002
{
1070
    19
1000
ANSI37
1040
0.15
1040
0.0
1000
ASC_BOUNDS
1070
     1
1070
     2
1070
     4
1005
10589
1005
10598
1005
1058A
1005
1058C
1000
ASC_SEEDPOINT
1011
1.079051535452663
1021
4.148538732891836
1031
0.0
1021
4.148538732891836
1031
0.0
1000
R14_HATCH_DATA
1000
105C5
1011
1.0
1021
0.0
1031
0.0
1021
0.0
1031
0.0
1011
0.0
1021
1.0
1031
0.0
1021
1.0
1031
0.0
1011
0.0
1021
0.0
1031
1.0
1021
0.0
1031
1.0
1040
0.0
1010
0.0
1020
0.0
1030
1.0
1000
ANSI37
1070
     0
1070
     1
1071
        1
1071
        7
1070
     0
1070
     1
1071
        4
1040
1.420999999998571
1040
0.0
1040
1.420999999998571
1040
8.763099999991255
1040
0.0
1040
8.763099999991255
1040
0.0
1040
0.0
1071
        4
1005
10589
1005
10598
1005
1058A
1005
1058C
1070
     0
1070
     1
1040
0.0
1040
0.15
1070
     0
1070
     2
1040
0.7853981633974483
1040
49.29960901727088
1040
-10.17736998311392
1040
-0.3367596045400932
1040
0.3367596045400932
1070
     0
1040
2.356194490192345
1040
49.29960901727088
1040
-10.17736998311392
1040
-0.3367596045400932
1040
-0.3367596045400932
1070
     0
1040
0.0053004257112761
1071
        1
1040
1.079051535452663
1040
4.148538732891836
1040
0.0
1002
}
  0
ENDBLK
  5
10C7D
  8
0
  0
BLOCK
  8
0
  2
NO3CIRCLE
 70
     2
 10
0.0
 20
0.0
 30
0.0
  3
NO3CIRCLE
  1

  0
CIRCLE
  5
13C6E
  8
0
  6
BYBLOCK
 62
     0
 10
0.0
 20
0.0
 30
0.0
 40
4.2
  0
ATTDEF
  5
13C6F
  8
1TEXT
 10
-3.428571428571427
 20
-2.0
 30
0.0
 40
4.0
  1
000
 41
0.6
  7
STANDARD06
 72
     4
 11
0.0
 21
0.0
 31
0.0
  3
NO3
  2
NO3
 70
     0
  0
ENDBLK
  5
13C70
  8
0
  0
BLOCK
  8
0
  2
*X47
 70
     1
 10
0.0
 20
0.0
 30
0.0
  3
*X47
  1

  0
LINE
  5
15384
  8
0
  6
CONTINUOUS
 10
3.418023043697893
 20
7.251849696850613
 30
0.0
 11
4.929273346838536
 21
8.763099999991255
 31
0.0
  0
LINE
  5
15385
  8
0
  6
CONTINUOUS
 10
1.483656411257782
 20
4.643963855330318
 30
0.0
 11
5.60279255591872
 21
8.763099999991255
 31
0.0
  0
LINE
  5
15386
  8
0
  6
CONTINUOUS
 10
1.755053947328235
 20
4.241842182320584
 30
0.0
 11
6.276311764998907
 21
8.763099999991255
 31
0.0
  0
LINE
  5
15387
  8
0
  6
CONTINUOUS
 10
2.026451483398688
 20
3.839720509310849
 30
0.0
 11
4.441040904851878
 21
6.254309930764039
 31
0.0
  0
LINE
  5
15388
  8
0
  6
CONTINUOUS
 10
2.297849019469139
 20
3.437598836301114
 30
0.0
 11
3.321765168359338
 21
4.461514985191313
 31
0.0
  0
LINE
  5
15389
  8
0
  6
CONTINUOUS
 10
2.569246555539591
 20
3.03547716329138
 30
0.0
 11
3.593163397972743
 21
4.059394005724531
 31
0.0
  0
LINE
  5
1538A
  8
0
  6
CONTINUOUS
 10
2.840644091610043
 20
2.633355490281646
 30
0.0
 11
3.864561627586149
 21
3.657273026257751
 31
0.0
  0
LINE
  5
1538B
  8
0
  6
CONTINUOUS
 10
3.112041627680496
 20
2.231233817271911
 30
0.0
 11
4.135959857199554
 21
3.25515204679097
 31
0.0
  0
LINE
  5
1538C
  8
0
  6
CONTINUOUS
 10
3.383439163750948
 20
1.829112144262177
 30
0.0
 11
4.40735808681296
 21
2.853031067324189
 31
0.0
  0
LINE
  5
1538D
  8
0
  6
CONTINUOUS
 10
3.654836699821399
 20
1.426990471252442
 30
0.0
 11
4.678756316426365
 21
2.450910087857407
 31
0.0
  0
LINE
  5
1538E
  8
0
  6
CONTINUOUS
 10
3.926234235891853
 20
1.024868798242709
 30
0.0
 11
4.95015454603977
 21
2.048789108390626
 31
0.0
  0
LINE
  5
1538F
  8
0
  6
CONTINUOUS
 10
4.197631771962304
 20
0.6227471252329737
 30
0.0
 11
5.221552775653176
 21
1.646668128923846
 31
0.0
  0
LINE
  5
15390
  8
0
  6
CONTINUOUS
 10
8.715877546767851
 20
7.835069736359266
 30
0.0
 11
9.435953450375058
 21
8.555145639966472
 31
0.0
  0
LINE
  5
15391
  8
0
  6
CONTINUOUS
 10
8.170620868422267
 20
6.616293848933497
 30
0.0
 11
9.644120833743461
 21
8.08979381425469
 31
0.0
  0
LINE
  5
15392
  8
0
  6
CONTINUOUS
 10
7.625364190076684
 20
5.397517961507727
 30
0.0
 11
9.852288217111864
 21
7.624441988542907
 31
0.0
  0
LINE
  5
15393
  8
0
  6
CONTINUOUS
 10
7.080107511731101
 20
4.178742074081957
 30
0.0
 11
10.06045560048027
 21
7.159090162831124
 31
0.0
  0
LINE
  5
15394
  8
0
  6
CONTINUOUS
 10
6.534850833385518
 20
2.959966186656187
 30
0.0
 11
10.26862298384867
 21
6.693738337119342
 31
0.0
  0
LINE
  5
15395
  8
0
  6
CONTINUOUS
 10
4.469029308032756
 20
0.2206254522232385
 30
0.0
 11
5.492951005266582
 21
1.244547149457064
 31
0.0
  0
LINE
  5
15396
  8
0
  6
CONTINUOUS
 10
5.989594155039935
 20
1.741190299230417
 30
0.0
 11
8.806950407233131
 21
4.558546551423613
 31
0.0
  0
LINE
  5
15397
  8
0
  6
CONTINUOUS
 10
9.401251593263643
 20
5.152847737454126
 30
0.0
 11
10.47679036721708
 21
6.228386511407559
 31
0.0
  0
LINE
  5
15398
  8
0
  6
CONTINUOUS
 10
4.921837203428691
 20
-0.0000858614610131
 30
0.0
 11
8.592923064886001
 21
3.670999999996297
 31
0.0
  0
LINE
  5
15399
  8
0
  6
CONTINUOUS
 10
9.609390446785305
 20
4.6874673818956
 30
0.0
 11
10.68495775058548
 21
5.763034685695775
 31
0.0
  0
LINE
  5
1539A
  8
0
  6
CONTINUOUS
 10
5.595387755019432
 20
-0.0000545189504582
 30
0.0
 11
7.716137258923768
 21
2.120694984953879
 31
0.0
  0
LINE
  5
1539B
  8
0
  6
CONTINUOUS
 10
6.268938306610172
 20
-0.000023176439905
 30
0.0
 11
7.170485805526503
 21
0.9015243224764267
 31
0.0
  0
LINE
  5
1539C
  8
0
  6
CONTINUOUS
 10
7.963842273967511
 20
2.368399999997621
 30
0.0
 11
9.266442273966188
 21
3.670999999996297
 31
0.0
  0
LINE
  5
1539D
  8
0
  6
CONTINUOUS
 10
8.637361483047696
 20
2.368399999997621
 30
0.0
 11
9.939961483046375
 21
3.670999999996297
 31
0.0
  0
LINE
  5
1539E
  8
0
  6
CONTINUOUS
 10
9.817529300306965
 20
4.222087026337075
 30
0.0
 11
10.89312513395388
 21
5.297682859983993
 31
0.0
  0
LINE
  5
1539F
  8
0
  6
CONTINUOUS
 10
10.02566815382863
 20
3.756706670778549
 30
0.0
 11
11.10129251732229
 21
4.832331034272211
 31
0.0
  0
LINE
  5
153A0
  8
0
  6
CONTINUOUS
 10
9.310880692127883
 20
2.368399999997621
 30
0.0
 11
11.30945990069069
 21
4.366979208560428
 31
0.0
  0
LINE
  5
153A1
  8
0
  6
CONTINUOUS
 10
9.98439990120807
 20
2.36839999999762
 30
0.0
 11
11.5176272840591
 21
3.901627382848645
 31
0.0
  0
LINE
  5
153A2
  8
0
  6
CONTINUOUS
 10
10.65037369446246
 20
2.36085458417182
 30
0.0
 11
11.7257946674275
 21
3.436275557136862
 31
0.0
  0
LINE
  5
153A3
  8
0
  6
CONTINUOUS
 10
10.85847197087848
 20
1.895433651507656
 30
0.0
 11
11.9339620507959
 21
2.97092373142508
 31
0.0
  0
LINE
  5
153A4
  8
0
  6
CONTINUOUS
 10
11.0665702472945
 20
1.430012718843491
 30
0.0
 11
12.14212943416431
 21
2.505571905713296
 31
0.0
  0
LINE
  5
153A5
  8
0
  6
CONTINUOUS
 10
11.27466852371052
 20
0.9645917861793256
 30
0.0
 11
12.35029681753271
 21
2.040220080001513
 31
0.0
  0
LINE
  5
153A6
  8
0
  6
CONTINUOUS
 10
11.48276680012654
 20
0.4991708535151611
 30
0.0
 11
12.55846420090111
 21
1.57486825428973
 31
0.0
  0
LINE
  5
153A7
  8
0
  6
CONTINUOUS
 10
11.69086507654257
 20
0.0337499208509957
 30
0.0
 11
12.76663158426952
 21
1.109516428577947
 31
0.0
  0
LINE
  5
153A8
  8
0
  6
CONTINUOUS
 10
12.33057447873954
 20
-0.0000598860322123
 30
0.0
 11
12.97479896763792
 21
0.6441646028661663
 31
0.0
  0
LINE
  5
153A9
  8
0
  6
CONTINUOUS
 10
13.00413694809395
 20
-0.0000166257579952
 30
0.0
 11
13.18296635100632
 21
0.1788127771543824
 31
0.0
  0
LINE
  5
153AA
  8
0
  6
CONTINUOUS
 10
4.772852165289667
 20
-0.000092794222212
 30
0.0
 11
4.296495091028902
 21
0.4762642800385528
 31
0.0
  0
LINE
  5
153AB
  8
0
  6
CONTINUOUS
 10
5.446340034776103
 20
-0.0000614546284616
 30
0.0
 11
2.898195908335625
 21
2.548082671812017
 31
0.0
  0
LINE
  5
153AC
  8
0
  6
CONTINUOUS
 10
6.119827904262539
 20
-0.0000301150347113
 30
0.0
 11
1.499896725642348
 21
4.61990106358548
 31
0.0
  0
LINE
  5
153AD
  8
0
  6
CONTINUOUS
 10
6.775136745476159
 20
0.0181802528318542
 30
0.0
 11
5.699826040202669
 21
1.093490958105344
 31
0.0
  0
LINE
  5
153AE
  8
0
  6
CONTINUOUS
 10
6.983376846288489
 20
0.4834593610997118
 30
0.0
 11
5.908008617934405
 21
1.558827589453796
 31
0.0
  0
LINE
  5
153AF
  8
0
  6
CONTINUOUS
 10
5.377063484962296
 20
1.416253513345719
 30
0.0
 11
1.702276957014131
 21
5.091040041293883
 31
0.0
  0
LINE
  5
153B0
  8
0
  6
CONTINUOUS
 10
3.978745891735324
 20
3.488090315652877
 30
0.0
 11
2.000373521109399
 21
5.466462686278803
 31
0.0
  0
LINE
  5
153B1
  8
0
  6
CONTINUOUS
 10
7.191616947100819
 20
0.948738469367568
 30
0.0
 11
6.11619119566614
 21
2.024164220802247
 31
0.0
  0
LINE
  5
153B2
  8
0
  6
CONTINUOUS
 10
7.399857047913149
 20
1.414017577635424
 30
0.0
 11
6.324373773397875
 21
2.489500852150698
 31
0.0
  0
LINE
  5
153B3
  8
0
  6
CONTINUOUS
 10
7.608097148725479
 20
1.879296685903281
 30
0.0
 11
6.53255635112961
 21
2.95483748349915
 31
0.0
  0
LINE
  5
153B4
  8
0
  6
CONTINUOUS
 10
7.816337249537808
 20
2.344575794171138
 30
0.0
 11
6.740738928861345
 21
3.420174114847601
 31
0.0
  0
LINE
  5
153B5
  8
0
  6
CONTINUOUS
 10
3.310241080789734
 20
4.830114335678653
 30
0.0
 11
2.298470085204666
 21
5.84188533126372
 31
0.0
  0
LINE
  5
153B6
  8
0
  6
CONTINUOUS
 10
3.60832983563551
 20
5.205544789913063
 30
0.0
 11
2.596566649299935
 21
6.217307976248638
 31
0.0
  0
LINE
  5
153B7
  8
0
  6
CONTINUOUS
 10
3.906418590481286
 20
5.580975244147473
 30
0.0
 11
2.894663213395203
 21
6.592730621233557
 31
0.0
  0
LINE
  5
153B8
  8
0
  6
CONTINUOUS
 10
4.204507345327062
 20
5.956405698381884
 30
0.0
 11
3.192759777490472
 21
6.968153266218474
 31
0.0
  0
LINE
  5
153B9
  8
0
  6
CONTINUOUS
 10
8.466032252791512
 20
2.368399999997621
 30
0.0
 11
6.948921506593081
 21
3.885510746196053
 31
0.0
  0
LINE
  5
153BA
  8
0
  6
CONTINUOUS
 10
9.139551461871699
 20
2.36839999999762
 30
0.0
 11
7.157104084324816
 21
4.350847377544504
 31
0.0
  0
LINE
  5
153BB
  8
0
  6
CONTINUOUS
 10
4.502596100172839
 20
6.331836152616295
 30
0.0
 11
3.49085634158574
 21
7.343575911203393
 31
0.0
  0
LINE
  5
153BC
  8
0
  6
CONTINUOUS
 10
4.800684855018615
 20
6.707266606850705
 30
0.0
 11
3.788952905681008
 21
7.718998556188312
 31
0.0
  0
LINE
  5
153BD
  8
0
  6
CONTINUOUS
 10
12.18154012887317
 20
-0.0000694579236642
 30
0.0
 11
11.32140332908496
 21
0.8600673418645499
 31
0.0
  0
LINE
  5
153BE
  8
0
  6
CONTINUOUS
 10
12.85501608323566
 20
-0.0000262032059659
 30
0.0
 11
10.77672456435345
 21
2.078265315676246
 31
0.0
  0
LINE
  5
153BF
  8
0
  6
CONTINUOUS
 10
9.813070670951886
 20
2.36839999999762
 30
0.0
 11
8.51047067095321
 21
3.670999999996297
 31
0.0
  0
LINE
  5
153C0
  8
0
  6
CONTINUOUS
 10
10.48658988003207
 20
2.36839999999762
 30
0.0
 11
9.183989880033396
 21
3.670999999996297
 31
0.0
  0
LINE
  5
153C1
  8
0
  6
CONTINUOUS
 10
8.441048632286794
 20
3.740422038662712
 30
0.0
 11
7.365286662056551
 21
4.816184008892956
 31
0.0
  0
LINE
  5
153C2
  8
0
  6
CONTINUOUS
 10
8.649187485808454
 20
4.205802394221237
 30
0.0
 11
7.573469239788285
 21
5.281520640241407
 31
0.0
  0
LINE
  5
153C3
  8
0
  6
CONTINUOUS
 10
5.098773609864391
 20
7.082697061085115
 30
0.0
 11
4.087049469776277
 21
8.09442120117323
 31
0.0
  0
LINE
  5
153C4
  8
0
  6
CONTINUOUS
 10
5.396862364710167
 20
7.458127515319526
 30
0.0
 11
4.385146033871544
 21
8.469843846158149
 31
0.0
  0
LINE
  5
153C5
  8
0
  6
CONTINUOUS
 10
13.04801363231285
 20
0.4804954567970334
 30
0.0
 11
9.85750908911358
 21
3.670999999996297
 31
0.0
  0
LINE
  5
153C6
  8
0
  6
CONTINUOUS
 10
8.857326339330116
 20
4.671182749779763
 30
0.0
 11
7.781651817520021
 21
5.746857271589858
 31
0.0
  0
LINE
  5
153C7
  8
0
  6
CONTINUOUS
 10
5.694951119555943
 20
7.833557969553937
 30
0.0
 11
4.765409089118624
 21
8.763099999991255
 31
0.0
  0
LINE
  5
153C8
  8
0
  6
CONTINUOUS
 10
12.50286117236978
 20
1.699167125820288
 30
0.0
 11
9.68611877250287
 21
4.515909525687196
 31
0.0
  0
LINE
  5
153C9
  8
0
  6
CONTINUOUS
 10
9.065465192851777
 20
5.136563105338288
 30
0.0
 11
7.989834395251757
 21
6.21219390293831
 31
0.0
  0
LINE
  5
153CA
  8
0
  6
CONTINUOUS
 10
5.993039874401719
 20
8.208988423788346
 30
0.0
 11
5.43892829819881
 21
8.763099999991255
 31
0.0
  0
LINE
  5
153CB
  8
0
  6
CONTINUOUS
 10
11.95770871242671
 20
2.917838794843543
 30
0.0
 11
8.19801697298349
 21
6.677530534286761
 31
0.0
  0
LINE
  5
153CC
  8
0
  6
CONTINUOUS
 10
6.291128629247495
 20
8.584418878022756
 30
0.0
 11
6.112447507278997
 21
8.763099999991255
 31
0.0
  0
LINE
  5
153CD
  8
0
  6
CONTINUOUS
 10
11.41255625248364
 20
4.136510463866797
 30
0.0
 11
8.406199550715227
 21
7.142867165635211
 31
0.0
  0
LINE
  5
153CE
  8
0
  6
CONTINUOUS
 10
10.86740379254057
 20
5.355182132890051
 30
0.0
 11
8.614382128446962
 21
7.608203796983664
 31
0.0
  0
LINE
  5
153CF
  8
0
  6
CONTINUOUS
 10
10.3222513325975
 20
6.573853801913305
 30
0.0
 11
8.822564706178696
 21
8.073540428332114
 31
0.0
  0
LINE
  5
153D0
  8
0
  6
CONTINUOUS
 10
9.777098872654436
 20
7.792525470936562
 30
0.0
 11
9.030747283910433
 21
8.538877059680566
 31
0.0
  0
ENDBLK
  5
15512
  8
0
  0
BLOCK
  8
0
  2
*X48
 70
     1
 10
0.0
 20
0.0
 30
0.0
  3
*X48
  1

  0
LINE
  5
153D2
  8
0
  6
CONTINUOUS
 10
10.67292308101235
 20
8.445076852443387
 30
0.0
 11
10.99094622856022
 21
8.763099999991255
 31
0.0
  0
LINE
  5
153D3
  8
0
  6
CONTINUOUS
 10
10.87250383178748
 20
7.971138394138331
 30
0.0
 11
11.6644654376404
 21
8.763099999991255
 31
0.0
  0
LINE
  5
153D4
  8
0
  6
CONTINUOUS
 10
11.07208458256261
 20
7.497199935833273
 30
0.0
 11
12.12126590876355
 21
8.546381262034211
 31
0.0
  0
LINE
  5
153D5
  8
0
  6
CONTINUOUS
 10
11.27166533333774
 20
7.023261477528216
 30
0.0
 11
12.32085164573666
 21
8.072447789927136
 31
0.0
  0
LINE
  5
153D6
  8
0
  6
CONTINUOUS
 10
11.47124608411287
 20
6.549323019223158
 30
0.0
 11
12.52043738270977
 21
7.59851431782006
 31
0.0
  0
LINE
  5
153D7
  8
0
  6
CONTINUOUS
 10
11.670826834888
 20
6.075384560918101
 30
0.0
 11
12.72002311968288
 21
7.124580845712984
 31
0.0
  0
LINE
  5
153D8
  8
0
  6
CONTINUOUS
 10
11.87040758566313
 20
5.601446102613043
 30
0.0
 11
12.91960885665599
 21
6.650647373605907
 31
0.0
  0
LINE
  5
153D9
  8
0
  6
CONTINUOUS
 10
12.06998833643825
 20
5.127507644307986
 30
0.0
 11
13.1191945936291
 21
6.176713901498832
 31
0.0
  0
LINE
  5
153DA
  8
0
  6
CONTINUOUS
 10
12.26956908721338
 20
4.65356918600293
 30
0.0
 11
13.31878033060221
 21
5.702780429391757
 31
0.0
  0
LINE
  5
153DB
  8
0
  6
CONTINUOUS
 10
12.46914983798851
 20
4.179630727697873
 30
0.0
 11
13.51836606757532
 21
5.228846957284683
 31
0.0
  0
LINE
  5
153DC
  8
0
  6
CONTINUOUS
 10
12.66873058876364
 20
3.705692269392816
 30
0.0
 11
13.71795180454843
 21
4.754913485177607
 31
0.0
  0
LINE
  5
153DD
  8
0
  6
CONTINUOUS
 10
12.86831133953877
 20
3.231753811087759
 30
0.0
 11
13.91753754152154
 21
4.280980013070531
 31
0.0
  0
LINE
  5
153DE
  8
0
  6
CONTINUOUS
 10
13.0678920903139
 20
2.757815352782702
 30
0.0
 11
14.11712327849465
 21
3.807046540963456
 31
0.0
  0
LINE
  5
153DF
  8
0
  6
CONTINUOUS
 10
13.26747284108903
 20
2.283876894477644
 30
0.0
 11
14.31670901546777
 21
3.333113068856379
 31
0.0
  0
LINE
  5
153E0
  8
0
  6
CONTINUOUS
 10
16.36767838827179
 20
8.751678487061342
 30
0.0
 11
16.50332410898388
 21
8.887324207773432
 31
0.0
  0
LINE
  5
153E1
  8
0
  6
CONTINUOUS
 10
15.96190732182191
 20
7.67238821153127
 30
0.0
 11
16.68735328004734
 21
8.397834169756699
 31
0.0
  0
LINE
  5
153E2
  8
0
  6
CONTINUOUS
 10
15.55613625537202
 20
6.593097936001196
 30
0.0
 11
16.87138245111079
 21
7.908344131739965
 31
0.0
  0
LINE
  5
153E3
  8
0
  6
CONTINUOUS
 10
15.15036518892213
 20
5.513807660471122
 30
0.0
 11
17.05541162217424
 21
7.418854093723231
 31
0.0
  0
LINE
  5
153E4
  8
0
  6
CONTINUOUS
 10
14.74459412247225
 20
4.434517384941048
 30
0.0
 11
17.2394407932377
 21
6.929364055706499
 31
0.0
  0
LINE
  5
153E5
  8
0
  6
CONTINUOUS
 10
14.33882305602236
 20
3.355227109410975
 30
0.0
 11
17.42346996430115
 21
6.439874017689766
 31
0.0
  0
LINE
  5
153E6
  8
0
  6
CONTINUOUS
 10
13.46705359186416
 20
1.809938436172586
 30
0.0
 11
16.0819338255367
 21
4.424818669845129
 31
0.0
  0
LINE
  5
153E7
  8
0
  6
CONTINUOUS
 10
16.63283254238972
 20
4.975717386698149
 30
0.0
 11
17.60749913536461
 21
5.950383979673033
 31
0.0
  0
LINE
  5
153E8
  8
0
  6
CONTINUOUS
 10
13.66663434263929
 20
1.335999977867529
 30
0.0
 11
15.67604797733754
 21
3.345413612565779
 31
0.0
  0
LINE
  5
153E9
  8
0
  6
CONTINUOUS
 10
13.86621509341442
 20
0.8620615195624723
 30
0.0
 11
15.27016212913838
 21
2.26600855528643
 31
0.0
  0
LINE
  5
153EA
  8
0
  6
CONTINUOUS
 10
16.81682257348267
 20
4.486188208710908
 30
0.0
 11
17.79152830642806
 21
5.460893941656299
 31
0.0
  0
LINE
  5
153EB
  8
0
  6
CONTINUOUS
 10
17.00081260457561
 20
3.996659030723667
 30
0.0
 11
17.97555747749151
 21
4.971403903639565
 31
0.0
  0
LINE
  5
153EC
  8
0
  6
CONTINUOUS
 10
20.74362343514722
 20
8.412989070375462
 30
0.0
 11
21.09373436476302
 21
8.763099999991256
 31
0.0
  0
LINE
  5
153ED
  8
0
  6
CONTINUOUS
 10
20.25401257174777
 20
7.249858997895826
 30
0.0
 11
21.7672535738432
 21
8.763099999991255
 31
0.0
  0
LINE
  5
153EE
  8
0
  6
CONTINUOUS
 10
14.06579584418955
 20
0.3881230612574149
 30
0.0
 11
14.86427628093921
 21
1.186603498007082
 31
0.0
  0
LINE
  5
153EF
  8
0
  6
CONTINUOUS
 10
14.26537659496467
 20
-0.0858153970476412
 30
0.0
 11
14.45839043274005
 21
0.1071984407277329
 31
0.0
  0
LINE
  5
153F0
  8
0
  6
CONTINUOUS
 10
17.18480263566856
 20
3.507129852736426
 30
0.0
 11
18.15958664855496
 21
4.481913865622833
 31
0.0
  0
LINE
  5
153F1
  8
0
  6
CONTINUOUS
 10
17.3687926667615
 20
3.017600674749186
 30
0.0
 11
18.34361581961842
 21
3.9924238276061
 31
0.0
  0
LINE
  5
153F2
  8
0
  6
CONTINUOUS
 10
19.76440170834832
 20
6.086728925416191
 30
0.0
 11
22.33924590259489
 21
8.661573119662755
 31
0.0
  0
LINE
  5
153F3
  8
0
  6
CONTINUOUS
 10
19.27479084494887
 20
4.923598852936555
 30
0.0
 11
21.84929622842713
 21
7.498104236414807
 31
0.0
  0
LINE
  5
153F4
  8
0
  6
CONTINUOUS
 10
17.55278269785445
 20
2.528071496761945
 30
0.0
 11
18.52764499068187
 21
3.502933789589366
 31
0.0
  0
LINE
  5
153F5
  8
0
  6
CONTINUOUS
 10
18.78517998154942
 20
3.760468780456919
 30
0.0
 11
21.35934655425936
 21
6.33463535316686
 31
0.0
  0
LINE
  5
153F6
  8
0
  6
CONTINUOUS
 10
17.73677272894739
 20
2.038542318774704
 30
0.0
 11
20.8693968800916
 21
5.171166469918914
 31
0.0
  0
LINE
  5
153F7
  8
0
  6
CONTINUOUS
 10
17.92076276004034
 20
1.549013140787464
 30
0.0
 11
20.37944720592384
 21
4.007697586670968
 31
0.0
  0
LINE
  5
153F8
  8
0
  6
CONTINUOUS
 10
18.10475279113329
 20
1.059483962800223
 30
0.0
 11
19.88949753175608
 21
2.84422870342302
 31
0.0
  0
LINE
  5
153F9
  8
0
  6
CONTINUOUS
 10
18.28874282222623
 20
0.5699547848129822
 30
0.0
 11
19.39954785758832
 21
1.680759820175074
 31
0.0
  0
LINE
  5
153FA
  8
0
  6
CONTINUOUS
 10
18.47273285331918
 20
0.0804256068257416
 30
0.0
 11
18.90959818342056
 21
0.517290936927127
 31
0.0
  0
LINE
  5
153FB
  8
0
  6
CONTINUOUS
 10
14.3590401358224
 20
-0.1570118376323384
 30
0.0
 11
14.24903296539946
 21
-0.0470046672093929
 31
0.0
  0
LINE
  5
153FC
  8
0
  6
CONTINUOUS
 10
14.54309291258661
 20
0.332454594683643
 30
0.0
 11
13.75908329123172
 21
1.116464216038529
 31
0.0
  0
LINE
  5
153FD
  8
0
  6
CONTINUOUS
 10
14.72714568935081
 20
0.8219210269996244
 30
0.0
 11
13.26913361706399
 21
2.27993309928645
 31
0.0
  0
LINE
  5
153FE
  8
0
  6
CONTINUOUS
 10
14.91119846611502
 20
1.311387459315606
 30
0.0
 11
12.77918394289625
 21
3.443401982534371
 31
0.0
  0
LINE
  5
153FF
  8
0
  6
CONTINUOUS
 10
15.09525124287922
 20
1.800853891631587
 30
0.0
 11
12.28923426872852
 21
4.606870865782293
 31
0.0
  0
LINE
  5
15400
  8
0
  6
CONTINUOUS
 10
15.27930401964343
 20
2.290320323947569
 30
0.0
 11
11.79928459456078
 21
5.770339749030213
 31
0.0
  0
LINE
  5
15401
  8
0
  6
CONTINUOUS
 10
15.46335679640763
 20
2.77978675626355
 30
0.0
 11
14.48885470994921
 21
3.754288842721972
 31
0.0
  0
LINE
  5
15402
  8
0
  6
CONTINUOUS
 10
13.88507249233704
 20
4.358071060334137
 30
0.0
 11
11.30933492039305
 21
6.933808632278135
 31
0.0
  0
LINE
  5
15403
  8
0
  6
CONTINUOUS
 10
18.75840522805855
 20
0.1582575336928151
 30
0.0
 11
18.25383727664818
 21
0.6628254851031863
 31
0.0
  0
LINE
  5
15404
  8
0
  6
CONTINUOUS
 10
15.64740957317184
 20
3.269253188579531
 30
0.0
 11
14.67288388101266
 21
4.243778880738705
 31
0.0
  0
LINE
  5
15405
  8
0
  6
CONTINUOUS
 10
13.39509276772158
 20
5.521569994029786
 30
0.0
 11
10.81938524622531
 21
8.097277515526056
 31
0.0
  0
LINE
  5
15406
  8
0
  6
CONTINUOUS
 10
18.95798597883369
 20
0.6321959919978686
 30
0.0
 11
17.84825644852853
 21
1.741925522303024
 31
0.0
  0
LINE
  5
15407
  8
0
  6
CONTINUOUS
 10
19.15756672960882
 20
1.106134450302922
 30
0.0
 11
17.44267562040888
 21
2.821025559502861
 31
0.0
  0
LINE
  5
15408
  8
0
  6
CONTINUOUS
 10
15.83146234993604
 20
3.758719620895513
 30
0.0
 11
14.85691305207612
 21
4.733268918755439
 31
0.0
  0
LINE
  5
15409
  8
0
  6
CONTINUOUS
 10
16.01551512670025
 20
4.248186053211494
 30
0.0
 11
15.04094222313957
 21
5.222758956772172
 31
0.0
  0
LINE
  5
1540A
  8
0
  6
CONTINUOUS
 10
12.90511304310612
 20
6.685068927725435
 30
0.0
 11
10.8270819708403
 21
8.763099999991255
 31
0.0
  0
LINE
  5
1540B
  8
0
  6
CONTINUOUS
 10
12.41513331849066
 20
7.848567861421083
 30
0.0
 11
11.50060117992049
 21
8.763099999991255
 31
0.0
  0
LINE
  5
1540C
  8
0
  6
CONTINUOUS
 10
19.35714748038395
 20
1.580072908607975
 30
0.0
 11
17.03709479228923
 21
3.900125596702697
 31
0.0
  0
LINE
  5
1540D
  8
0
  6
CONTINUOUS
 10
19.55672823115909
 20
2.054011366913028
 30
0.0
 11
16.63151396416958
 21
4.979225633902534
 31
0.0
  0
LINE
  5
1540E
  8
0
  6
CONTINUOUS
 10
16.19956790346445
 20
4.737652485527476
 30
0.0
 11
15.22497139420302
 21
5.712248994788904
 31
0.0
  0
LINE
  5
1540F
  8
0
  6
CONTINUOUS
 10
16.38362068022866
 20
5.227118917843457
 30
0.0
 11
15.40900056526648
 21
6.201739032805637
 31
0.0
  0
LINE
  5
15410
  8
0
  6
CONTINUOUS
 10
19.75630898193422
 20
2.527949825218081
 30
0.0
 11
18.70774536448286
 21
3.576513442669441
 31
0.0
  0
LINE
  5
15411
  8
0
  6
CONTINUOUS
 10
19.95588973270936
 20
3.001888283523134
 30
0.0
 11
18.90726987211446
 21
4.050508144118028
 31
0.0
  0
LINE
  5
15412
  8
0
  6
CONTINUOUS
 10
20.15547048348449
 20
3.475826741828186
 30
0.0
 11
19.10679437974606
 21
4.524502845566614
 31
0.0
  0
LINE
  5
15413
  8
0
  6
CONTINUOUS
 10
20.35505123425962
 20
3.94976520013324
 30
0.0
 11
19.30631888737766
 21
4.998497547015201
 31
0.0
  0
LINE
  5
15414
  8
0
  6
CONTINUOUS
 10
20.55463198503475
 20
4.423703658438292
 30
0.0
 11
19.50584339500926
 21
5.472492248463787
 31
0.0
  0
LINE
  5
15415
  8
0
  6
CONTINUOUS
 10
18.37481191085755
 20
3.909446896294752
 30
0.0
 11
15.59302973632993
 21
6.691229070822371
 31
0.0
  0
LINE
  5
15416
  8
0
  6
CONTINUOUS
 10
17.96904084440766
 20
4.988737171824825
 30
0.0
 11
15.77705890739338
 21
7.180719108839104
 31
0.0
  0
LINE
  5
15417
  8
0
  6
CONTINUOUS
 10
17.56326977795777
 20
6.068027447354899
 30
0.0
 11
15.96108807845684
 21
7.670209146855838
 31
0.0
  0
LINE
  5
15418
  8
0
  6
CONTINUOUS
 10
17.15749871150789
 20
7.147317722884972
 30
0.0
 11
16.14511724952029
 21
8.15969918487257
 31
0.0
  0
LINE
  5
15419
  8
0
  6
CONTINUOUS
 10
16.751727645058
 20
8.226607998415046
 30
0.0
 11
16.32914642058374
 21
8.649189222889303
 31
0.0
  0
LINE
  5
1541A
  8
0
  6
CONTINUOUS
 10
20.75421273580989
 20
4.897642116743345
 30
0.0
 11
19.70536790264086
 21
5.946486949912374
 31
0.0
  0
LINE
  5
1541B
  8
0
  6
CONTINUOUS
 10
20.95379348658502
 20
5.371580575048398
 30
0.0
 11
19.90489241027246
 21
6.42048165136096
 31
0.0
  0
LINE
  5
1541C
  8
0
  6
CONTINUOUS
 10
21.15337423736015
 20
5.845519033353452
 30
0.0
 11
20.10441691790406
 21
6.894476352809547
 31
0.0
  0
LINE
  5
1541D
  8
0
  6
CONTINUOUS
 10
21.35295498813529
 20
6.319457491658505
 30
0.0
 11
20.30394142553566
 21
7.368471054258134
 31
0.0
  0
LINE
  5
1541E
  8
0
  6
CONTINUOUS
 10
21.55253573891042
 20
6.793395949963558
 30
0.0
 11
20.50346593316726
 21
7.842465755706721
 31
0.0
  0
LINE
  5
1541F
  8
0
  6
CONTINUOUS
 10
21.75211648968556
 20
7.267334408268612
 30
0.0
 11
20.70299044079886
 21
8.316460457155308
 31
0.0
  0
LINE
  5
15420
  8
0
  6
CONTINUOUS
 10
21.95169724046069
 20
7.741272866573663
 30
0.0
 11
20.9298701070431
 21
8.763099999991256
 31
0.0
  0
LINE
  5
15421
  8
0
  6
CONTINUOUS
 10
22.15127799123582
 20
8.215211324878716
 30
0.0
 11
21.60338931612328
 21
8.763099999991256
 31
0.0
  0
LINE
  5
15422
  8
0
  6
CONTINUOUS
 10
22.35085874201096
 20
8.689149783183769
 30
0.0
 11
22.27690852520347
 21
8.763099999991255
 31
0.0
  0
ENDBLK
  5
15514
  8
0
  0
BLOCK
  8
0
  2
*X49
 70
     1
 10
0.0
 20
0.0
 30
0.0
  3
*X49
  1

  0
LINE
  5
15424
  8
0
  6
CONTINUOUS
 10
23.19462913593892
 20
8.169917934846424
 30
0.0
 11
23.70775465517246
 21
8.683043454079957
 31
0.0
  0
LINE
  5
15425
  8
0
  6
CONTINUOUS
 10
22.64923161835078
 20
6.951001208178088
 30
0.0
 11
23.9159364069932
 21
8.217705996820516
 31
0.0
  0
LINE
  5
15426
  8
0
  6
CONTINUOUS
 10
22.10383410076263
 20
5.732084481509751
 30
0.0
 11
24.12411815881395
 21
7.752368539561078
 31
0.0
  0
LINE
  5
15427
  8
0
  6
CONTINUOUS
 10
21.55843658317447
 20
4.513167754841414
 30
0.0
 11
24.3322999106347
 21
7.287031082301639
 31
0.0
  0
LINE
  5
15428
  8
0
  6
CONTINUOUS
 10
21.01303906558632
 20
3.294251028173077
 30
0.0
 11
24.54048166245544
 21
6.821693625042199
 31
0.0
  0
LINE
  5
15429
  8
0
  6
CONTINUOUS
 10
20.46764154799817
 20
2.075334301504738
 30
0.0
 11
23.28571549467848
 21
4.89340824818505
 31
0.0
  0
LINE
  5
1542A
  8
0
  6
CONTINUOUS
 10
19.92224403041002
 20
0.8564175748364002
 30
0.0
 11
22.74075865492779
 21
3.674932199354171
 31
0.0
  0
LINE
  5
1542B
  8
0
  6
CONTINUOUS
 10
23.67305085490148
 20
5.280743608408048
 30
0.0
 11
24.74866341427619
 21
6.356356167782759
 31
0.0
  0
LINE
  5
1542C
  8
0
  6
CONTINUOUS
 10
23.88118970842314
 20
4.815363252849522
 30
0.0
 11
24.95684516609694
 21
5.89101871052332
 31
0.0
  0
LINE
  5
1542D
  8
0
  6
CONTINUOUS
 10
19.73925852647308
 20
-0.0000871381807288
 30
0.0
 11
23.4103456646501
 21
3.670999999996297
 31
0.0
  0
LINE
  5
1542E
  8
0
  6
CONTINUOUS
 10
24.0893285619448
 20
4.349982897290997
 30
0.0
 11
25.16502691791769
 21
5.42568125326388
 31
0.0
  0
LINE
  5
1542F
  8
0
  6
CONTINUOUS
 10
20.41282099582748
 20
-0.0000438779065108
 30
0.0
 11
21.64944178675636
 21
1.236576913022366
 31
0.0
  0
LINE
  5
15430
  8
0
  6
CONTINUOUS
 10
22.78126487373161
 20
2.36839999999762
 30
0.0
 11
24.08386487373029
 21
3.670999999996297
 31
0.0
  0
LINE
  5
15431
  8
0
  6
CONTINUOUS
 10
24.29746741546646
 20
3.884602541732471
 30
0.0
 11
25.37320866973843
 21
4.960343796004441
 31
0.0
  0
LINE
  5
15432
  8
0
  6
CONTINUOUS
 10
21.08638346518189
 20
-0.0000006176322938
 30
0.0
 11
21.10379033335899
 21
0.0174062505448083
 31
0.0
  0
LINE
  5
15433
  8
0
  6
CONTINUOUS
 10
23.4547840828118
 20
2.36839999999762
 30
0.0
 11
25.58139042155918
 21
4.495006338745002
 31
0.0
  0
LINE
  5
15434
  8
0
  6
CONTINUOUS
 10
29.30199999996933
 20
8.215615917155148
 30
0.0
 11
29.84948408280543
 21
8.763099999991255
 31
0.0
  0
LINE
  5
15435
  8
0
  6
CONTINUOUS
 10
24.12830329189199
 20
2.36839999999762
 30
0.0
 11
25.78957217337993
 21
4.029668881485562
 31
0.0
  0
LINE
  5
15436
  8
0
  6
CONTINUOUS
 10
29.30199999996933
 20
7.54209670807496
 30
0.0
 11
30.52300329188562
 21
8.763099999991255
 31
0.0
  0
LINE
  5
15437
  8
0
  6
CONTINUOUS
 10
24.80182250097217
 20
2.36839999999762
 30
0.0
 11
25.99775392520067
 21
3.564331424226122
 31
0.0
  0
LINE
  5
15438
  8
0
  6
CONTINUOUS
 10
29.30199999996933
 20
6.868577498994774
 30
0.0
 11
30.74199999996926
 21
8.308577498994712
 31
0.0
  0
LINE
  5
15439
  8
0
  6
CONTINUOUS
 10
25.13028238392013
 20
2.023340673865392
 30
0.0
 11
26.20593567702142
 21
3.098993966966683
 31
0.0
  0
LINE
  5
1543A
  8
0
  6
CONTINUOUS
 10
25.33838066033617
 20
1.557919741201244
 30
0.0
 11
26.41411742884217
 21
2.633656509707244
 31
0.0
  0
LINE
  5
1543B
  8
0
  6
CONTINUOUS
 10
25.54647893675221
 20
1.092498808537098
 30
0.0
 11
26.62229918066291
 21
2.168319052447804
 31
0.0
  0
LINE
  5
1543C
  8
0
  6
CONTINUOUS
 10
25.75457721316825
 20
0.62707787587295
 30
0.0
 11
26.83048093248366
 21
1.702981595188365
 31
0.0
  0
LINE
  5
1543D
  8
0
  6
CONTINUOUS
 10
29.30199999996933
 20
6.195058289914587
 30
0.0
 11
30.74199999996926
 21
7.635058289914522
 31
0.0
  0
LINE
  5
1543E
  8
0
  6
CONTINUOUS
 10
29.30199999996933
 20
5.521539080834401
 30
0.0
 11
30.74199999996926
 21
6.961539080834331
 31
0.0
  0
LINE
  5
1543F
  8
0
  6
CONTINUOUS
 10
29.30199999996933
 20
4.848019871754214
 30
0.0
 11
30.74199999996925
 21
6.288019871754143
 31
0.0
  0
LINE
  5
15440
  8
0
  6
CONTINUOUS
 10
29.30199999996933
 20
4.174500662674028
 30
0.0
 11
30.74199999996925
 21
5.614500662673953
 31
0.0
  0
LINE
  5
15441
  8
0
  6
CONTINUOUS
 10
25.96267548958429
 20
0.1616569432088024
 30
0.0
 11
27.18411854636669
 21
1.383099999991207
 31
0.0
  0
LINE
  5
15442
  8
0
  6
CONTINUOUS
 10
29.30199999996933
 20
3.500981453593841
 30
0.0
 11
30.74199999996925
 21
4.940981453593762
 31
0.0
  0
LINE
  5
15443
  8
0
  6
CONTINUOUS
 10
26.50763775544691
 20
0.0330999999912356
 30
0.0
 11
27.85763775544689
 21
1.383099999991223
 31
0.0
  0
LINE
  5
15444
  8
0
  6
CONTINUOUS
 10
29.30199999996933
 20
2.827462244513656
 30
0.0
 11
30.74199999996925
 21
4.267462244513574
 31
0.0
  0
LINE
  5
15445
  8
0
  6
CONTINUOUS
 10
27.18115696452709
 20
0.0330999999912356
 30
0.0
 11
28.55073879889363
 21
1.402681834357775
 31
0.0
  0
LINE
  5
15446
  8
0
  6
CONTINUOUS
 10
29.28241816560272
 20
2.134361201066866
 30
0.0
 11
30.74199999996924
 21
3.593943035433383
 31
0.0
  0
LINE
  5
15447
  8
0
  6
CONTINUOUS
 10
27.85467617360728
 20
0.0330999999912356
 30
0.0
 11
30.74199999996924
 21
2.920423826353195
 31
0.0
  0
LINE
  5
15448
  8
0
  6
CONTINUOUS
 10
28.53897559587887
 20
0.0438802131826428
 30
0.0
 11
30.73121978677781
 21
2.236124404081585
 31
0.0
  0
LINE
  5
15449
  8
0
  6
CONTINUOUS
 10
29.45140055588722
 20
0.2827859641107988
 30
0.0
 11
30.49231403584965
 21
1.323699444073236
 31
0.0
  0
LINE
  5
1544A
  8
0
  6
CONTINUOUS
 10
19.59027867740337
 20
-0.0000967065718083
 30
0.0
 11
19.55485265190471
 21
0.035329318926844
 31
0.0
  0
LINE
  5
1544B
  8
0
  6
CONTINUOUS
 10
20.26375463176586
 20
-0.0000534518541091
 30
0.0
 11
19.76305575737534
 21
0.5006454225364014
 31
0.0
  0
LINE
  5
1544C
  8
0
  6
CONTINUOUS
 10
20.93723058612834
 20
-0.0000101971364099
 30
0.0
 11
19.97125886284597
 21
0.965961526145958
 31
0.0
  0
LINE
  5
1544D
  8
0
  6
CONTINUOUS
 10
21.25514828313686
 20
0.355591314935257
 30
0.0
 11
20.1794619683166
 21
1.431277629755512
 31
0.0
  0
LINE
  5
1544E
  8
0
  6
CONTINUOUS
 10
21.46338838394921
 20
0.8208704232030986
 30
0.0
 11
20.38766507378723
 21
1.896593733365069
 31
0.0
  0
LINE
  5
1544F
  8
0
  6
CONTINUOUS
 10
21.67162848476155
 20
1.28614953147094
 30
0.0
 11
20.59586817925786
 21
2.361909836974626
 31
0.0
  0
LINE
  5
15450
  8
0
  6
CONTINUOUS
 10
21.8798685855739
 20
1.751428639738782
 30
0.0
 11
20.80407128472849
 21
2.827225940584183
 31
0.0
  0
LINE
  5
15451
  8
0
  6
CONTINUOUS
 10
22.08810868638624
 20
2.216707748006623
 30
0.0
 11
21.01227439019912
 21
3.292542044193739
 31
0.0
  0
LINE
  5
15452
  8
0
  6
CONTINUOUS
 10
22.60993564347543
 20
2.36839999999762
 30
0.0
 11
21.22047749566975
 21
3.757858147803296
 31
0.0
  0
LINE
  5
15453
  8
0
  6
CONTINUOUS
 10
23.28345485255561
 20
2.36839999999762
 30
0.0
 11
21.42868060114038
 21
4.223174251412853
 31
0.0
  0
LINE
  5
15454
  8
0
  6
CONTINUOUS
 10
26.29227406164219
 20
0.0330999999912356
 30
0.0
 11
25.80009199592872
 21
0.5252820657046957
 31
0.0
  0
LINE
  5
15455
  8
0
  6
CONTINUOUS
 10
23.9569740616358
 20
2.36839999999762
 30
0.0
 11
21.63688370661101
 21
4.688490355022409
 31
0.0
  0
LINE
  5
15456
  8
0
  6
CONTINUOUS
 10
26.96579327072237
 20
0.0330999999912356
 30
0.0
 11
25.2554132311971
 21
1.743480039516508
 31
0.0
  0
LINE
  5
15457
  8
0
  6
CONTINUOUS
 10
24.63049327071599
 20
2.36839999999762
 30
0.0
 11
23.32789327071731
 21
3.670999999996297
 31
0.0
  0
LINE
  5
15458
  8
0
  6
CONTINUOUS
 10
22.92098674744635
 20
4.077906523267254
 30
0.0
 11
21.84508681208164
 21
5.153806458631966
 31
0.0
  0
LINE
  5
15459
  8
0
  6
CONTINUOUS
 10
27.63931247980256
 20
0.0330999999912356
 30
0.0
 11
24.0014124797975
 21
3.670999999996297
 31
0.0
  0
LINE
  5
1545A
  8
0
  6
CONTINUOUS
 10
23.129125600968
 20
4.5432868788258
 30
0.0
 11
22.05328991755227
 21
5.619122562241522
 31
0.0
  0
LINE
  5
1545B
  8
0
  6
CONTINUOUS
 10
28.31283168888275
 20
0.0330999999912356
 30
0.0
 11
24.16488385994816
 21
4.181047828925828
 31
0.0
  0
LINE
  5
1545C
  8
0
  6
CONTINUOUS
 10
23.33726445448964
 20
5.008667234384345
 30
0.0
 11
22.2614930230229
 21
6.084438665851079
 31
0.0
  0
LINE
  5
1545D
  8
0
  6
CONTINUOUS
 10
28.92085740005492
 20
0.0985934978992438
 30
0.0
 11
27.63635089796295
 21
1.383099999991217
 31
0.0
  0
LINE
  5
1545E
  8
0
  6
CONTINUOUS
 10
26.43704649509776
 20
2.582404402856405
 30
0.0
 11
23.61992702019732
 21
5.399523877756844
 31
0.0
  0
LINE
  5
1545F
  8
0
  6
CONTINUOUS
 10
23.54540330801128
 20
5.47404758994289
 30
0.0
 11
22.46969612849353
 21
6.549754769460635
 31
0.0
  0
LINE
  5
15460
  8
0
  6
CONTINUOUS
 10
29.42225615078443
 20
0.2707139562499279
 30
0.0
 11
28.30987010704312
 21
1.383099999991234
 31
0.0
  0
LINE
  5
15461
  8
0
  6
CONTINUOUS
 10
25.89179548232307
 20
3.801174624711282
 30
0.0
 11
22.67789923396416
 21
7.015070873070191
 31
0.0
  0
LINE
  5
15462
  8
0
  6
CONTINUOUS
 10
29.83624534690007
 20
0.5302439692144705
 30
0.0
 11
28.85811781497101
 21
1.508371501143527
 31
0.0
  0
LINE
  5
15463
  8
0
  6
CONTINUOUS
 10
25.34654446954838
 20
5.01994484656616
 30
0.0
 11
22.88610233943479
 21
7.480386976679748
 31
0.0
  0
LINE
  5
15464
  8
0
  6
CONTINUOUS
 10
30.17865975401872
 20
0.8613487711760022
 30
0.0
 11
29.18888744090175
 21
1.851121084292977
 31
0.0
  0
LINE
  5
15465
  8
0
  6
CONTINUOUS
 10
24.80129345677369
 20
6.238715068421037
 30
0.0
 11
23.09430544490542
 21
7.945703080289305
 31
0.0
  0
LINE
  5
15466
  8
0
  6
CONTINUOUS
 10
30.45496647202376
 20
1.258561262251155
 30
0.0
 11
29.30199999996933
 21
2.411527734305588
 31
0.0
  0
LINE
  5
15467
  8
0
  6
CONTINUOUS
 10
24.256042443999
 20
7.457485290275915
 30
0.0
 11
23.30250855037605
 21
8.411019183898862
 31
0.0
  0
LINE
  5
15468
  8
0
  6
CONTINUOUS
 10
30.64868582078271
 20
1.738361122572387
 30
0.0
 11
29.30199999996933
 21
3.085046943385775
 31
0.0
  0
LINE
  5
15469
  8
0
  6
CONTINUOUS
 10
23.71079143122431
 20
8.676255512130794
 30
0.0
 11
23.51071165584668
 21
8.876335287508416
 31
0.0
  0
LINE
  5
1546A
  8
0
  6
CONTINUOUS
 10
30.73802122914428
 20
2.322544923291007
 30
0.0
 11
29.30199999996933
 21
3.758566152465961
 31
0.0
  0
LINE
  5
1546B
  8
0
  6
CONTINUOUS
 10
30.74199999996924
 20
2.992085361546236
 30
0.0
 11
29.30199999996933
 21
4.432085361546148
 31
0.0
  0
LINE
  5
1546C
  8
0
  6
CONTINUOUS
 10
30.74199999996924
 20
3.665604570626419
 30
0.0
 11
29.30199999996933
 21
5.105604570626333
 31
0.0
  0
LINE
  5
1546D
  8
0
  6
CONTINUOUS
 10
30.74199999996925
 20
4.339123779706602
 30
0.0
 11
29.30199999996933
 21
5.77912377970652
 31
0.0
  0
LINE
  5
1546E
  8
0
  6
CONTINUOUS
 10
30.74199999996925
 20
5.012642988786785
 30
0.0
 11
29.30199999996933
 21
6.452642988786707
 31
0.0
  0
LINE
  5
1546F
  8
0
  6
CONTINUOUS
 10
30.74199999996925
 20
5.68616219786697
 30
0.0
 11
29.30199999996933
 21
7.126162197866894
 31
0.0
  0
LINE
  5
15470
  8
0
  6
CONTINUOUS
 10
30.74199999996925
 20
6.359681406947153
 30
0.0
 11
29.30199999996933
 21
7.799681406947081
 31
0.0
  0
LINE
  5
15471
  8
0
  6
CONTINUOUS
 10
30.74199999996926
 20
7.033200616027337
 30
0.0
 11
29.30199999996933
 21
8.473200616027269
 31
0.0
  0
LINE
  5
15472
  8
0
  6
CONTINUOUS
 10
30.74199999996926
 20
7.706719825107518
 30
0.0
 11
29.68561982508552
 21
8.763099999991255
 31
0.0
  0
LINE
  5
15473
  8
0
  6
CONTINUOUS
 10
30.74199999996926
 20
8.380239034187703
 30
0.0
 11
30.35913903416571
 21
8.763099999991255
 31
0.0
  0
ENDBLK
  5
15516
  8
0
  0
BLOCK
  8
0
  2
*X50
 70
     1
 10
0.0
 20
0.0
 30
0.0
  3
*X50
  1

  0
LINE
  5
15475
  8
0
  6
CONTINUOUS
 10
31.64199999996833
 20
8.535058289913598
 30
0.0
 11
31.87004171004599
 21
8.763099999991255
 31
0.0
  0
LINE
  5
15476
  8
0
  6
CONTINUOUS
 10
31.64199999996833
 20
7.861539080833412
 30
0.0
 11
32.54356091912618
 21
8.763099999991255
 31
0.0
  0
LINE
  5
15477
  8
0
  6
CONTINUOUS
 10
31.64199999996833
 20
7.188019871753226
 30
0.0
 11
33.08199999996839
 21
8.628019871753281
 31
0.0
  0
LINE
  5
15478
  8
0
  6
CONTINUOUS
 10
31.64199999996833
 20
6.51450066267304
 30
0.0
 11
33.08199999996839
 21
7.954500662673095
 31
0.0
  0
LINE
  5
15479
  8
0
  6
CONTINUOUS
 10
31.64199999996833
 20
5.840981453592853
 30
0.0
 11
33.08199999996839
 21
7.280981453592908
 31
0.0
  0
LINE
  5
1547A
  8
0
  6
CONTINUOUS
 10
31.64199999996833
 20
5.167462244512667
 30
0.0
 11
33.08199999996839
 21
6.607462244512721
 31
0.0
  0
LINE
  5
1547B
  8
0
  6
CONTINUOUS
 10
31.64199999996833
 20
4.493943035432481
 30
0.0
 11
33.08199999996839
 21
5.933943035432535
 31
0.0
  0
LINE
  5
1547C
  8
0
  6
CONTINUOUS
 10
31.64199999996833
 20
3.820423826352293
 30
0.0
 11
33.08199999996839
 21
5.260423826352348
 31
0.0
  0
LINE
  5
1547D
  8
0
  6
CONTINUOUS
 10
31.64199999996833
 20
3.146904617272106
 30
0.0
 11
33.08199999996839
 21
4.586904617272161
 31
0.0
  0
LINE
  5
1547E
  8
0
  6
CONTINUOUS
 10
36.23199999996837
 20
8.410423826352325
 30
0.0
 11
36.5846761736073
 21
8.763099999991255
 31
0.0
  0
LINE
  5
1547F
  8
0
  6
CONTINUOUS
 10
36.23199999996837
 20
7.73690461727214
 30
0.0
 11
37.25819538268748
 21
8.763099999991255
 31
0.0
  0
LINE
  5
15480
  8
0
  6
CONTINUOUS
 10
31.64257403601376
 20
2.473959444237348
 30
0.0
 11
33.08199999996839
 21
3.913385408191974
 31
0.0
  0
LINE
  5
15481
  8
0
  6
CONTINUOUS
 10
36.23199999996837
 20
7.063385408191953
 30
0.0
 11
37.67199999996831
 21
8.503385408191894
 31
0.0
  0
LINE
  5
15482
  8
0
  6
CONTINUOUS
 10
31.72013636841932
 20
1.87800256756272
 30
0.0
 11
33.08199999996839
 21
3.239866199111788
 31
0.0
  0
LINE
  5
15483
  8
0
  6
CONTINUOUS
 10
36.23199999996837
 20
6.389866199111767
 30
0.0
 11
37.67199999996831
 21
7.829866199111708
 31
0.0
  0
LINE
  5
15484
  8
0
  6
CONTINUOUS
 10
31.89042734314753
 20
1.374774333210744
 30
0.0
 11
33.08199999996839
 21
2.566346990031601
 31
0.0
  0
LINE
  5
15485
  8
0
  6
CONTINUOUS
 10
36.23199999996837
 20
5.71634699003158
 30
0.0
 11
37.67199999996831
 21
7.156346990031521
 31
0.0
  0
LINE
  5
15486
  8
0
  6
CONTINUOUS
 10
32.14210568064475
 20
0.952933461627778
 30
0.0
 11
33.18745552475986
 21
1.998283305742888
 31
0.0
  0
LINE
  5
15487
  8
0
  6
CONTINUOUS
 10
36.23199999996837
 20
5.042827780951393
 30
0.0
 11
37.67199999996831
 21
6.482827780951334
 31
0.0
  0
LINE
  5
15488
  8
0
  6
CONTINUOUS
 10
32.45820639400955
 20
0.5955149659123915
 30
0.0
 11
33.47242681921943
 21
1.60973539112227
 31
0.0
  0
LINE
  5
15489
  8
0
  6
CONTINUOUS
 10
36.23199999996837
 20
4.369308571871207
 30
0.0
 11
37.67199999996831
 21
5.809308571871147
 31
0.0
  0
LINE
  5
1548A
  8
0
  6
CONTINUOUS
 10
32.83432456621412
 20
0.2981139290367771
 30
0.0
 11
33.89722476612215
 21
1.361014128944803
 31
0.0
  0
LINE
  5
1548B
  8
0
  6
CONTINUOUS
 10
36.23199999996837
 20
3.69578936279102
 30
0.0
 11
37.67199999996831
 21
5.135789362790962
 31
0.0
  0
LINE
  5
1548C
  8
0
  6
CONTINUOUS
 10
33.2711633111245
 20
0.0614334648669672
 30
0.0
 11
34.43247338014423
 21
1.222743533886696
 31
0.0
  0
LINE
  5
1548D
  8
0
  6
CONTINUOUS
 10
36.23199999996837
 20
3.022270153710834
 30
0.0
 11
37.67199999996831
 21
4.462270153710775
 31
0.0
  0
LINE
  5
1548E
  8
0
  6
CONTINUOUS
 10
33.76515245874577
 20
-0.1180965965919523
 30
0.0
 11
35.1587445516215
 21
1.27549549628378
 31
0.0
  0
LINE
  5
1548F
  8
0
  6
CONTINUOUS
 10
36.21639478609585
 20
2.333145730758136
 30
0.0
 11
37.67199999996831
 21
3.788750944630588
 31
0.0
  0
LINE
  5
15490
  8
0
  6
CONTINUOUS
 10
34.34060583368432
 20
-0.2161624307335863
 30
0.0
 11
37.67199999996831
 21
3.115231735550401
 31
0.0
  0
LINE
  5
15491
  8
0
  6
CONTINUOUS
 10
35.01698193613905
 20
-0.2133055373590427
 30
0.0
 11
37.66876712070525
 21
2.438479647207154
 31
0.0
  0
LINE
  5
15492
  8
0
  6
CONTINUOUS
 10
35.90743367693304
 20
0.0036269943547609
 30
0.0
 11
37.51723902192366
 21
1.613432339345381
 31
0.0
  0
LINE
  5
15493
  8
0
  6
CONTINUOUS
 10
32.55309425579761
 20
0.5074718966376706
 30
0.0
 11
32.27784730925847
 21
0.7827188431768102
 31
0.0
  0
LINE
  5
15494
  8
0
  6
CONTINUOUS
 10
33.87496468909684
 20
-0.1408793275813673
 30
0.0
 11
31.67993083278052
 21
2.054154528734943
 31
0.0
  0
LINE
  5
15495
  8
0
  6
CONTINUOUS
 10
34.64362813207632
 20
-0.2360235614806649
 30
0.0
 11
31.64199999996833
 21
2.765604570627322
 31
0.0
  0
LINE
  5
15496
  8
0
  6
CONTINUOUS
 10
35.25801106796118
 20
-0.1768872882853429
 30
0.0
 11
31.64199999996833
 21
3.439123779707508
 31
0.0
  0
LINE
  5
15497
  8
0
  6
CONTINUOUS
 10
35.79065650332146
 20
-0.0360135145654361
 30
0.0
 11
34.54143210838231
 21
1.213210880373721
 31
0.0
  0
LINE
  5
15498
  8
0
  6
CONTINUOUS
 10
33.08199999996839
 20
2.67264298878764
 30
0.0
 11
31.64199999996833
 21
4.112642988787695
 31
0.0
  0
LINE
  5
15499
  8
0
  6
CONTINUOUS
 10
36.25975597779143
 20
0.1684062200447833
 30
0.0
 11
35.15395110240023
 21
1.274211095435983
 31
0.0
  0
LINE
  5
1549A
  8
0
  6
CONTINUOUS
 10
33.08199999996839
 20
3.346162197867826
 30
0.0
 11
31.64199999996833
 21
4.786162197867881
 31
0.0
  0
LINE
  5
1549B
  8
0
  6
CONTINUOUS
 10
36.67226329638774
 20
0.4294181105286579
 30
0.0
 11
35.63766478748767
 21
1.464016619428737
 31
0.0
  0
LINE
  5
1549C
  8
0
  6
CONTINUOUS
 10
33.08199999996839
 20
4.019681406948012
 30
0.0
 11
31.64199999996833
 21
5.459681406948068
 31
0.0
  0
LINE
  5
1549D
  8
0
  6
CONTINUOUS
 10
37.01677749710036
 20
0.7584231188962329
 30
0.0
 11
35.99563422741351
 21
1.779566388583076
 31
0.0
  0
LINE
  5
1549E
  8
0
  6
CONTINUOUS
 10
33.08199999996839
 20
4.693200616028199
 30
0.0
 11
31.64199999996833
 21
6.133200616028255
 31
0.0
  0
LINE
  5
1549F
  8
0
  6
CONTINUOUS
 10
37.29859977568887
 20
1.1501200493879
 30
0.0
 11
36.20680593341555
 21
2.241913891661226
 31
0.0
  0
LINE
  5
154A0
  8
0
  6
CONTINUOUS
 10
33.08199999996839
 20
5.366719825108386
 30
0.0
 11
31.64199999996833
 21
6.80671982510844
 31
0.0
  0
LINE
  5
154A1
  8
0
  6
CONTINUOUS
 10
37.5148623517228
 20
1.607376682434161
 30
0.0
 11
36.23199999996837
 21
2.890239034188594
 31
0.0
  0
LINE
  5
154A2
  8
0
  6
CONTINUOUS
 10
33.08199999996839
 20
6.040239034188573
 30
0.0
 11
31.64199999996833
 21
7.480239034188627
 31
0.0
  0
LINE
  5
154A3
  8
0
  6
CONTINUOUS
 10
37.64705163358367
 20
2.148706609653477
 30
0.0
 11
36.23199999996837
 21
3.56375824326878
 31
0.0
  0
LINE
  5
154A4
  8
0
  6
CONTINUOUS
 10
33.08199999996839
 20
6.713758243268758
 30
0.0
 11
31.64199999996833
 21
8.153758243268815
 31
0.0
  0
LINE
  5
154A5
  8
0
  6
CONTINUOUS
 10
37.67199999996831
 20
2.797277452349026
 30
0.0
 11
36.23199999996837
 21
4.237277452348967
 31
0.0
  0
LINE
  5
154A6
  8
0
  6
CONTINUOUS
 10
37.67199999996831
 20
3.470796661429213
 30
0.0
 11
36.23199999996837
 21
4.910796661429154
 31
0.0
  0
LINE
  5
154A7
  8
0
  6
CONTINUOUS
 10
37.67199999996831
 20
4.144315870509399
 30
0.0
 11
36.23199999996837
 21
5.58431587050934
 31
0.0
  0
LINE
  5
154A8
  8
0
  6
CONTINUOUS
 10
33.08199999996839
 20
7.387277452348945
 30
0.0
 11
31.70617745232608
 21
8.763099999991255
 31
0.0
  0
LINE
  5
154A9
  8
0
  6
CONTINUOUS
 10
33.08199999996839
 20
8.060796661429132
 30
0.0
 11
32.37969666140626
 21
8.763099999991255
 31
0.0
  0
LINE
  5
154AA
  8
0
  6
CONTINUOUS
 10
33.08199999996839
 20
8.734315870509318
 30
0.0
 11
33.05321587048645
 21
8.763099999991255
 31
0.0
  0
LINE
  5
154AB
  8
0
  6
CONTINUOUS
 10
37.67199999996831
 20
4.817835079589585
 30
0.0
 11
36.23199999996837
 21
6.257835079589526
 31
0.0
  0
LINE
  5
154AC
  8
0
  6
CONTINUOUS
 10
37.67199999996831
 20
5.491354288669771
 30
0.0
 11
36.23199999996837
 21
6.931354288669713
 31
0.0
  0
LINE
  5
154AD
  8
0
  6
CONTINUOUS
 10
37.67199999996831
 20
6.164873497749958
 30
0.0
 11
36.23199999996837
 21
7.6048734977499
 31
0.0
  0
LINE
  5
154AE
  8
0
  6
CONTINUOUS
 10
37.67199999996831
 20
6.838392706830144
 30
0.0
 11
36.23199999996837
 21
8.278392706830086
 31
0.0
  0
LINE
  5
154AF
  8
0
  6
CONTINUOUS
 10
37.67199999996831
 20
7.511911915910332
 30
0.0
 11
36.42081191588738
 21
8.763099999991255
 31
0.0
  0
LINE
  5
154B0
  8
0
  6
CONTINUOUS
 10
37.67199999996831
 20
8.185431124990519
 30
0.0
 11
37.09433112496757
 21
8.763099999991255
 31
0.0
  0
ENDBLK
  5
15518
  8
0
  0
BLOCK
  8
0
  2
*X51
 70
     1
 10
0.0
 20
0.0
 30
0.0
  3
*X51
  1

  0
LINE
  5
154B2
  8
0
  6
CONTINUOUS
 10
38.60499999996136
 20
8.762866199104765
 30
0.0
 11
38.71672554182345
 21
8.874591740966855
 31
0.0
  0
LINE
  5
154B3
  8
0
  6
CONTINUOUS
 10
38.60499999996136
 20
8.089346990024577
 30
0.0
 11
39.03418785440363
 21
8.518534844466847
 31
0.0
  0
LINE
  5
154B4
  8
0
  6
CONTINUOUS
 10
38.60499999996136
 20
7.41582778094439
 30
0.0
 11
39.35165016698382
 21
8.16247794796684
 31
0.0
  0
LINE
  5
154B5
  8
0
  6
CONTINUOUS
 10
38.60499999996136
 20
6.742308571864204
 30
0.0
 11
39.66911247956399
 21
7.806421051466834
 31
0.0
  0
LINE
  5
154B6
  8
0
  6
CONTINUOUS
 10
38.60499999996136
 20
6.068789362784018
 30
0.0
 11
39.98657479214418
 21
7.450364154966827
 31
0.0
  0
LINE
  5
154B7
  8
0
  6
CONTINUOUS
 10
38.60499999996136
 20
5.395270153703832
 30
0.0
 11
40.30403710472435
 21
7.09430725846682
 31
0.0
  0
LINE
  5
154B8
  8
0
  6
CONTINUOUS
 10
38.60499999996136
 20
4.721750944623645
 30
0.0
 11
40.62149941730453
 21
6.738250361966813
 31
0.0
  0
LINE
  5
154B9
  8
0
  6
CONTINUOUS
 10
38.60499999996136
 20
4.048231735543458
 30
0.0
 11
40.93896172988471
 21
6.382193465466806
 31
0.0
  0
LINE
  5
154BA
  8
0
  6
CONTINUOUS
 10
38.60499999996136
 20
3.374712526463272
 30
0.0
 11
40.02599999995994
 21
4.795712526461843
 31
0.0
  0
LINE
  5
154BB
  8
0
  6
CONTINUOUS
 10
38.60499999996136
 20
2.701193317383085
 30
0.0
 11
40.02599999995994
 21
4.122193317381657
 31
0.0
  0
LINE
  5
154BC
  8
0
  6
CONTINUOUS
 10
40.28339754687704
 20
5.053110073378947
 30
0.0
 11
41.25642404246489
 21
6.026136568966799
 31
0.0
  0
LINE
  5
154BD
  8
0
  6
CONTINUOUS
 10
40.60085985945722
 20
4.697053176878939
 30
0.0
 11
41.57388635504507
 21
5.670079672466793
 31
0.0
  0
LINE
  5
154BE
  8
0
  6
CONTINUOUS
 10
43.57899999995641
 20
8.348712526458318
 30
0.0
 11
43.99338747348935
 21
8.763099999991255
 31
0.0
  0
LINE
  5
154BF
  8
0
  6
CONTINUOUS
 10
43.57899999995641
 20
7.675193317378131
 30
0.0
 11
44.66690668256953
 21
8.763099999991255
 31
0.0
  0
LINE
  5
154C0
  8
0
  6
CONTINUOUS
 10
38.60499999996136
 20
2.027674108302898
 30
0.0
 11
40.02599999995994
 21
3.44867410830147
 31
0.0
  0
LINE
  5
154C1
  8
0
  6
CONTINUOUS
 10
38.60499999996136
 20
1.354154899222712
 30
0.0
 11
40.02599999995994
 21
2.775154899221284
 31
0.0
  0
LINE
  5
154C2
  8
0
  6
CONTINUOUS
 10
38.60499999996136
 20
0.6806356901425255
 30
0.0
 11
40.02599999995994
 21
2.101635690141098
 31
0.0
  0
LINE
  5
154C3
  8
0
  6
CONTINUOUS
 10
38.60499999996136
 20
0.0071164810623383
 30
0.0
 11
40.02599999995994
 21
1.428116481060911
 31
0.0
  0
LINE
  5
154C4
  8
0
  6
CONTINUOUS
 10
40.9183221720374
 20
4.340996280378933
 30
0.0
 11
41.89134866762525
 21
5.314022775966786
 31
0.0
  0
LINE
  5
154C5
  8
0
  6
CONTINUOUS
 10
41.23578448461758
 20
3.984939383878926
 30
0.0
 11
42.20881098020543
 21
4.957965879466778
 31
0.0
  0
LINE
  5
154C6
  8
0
  6
CONTINUOUS
 10
41.55324679719776
 20
3.628882487378919
 30
0.0
 11
42.52627329278561
 21
4.601908982966772
 31
0.0
  0
LINE
  5
154C7
  8
0
  6
CONTINUOUS
 10
41.87070910977793
 20
3.272825590878912
 30
0.0
 11
42.84373560536579
 21
4.245852086466765
 31
0.0
  0
LINE
  5
154C8
  8
0
  6
CONTINUOUS
 10
43.57899999995641
 20
7.001674108297943
 30
0.0
 11
44.99999999995498
 21
8.422674108296516
 31
0.0
  0
LINE
  5
154C9
  8
0
  6
CONTINUOUS
 10
43.57899999995641
 20
6.328154899217758
 30
0.0
 11
44.99999999995498
 21
7.749154899216329
 31
0.0
  0
LINE
  5
154CA
  8
0
  6
CONTINUOUS
 10
43.57899999995641
 20
5.654635690137571
 30
0.0
 11
44.99999999995498
 21
7.075635690136142
 31
0.0
  0
LINE
  5
154CB
  8
0
  6
CONTINUOUS
 10
43.57899999995641
 20
4.981116481057384
 30
0.0
 11
44.99999999995498
 21
6.402116481055955
 31
0.0
  0
LINE
  5
154CC
  8
0
  6
CONTINUOUS
 10
39.27140272797921
 20
-0.0000000000000009
 30
0.0
 11
40.02599999995994
 21
0.7545972719807246
 31
0.0
  0
LINE
  5
154CD
  8
0
  6
CONTINUOUS
 10
39.9449219370594
 20
-0.0000000000000009
 30
0.0
 11
40.02599999995994
 21
0.0810780629005379
 31
0.0
  0
LINE
  5
154CE
  8
0
  6
CONTINUOUS
 10
42.18817142235812
 20
2.916768694378905
 30
0.0
 11
43.16119791794597
 21
3.889795189966758
 31
0.0
  0
LINE
  5
154CF
  8
0
  6
CONTINUOUS
 10
42.50563373493829
 20
2.560711797878898
 30
0.0
 11
43.47866023052615
 21
3.533738293466751
 31
0.0
  0
LINE
  5
154D0
  8
0
  6
CONTINUOUS
 10
43.57899999995641
 20
4.307597271977198
 30
0.0
 11
44.99999999995498
 21
5.728597271975769
 31
0.0
  0
LINE
  5
154D1
  8
0
  6
CONTINUOUS
 10
43.57899999995641
 20
3.634078062897011
 30
0.0
 11
44.99999999995498
 21
5.055078062895582
 31
0.0
  0
LINE
  5
154D2
  8
0
  6
CONTINUOUS
 10
42.82309604751848
 20
2.204654901378891
 30
0.0
 11
44.99999999995498
 21
4.381558853815395
 31
0.0
  0
LINE
  5
154D3
  8
0
  6
CONTINUOUS
 10
43.14055836009865
 20
1.848598004878885
 30
0.0
 11
44.99999999995498
 21
3.70803964473521
 31
0.0
  0
LINE
  5
154D4
  8
0
  6
CONTINUOUS
 10
43.45802067267883
 20
1.492541108378878
 30
0.0
 11
44.99999999995498
 21
3.034520435655023
 31
0.0
  0
LINE
  5
154D5
  8
0
  6
CONTINUOUS
 10
43.77548298525902
 20
1.136484211878871
 30
0.0
 11
44.99999999995498
 21
2.361001226574837
 31
0.0
  0
LINE
  5
154D6
  8
0
  6
CONTINUOUS
 10
44.09294529783919
 20
0.7804273153788639
 30
0.0
 11
44.99999999995498
 21
1.687482017494649
 31
0.0
  0
LINE
  5
154D7
  8
0
  6
CONTINUOUS
 10
44.41040761041938
 20
0.4243704188788566
 30
0.0
 11
44.99999999995498
 21
1.013962808414463
 31
0.0
  0
LINE
  5
154D8
  8
0
  6
CONTINUOUS
 10
44.72786992299955
 20
0.0683135223788494
 30
0.0
 11
44.99999999995498
 21
0.340443599334276
 31
0.0
  0
LINE
  5
154D9
  8
0
  6
CONTINUOUS
 10
39.12223903415696
 20
-0.0000000000000009
 30
0.0
 11
38.60499999996136
 21
0.5172390341955961
 31
0.0
  0
LINE
  5
154DA
  8
0
  6
CONTINUOUS
 10
39.79575824323715
 20
-0.0000000000000009
 30
0.0
 11
38.60499999996136
 21
1.190758243275783
 31
0.0
  0
LINE
  5
154DB
  8
0
  6
CONTINUOUS
 10
40.02599999995994
 20
0.443277452357397
 30
0.0
 11
38.60499999996136
 21
1.864277452355969
 31
0.0
  0
LINE
  5
154DC
  8
0
  6
CONTINUOUS
 10
40.02599999995994
 20
1.116796661437583
 30
0.0
 11
38.60499999996136
 21
2.537796661436155
 31
0.0
  0
LINE
  5
154DD
  8
0
  6
CONTINUOUS
 10
40.02599999995994
 20
1.79031587051777
 30
0.0
 11
38.60499999996136
 21
3.211315870516341
 31
0.0
  0
LINE
  5
154DE
  8
0
  6
CONTINUOUS
 10
40.02599999995994
 20
2.463835079597956
 30
0.0
 11
38.60499999996136
 21
3.884835079596527
 31
0.0
  0
LINE
  5
154DF
  8
0
  6
CONTINUOUS
 10
40.02599999995994
 20
3.137354288678143
 30
0.0
 11
38.60499999996136
 21
4.558354288676714
 31
0.0
  0
LINE
  5
154E0
  8
0
  6
CONTINUOUS
 10
40.02599999995994
 20
3.810873497758329
 30
0.0
 11
38.60499999996136
 21
5.2318734977569
 31
0.0
  0
LINE
  5
154E1
  8
0
  6
CONTINUOUS
 10
40.02599999995994
 20
4.484392706838515
 30
0.0
 11
38.60499999996136
 21
5.905392706837086
 31
0.0
  0
LINE
  5
154E2
  8
0
  6
CONTINUOUS
 10
44.99999999995498
 20
0.183911915923658
 30
0.0
 11
41.53858364506288
 21
3.64532827081576
 31
0.0
  0
LINE
  5
154E3
  8
0
  6
CONTINUOUS
 10
40.02599999995994
 20
5.157911915918703
 30
0.0
 11
38.60499999996136
 21
6.578911915917274
 31
0.0
  0
LINE
  5
154E4
  8
0
  6
CONTINUOUS
 10
44.99999999995498
 20
0.8574311250038447
 30
0.0
 11
38.60499999996136
 21
7.25243112499746
 31
0.0
  0
LINE
  5
154E5
  8
0
  6
CONTINUOUS
 10
44.99999999995498
 20
1.530950334084031
 30
0.0
 11
38.60499999996136
 21
7.925950334077647
 31
0.0
  0
LINE
  5
154E6
  8
0
  6
CONTINUOUS
 10
44.99999999995498
 20
2.204469543164218
 30
0.0
 11
43.57899999995641
 21
3.625469543162789
 31
0.0
  0
LINE
  5
154E7
  8
0
  6
CONTINUOUS
 10
41.89876730984767
 20
5.305702233271528
 30
0.0
 11
38.60499999996136
 21
8.599469543157834
 31
0.0
  0
LINE
  5
154E8
  8
0
  6
CONTINUOUS
 10
44.99999999995498
 20
2.877988752244405
 30
0.0
 11
43.57899999995641
 21
4.298988752242975
 31
0.0
  0
LINE
  5
154E9
  8
0
  6
CONTINUOUS
 10
44.99999999995498
 20
3.551507961324591
 30
0.0
 11
43.57899999995641
 21
4.972507961323163
 31
0.0
  0
LINE
  5
154EA
  8
0
  6
CONTINUOUS
 10
44.99999999995498
 20
4.225027170404777
 30
0.0
 11
43.57899999995641
 21
5.646027170403348
 31
0.0
  0
LINE
  5
154EB
  8
0
  6
CONTINUOUS
 10
44.99999999995498
 20
4.898546379484964
 30
0.0
 11
43.57899999995641
 21
6.319546379483535
 31
0.0
  0
LINE
  5
154EC
  8
0
  6
CONTINUOUS
 10
44.99999999995498
 20
5.572065588565151
 30
0.0
 11
43.57899999995641
 21
6.993065588563722
 31
0.0
  0
LINE
  5
154ED
  8
0
  6
CONTINUOUS
 10
44.99999999995498
 20
6.245584797645336
 30
0.0
 11
43.57899999995641
 21
7.666584797643908
 31
0.0
  0
LINE
  5
154EE
  8
0
  6
CONTINUOUS
 10
44.99999999995498
 20
6.919104006725522
 30
0.0
 11
43.57899999995641
 21
8.340104006724093
 31
0.0
  0
LINE
  5
154EF
  8
0
  6
CONTINUOUS
 10
44.99999999995498
 20
7.592623215805709
 30
0.0
 11
43.82952321576943
 21
8.763099999991255
 31
0.0
  0
LINE
  5
154F0
  8
0
  6
CONTINUOUS
 10
44.99999999995498
 20
8.266142424885896
 30
0.0
 11
44.50304242484962
 21
8.763099999991255
 31
0.0
  0
ENDBLK
  5
1551A
  8
0
  0
BLOCK
  8
0
  2
*X52
 70
     1
 10
0.0
 20
0.0
 30
0.0
  3
*X52
  1

  0
LINE
  5
154F2
  8
0
  6
CONTINUOUS
 10
0.0
 20
8.548461116714023
 30
0.0
 11
0.2146388832772324
 21
8.763099999991255
 31
0.0
  0
LINE
  5
154F3
  8
0
  6
CONTINUOUS
 10
-0.0000000000000002
 20
7.874941907633837
 30
0.0
 11
0.8881580923574184
 21
8.763099999991255
 31
0.0
  0
LINE
  5
154F4
  8
0
  6
CONTINUOUS
 10
0.0
 20
7.20142269855365
 30
0.0
 11
1.420999999998572
 21
8.622422698552223
 31
0.0
  0
LINE
  5
154F5
  8
0
  6
CONTINUOUS
 10
-0.0000000000000001
 20
6.527903489473465
 30
0.0
 11
1.420999999998571
 21
7.948903489472036
 31
0.0
  0
LINE
  5
154F6
  8
0
  6
CONTINUOUS
 10
-0.0000000000000002
 20
5.854384280393278
 30
0.0
 11
1.420999999998571
 21
7.275384280391849
 31
0.0
  0
LINE
  5
154F7
  8
0
  6
CONTINUOUS
 10
-0.0000000000000002
 20
5.180865071313091
 30
0.0
 11
1.420999999998571
 21
6.601865071311663
 31
0.0
  0
LINE
  5
154F8
  8
0
  6
CONTINUOUS
 10
0.0
 20
4.507345862232905
 30
0.0
 11
1.420999999998571
 21
5.928345862231477
 31
0.0
  0
LINE
  5
154F9
  8
0
  6
CONTINUOUS
 10
-0.0000000000000003
 20
3.833826653152718
 30
0.0
 11
1.420999999998571
 21
5.25482665315129
 31
0.0
  0
LINE
  5
154FA
  8
0
  6
CONTINUOUS
 10
-0.0000000000000002
 20
3.160307444072532
 30
0.0
 11
1.420999999998571
 21
4.581307444071103
 31
0.0
  0
LINE
  5
154FB
  8
0
  6
CONTINUOUS
 10
-0.0000000000000001
 20
2.486788234992345
 30
0.0
 11
1.420999999998571
 21
3.907788234990917
 31
0.0
  0
LINE
  5
154FC
  8
0
  6
CONTINUOUS
 10
-0.0000000000000006
 20
1.813269025912159
 30
0.0
 11
1.420999999998571
 21
3.234269025910731
 31
0.0
  0
LINE
  5
154FD
  8
0
  6
CONTINUOUS
 10
0.0
 20
1.139749816831973
 30
0.0
 11
1.420999999998571
 21
2.560749816830544
 31
0.0
  0
LINE
  5
154FE
  8
0
  6
CONTINUOUS
 10
0.0000000000000002
 20
0.466230607751787
 30
0.0
 11
1.420999999998571
 21
1.887230607750358
 31
0.0
  0
LINE
  5
154FF
  8
0
  6
CONTINUOUS
 10
0.2072886013284003
 20
-0.0000000000000009
 30
0.0
 11
1.420999999998571
 21
1.213711398670171
 31
0.0
  0
LINE
  5
15500
  8
0
  6
CONTINUOUS
 10
0.8808078104085864
 20
-0.0000000000000009
 30
0.0
 11
1.420999999998571
 21
0.5401921895899839
 31
0.0
  0
LINE
  5
15501
  8
0
  6
CONTINUOUS
 10
0.0581249075061505
 20
-0.0000000000000009
 30
0.0
 11
-0.0000000000000002
 21
0.0581249075061496
 31
0.0
  0
LINE
  5
15502
  8
0
  6
CONTINUOUS
 10
0.7316441165863372
 20
-0.0000000000000009
 30
0.0
 11
-0.0000000000000002
 21
0.7316441165863363
 31
0.0
  0
LINE
  5
15503
  8
0
  6
CONTINUOUS
 10
1.405163325666523
 20
-0.0000000000000009
 30
0.0
 11
-0.0000000000000002
 21
1.405163325666523
 31
0.0
  0
LINE
  5
15504
  8
0
  6
CONTINUOUS
 10
1.420999999998572
 20
0.6576825347481381
 30
0.0
 11
-0.0000000000000001
 21
2.07868253474671
 31
0.0
  0
LINE
  5
15505
  8
0
  6
CONTINUOUS
 10
1.420999999998571
 20
1.331201743828324
 30
0.0
 11
-0.0000000000000001
 21
2.752201743826896
 31
0.0
  0
LINE
  5
15506
  8
0
  6
CONTINUOUS
 10
1.420999999998571
 20
2.004720952908511
 30
0.0
 11
-0.0000000000000002
 21
3.425720952907082
 31
0.0
  0
LINE
  5
15507
  8
0
  6
CONTINUOUS
 10
1.420999999998571
 20
2.678240161988697
 30
0.0
 11
-0.0000000000000001
 21
4.099240161987269
 31
0.0
  0
LINE
  5
15508
  8
0
  6
CONTINUOUS
 10
1.420999999998572
 20
3.351759371068884
 30
0.0
 11
0.0
 21
4.772759371067455
 31
0.0
  0
LINE
  5
15509
  8
0
  6
CONTINUOUS
 10
1.420999999998571
 20
4.02527858014907
 30
0.0
 11
-0.0000000000000003
 21
5.446278580147642
 31
0.0
  0
LINE
  5
1550A
  8
0
  6
CONTINUOUS
 10
1.420999999998571
 20
4.698797789229257
 30
0.0
 11
0.0
 21
6.119797789227828
 31
0.0
  0
LINE
  5
1550B
  8
0
  6
CONTINUOUS
 10
1.420999999998571
 20
5.372316998309444
 30
0.0
 11
-0.0000000000000001
 21
6.793316998308015
 31
0.0
  0
LINE
  5
1550C
  8
0
  6
CONTINUOUS
 10
1.420999999998572
 20
6.045836207389629
 30
0.0
 11
-0.0000000000000004
 21
7.466836207388202
 31
0.0
  0
LINE
  5
1550D
  8
0
  6
CONTINUOUS
 10
1.420999999998571
 20
6.719355416469816
 30
0.0
 11
0.0
 21
8.140355416468388
 31
0.0
  0
LINE
  5
1550E
  8
0
  6
CONTINUOUS
 10
1.420999999998571
 20
7.392874625550003
 30
0.0
 11
0.0507746255573185
 21
8.763099999991255
 31
0.0
  0
LINE
  5
1550F
  8
0
  6
CONTINUOUS
 10
1.420999999998571
 20
8.06639383463019
 30
0.0
 11
0.7242938346375052
 21
8.763099999991255
 31
0.0
  0
LINE
  5
15510
  8
0
  6
CONTINUOUS
 10
1.420999999998571
 20
8.739913043710375
 30
0.0
 11
1.397813043717691
 21
8.763099999991255
 31
0.0
  0
ENDBLK
  5
1551C
  8
0
  0
ENDSEC
  0
SECTION
  2
ENTITIES
  0
LINE
  5
1448F
  8
01
 10
348.1464397767877
 20
-107.3718815982984
 30
0.0
 11
348.1464397767872
 21
-108.4943938251517
 31
0.0
  0
LINE
  5
14492
  8
01
 10
347.8466405296044
 20
-94.31354718189414
 30
0.0
 11
347.1464397771165
 21
-94.31354727095459
 31
0.0
  0
ARC
  5
14493
  8
01
 10
347.8466836611985
 20
-94.61359013702713
 30
0.0
 40
0.3000429082662117
 50
0.0082026310118144
 51
89.94152091481884
  0
ARC
  5
14494
  8
01
 10
288.4461960184818
 20
-94.61359021328917
 30
0.0
 40
0.3000430344775417
 50
89.99178773684606
 51
179.9916713103815
  0
LINE
  5
14495
  8
01
 10
289.146439776435
 20
-94.31354727095459
 30
0.0
 11
288.4462390239593
 21
-94.31354718189414
 31
0.0
  0
LINE
  5
14496
  8
01
 10
347.1464397767878
 20
-94.31354727095459
 30
0.0
 11
346.4464397767879
 21
-94.31354727095459
 31
0.0
  0
LINE
  5
14497
  8
01
 10
289.8464397767877
 20
-94.31354727095459
 30
0.0
 11
289.1464397767878
 21
-94.31354727095459
 31
0.0
  0
ARC
  5
14498
  8
01
 10
289.8431148909685
 20
-112.1039128946877
 30
0.0
 40
0.3057137159715669
 50
270.6368436593668
 51
312.4825087355629
  0
LINE
  5
14499
  8
01
 10
290.146439776788
 20
-110.6495365759929
 30
0.0
 11
290.1464397767882
 21
-110.7086168363749
 31
0.0
  0
ARC
  5
1449A
  8
01
 10
346.4497651737739
 20
-112.1039118464796
 30
0.0
 40
0.3057148342320216
 50
227.517553288702
 51
269.3745312557631
  0
LINE
  5
1449B
  8
01
 10
346.1464397767877
 20
-110.6495365759929
 30
0.0
 11
346.1464397767877
 21
-110.7086168363749
 31
0.0
  0
ARC
  5
1449C
  8
01
 10
290.6964409164073
 20
-112.2766022540418
 30
0.0
 40
0.300001175561257
 50
179.9989792802032
 51
269.9997754943078
  0
LINE
  5
1449D
  8
01
 10
290.3964397408935
 20
-110.9008470017097
 30
0.0
 11
290.3964397408936
 21
-112.2765969095444
 31
0.0
  0
LINE
  5
1449E
  8
01
 10
290.3964397408935
 20
-110.3905371027449
 30
0.0
 11
290.3964397408935
 21
-110.4350734057571
 31
0.0
  0
ARC
  5
1449F
  8
01
 10
345.5964380502247
 20
-112.2766017388985
 30
0.0
 40
0.3000016907077067
 50
270.0003228921487
 51
0.0009223334835206
  0
LINE
  5
144A0
  8
01
 10
345.8964397408936
 20
-110.9008470017106
 30
0.0
 11
345.8964397408936
 21
-112.2765969095444
 31
0.0
  0
ARC
  5
144A1
  8
01
 10
452.4255224892792
 20
-87.67422381221604
 30
0.0
 40
6.553616379806404
 50
304.4627366806718
 51
331.9385348096873
  0
LINE
  5
144A2
  8
01
 10
348.1464397081725
 20
-94.55895213943131
 30
0.0
 11
348.146439686263
 21
-94.51430955192427
 31
0.0
  0
LINE
  5
144A3
  8
01
 10
288.1464398673157
 20
-94.51430197089667
 30
0.0
 11
288.1464398453995
 21
-94.55895830830468
 31
0.0
  0
LINE
  5
144A4
  8
01
 10
290.4464397767878
 20
-94.31354701067175
 30
0.0
 11
289.9010286910262
 21
-94.31354705609829
 31
0.0
  0
LINE
  5
144A5
  8
01
 10
345.8464397767877
 20
-94.31354701067175
 30
0.0
 11
290.4464397767878
 21
-94.31354701067175
 31
0.0
  0
LINE
  5
144A6
  8
01
 10
346.3918508625389
 20
-94.3135470560992
 30
0.0
 11
345.8464397767877
 21
-94.31354701067175
 31
0.0
  0
LINE
  5
144A7
  8
01
 10
348.1464397767877
 20
-94.11430843966355
 30
0.0
 11
348.1464397767877
 21
-94.51430843966318
 31
0.0
  0
LINE
  5
144A8
  8
01
 10
348.1295505812628
 20
-94.51430843966318
 30
0.0
 11
348.1446571223197
 21
-94.51430843966318
 31
0.0
  0
LINE
  5
144A9
  8
01
 10
288.1479168986332
 20
-94.51430843966318
 30
0.0
 11
288.1633289723127
 21
-94.51430843966318
 31
0.0
  0
LINE
  5
144AA
  8
01
 10
288.1464397767877
 20
-94.11430843966355
 30
0.0
 11
288.1464397767877
 21
-94.51430197035188
 31
0.0
  0
LINE
  5
144AC
  8
01
 10
347.1464397767877
 20
-112.4086168365911
 30
0.0
 11
346.4464397767878
 21
-112.4086168365911
 31
0.0
  0
ARC
  5
144B1
  8
01
 10
289.146439773913
 20
-111.408616839466
 30
0.0
 40
0.9999999971253004
 50
180.0000000106305
 51
270.0000001647073
  0
ARC
  5
144B2
  8
01
 10
347.1464397796624
 20
-111.408616839466
 30
0.0
 40
0.9999999971253912
 50
269.9999998352927
 51
359.9999999893695
  0
LINE
  5
144B3
  8
01
 10
288.1464397767877
 20
-107.3718815737348
 30
0.0
 11
288.1464397767954
 21
-94.61354677568852
 31
0.0
  0
LINE
  5
144B4
  8
01
 10
288.1464397767877
 20
-111.4086168366239
 30
0.0
 11
288.1464397767877
 21
-107.3718815737348
 31
0.0
  0
LINE
  5
144B5
  8
01
 10
348.1464397767877
 20
-108.4943938251508
 30
0.0
 11
348.1464397767877
 21
-111.4086168366248
 31
0.0
  0
LINE
  5
144B6
  8
01
 10
348.1464397767766
 20
-94.61354718447456
 30
0.0
 11
348.1464397767877
 21
-107.3718815737348
 31
0.0
  0
LINE
  5
144BA
  8
01
 10
289.8464397767877
 20
-112.4086168365911
 30
0.0
 11
289.1464397767877
 21
-112.4086168365911
 31
0.0
  0
LINE
  5
144BF
  8
01
 10
290.1464397767877
 20
-94.6135472595679
 30
0.0
 11
290.1464397767877
 21
-107.3718815736474
 31
0.0
  0
LINE
  5
144C1
  8
01
 10
346.1464397767877
 20
-94.6135472595679
 30
0.0
 11
346.1464397767877
 21
-107.3718815736474
 31
0.0
  0
ARC
  5
144CA
  8
01
 10
289.8464397767874
 20
-112.1086168365919
 30
0.0
 40
0.3000000000003098
 50
312.626986105785
 51
0.0
  0
LINE
  5
144CB
  8
01
 10
290.1464397767877
 20
-110.7086168363749
 30
0.0
 11
290.1464397767877
 21
-112.1086168365919
 31
0.0
  0
LINE
  5
144CC
  8
01
 10
290.1464397767877
 20
-107.3718815736474
 30
0.0
 11
290.1464397767877
 21
-110.6495365759929
 31
0.0
  0
ARC
  5
144CF
  8
01
 10
346.4464397767879
 20
-112.1086168365919
 30
0.0
 40
0.3000000000000682
 50
180.0
 51
227.3730138186127
  0
LINE
  5
144D0
  8
01
 10
346.1464397767877
 20
-110.7086168363749
 30
0.0
 11
346.1464397767877
 21
-112.1086168365919
 31
0.0
  0
LINE
  5
144D1
  8
01
 10
346.1464397767877
 20
-107.3718815736474
 30
0.0
 11
346.1464397767877
 21
-110.6495365759929
 31
0.0
  0
ARC
  5
144D6
  8
01
 10
289.8464397865077
 20
-94.61354726123591
 30
0.0
 40
0.2999999902799715
 50
0.0000003185497009
 51
90.00000185638706
  0
ARC
  5
144DB
  8
01
 10
346.4464397670678
 20
-94.61354726123591
 30
0.0
 40
0.2999999902800141
 50
89.99999814361293
 51
179.9999996814503
  0
LINE
  5
144E0
  8
01
 10
290.6964397408935
 20
-112.5764947619946
 30
0.0
 11
345.5964397408936
 21
-112.5764947619946
 31
0.0
  0
LINE
  5
144E1
  8
1DIM
 10
288.1464397767877
 20
-107.5764947619946
 30
0.0
 11
345.5964397408935
 21
-107.5764947619946
 31
0.0
  0
LINE
  5
144E3
  8
01
 10
345.8964397408936
 20
-107.5764947619946
 30
0.0
 11
345.8964397408936
 21
-94.91159587677066
 31
0.0
  0
LINE
  5
144E5
  8
01
 10
290.3964397408936
 20
-107.5764947619946
 30
0.0
 11
290.3964397408936
 21
-94.91159587677066
 31
0.0
  0
LINE
  5
144E6
  8
01
 10
290.6964397408935
 20
-94.61159587677048
 30
0.0
 11
345.5964397408935
 21
-94.61159587677048
 31
0.0
  0
LINE
  5
144E8
  8
1DIM
 10
290.3964397408936
 20
-107.5764947619946
 30
0.0
 11
290.6964397408935
 21
-107.5764947619946
 31
0.0
  0
LINE
  5
144E9
  8
01
 10
290.3964397408936
 20
-110.4350734057571
 30
0.0
 11
290.3964397408935
 21
-110.9008470017097
 31
0.0
  0
LINE
  5
144EA
  8
01
 10
290.3964397408936
 20
-107.5764947619946
 30
0.0
 11
290.3964397408935
 21
-110.3905371027449
 31
0.0
  0
LINE
  5
144EC
  8
1DIM
 10
348.1464397767876
 20
-107.5764947619955
 30
0.0
 11
345.5964397408935
 21
-107.5764947619946
 31
0.0
  0
LINE
  5
144ED
  8
01
 10
345.8964397408936
 20
-107.5764947619946
 30
0.0
 11
345.8964397408936
 21
-110.9008470017097
 31
0.0
  0
ARC
  5
144EF
  8
01
 10
345.5964397408936
 20
-94.91159587677066
 30
0.0
 40
0.2999999999999545
 50
0.0
 51
90.00000000001303
  0
ARC
  5
144F4
  8
01
 10
290.6964397408934
 20
-94.91159587677066
 30
0.0
 40
0.2999999999999048
 50
89.99999999998697
 51
180.0
  0
ARC
  5
144F5
  8
01
 10
452.6250347934858
 20
-87.64406833482462
 30
0.0
 40
6.468130206359673
 50
269.6425919693569
 51
302.8542287536337
  0
ARC
  5
144F6
  8
01
 10
448.9856555616066
 20
-85.75425650787565
 30
0.0
 40
10.49256773714089
 50
331.5230579800997
 51
345.5530803423492
  0
LINE
  5
144F7
  8
01
 10
177.1464397408942
 20
-88.3719735629511
 30
0.0
 11
177.2370209896008
 21
-88.69396517893529
 31
0.0
  0
LINE
  5
144F8
  8
01
 10
177.2370209896008
 20
-88.69396517893529
 30
0.0
 11
177.3344900253007
 21
-89.00833355042778
 31
0.0
  0
LINE
  5
144F9
  8
01
 10
177.3344900253007
 20
-89.00833355042778
 30
0.0
 11
177.4388966081214
 21
-89.31492091466407
 31
0.0
  0
LINE
  5
144FA
  8
01
 10
177.4388966081214
 20
-89.31492091466407
 30
0.0
 11
177.55029049819
 21
-89.61356950888057
 31
0.0
  0
LINE
  5
144FB
  8
01
 10
177.55029049819
 20
-89.61356950888057
 30
0.0
 11
177.6687214556339
 21
-89.90412157031369
 31
0.0
  0
LINE
  5
144FC
  8
01
 10
177.6687214556339
 20
-89.90412157031369
 30
0.0
 11
177.7942392405804
 21
-90.18641933619892
 31
0.0
  0
LINE
  5
144FD
  8
01
 10
177.7942392405804
 20
-90.18641933619892
 30
0.0
 11
177.9268936131567
 21
-90.46030504377268
 31
0.0
  0
LINE
  5
144FE
  8
01
 10
177.9268936131567
 20
-90.46030504377268
 30
0.0
 11
178.0667343334903
 21
-90.72562093027136
 31
0.0
  0
LINE
  5
144FF
  8
01
 10
178.0667343334903
 20
-90.72562093027136
 30
0.0
 11
178.1393651241058
 21
-90.85501588975421
 31
0.0
  0
LINE
  5
14500
  8
01
 10
178.1393651241058
 20
-90.85501588975421
 30
0.0
 11
178.2138111617083
 21
-90.98220923293138
 31
0.0
  0
LINE
  5
14501
  8
01
 10
178.2138111617083
 20
-90.98220923293138
 30
0.0
 11
178.2900786663138
 21
-91.10718123945753
 31
0.0
  0
LINE
  5
14502
  8
01
 10
178.2900786663138
 20
-91.10718123945753
 30
0.0
 11
178.3681738579381
 21
-91.22991218898824
 31
0.0
  0
LINE
  5
14503
  8
01
 10
178.3681738579381
 20
-91.22991218898824
 30
0.0
 11
178.4481029565972
 21
-91.35038236117725
 31
0.0
  0
LINE
  5
14504
  8
01
 10
178.4481029565972
 20
-91.35038236117725
 30
0.0
 11
178.5298721823069
 21
-91.46857203567833
 31
0.0
  0
LINE
  5
14505
  8
01
 10
178.5298721823069
 20
-91.46857203567833
 30
0.0
 11
178.6134877550833
 21
-91.58446149214706
 31
0.0
  0
LINE
  5
14506
  8
01
 10
178.6134877550833
 20
-91.58446149214706
 30
0.0
 11
178.6989558949422
 21
-91.69803101023808
 31
0.0
  0
LINE
  5
14507
  8
01
 10
178.6989558949422
 20
-91.69803101023808
 30
0.0
 11
178.7862828218995
 21
-91.80926086960517
 31
0.0
  0
LINE
  5
14508
  8
01
 10
178.7862828218995
 20
-91.80926086960517
 30
0.0
 11
178.875474755971
 21
-91.91813134990298
 31
0.0
  0
LINE
  5
14509
  8
01
 10
178.875474755971
 20
-91.91813134990298
 30
0.0
 11
178.9665379171729
 21
-92.02462273078709
 31
0.0
  0
LINE
  5
1450A
  8
01
 10
178.9665379171729
 20
-92.02462273078709
 30
0.0
 11
179.0594785255209
 21
-92.12871529191034
 31
0.0
  0
LINE
  5
1450B
  8
01
 10
179.0594785255209
 20
-92.12871529191034
 30
0.0
 11
179.154302801031
 21
-92.23038931292831
 31
0.0
  0
LINE
  5
1450C
  8
01
 10
179.154302801031
 20
-92.23038931292831
 30
0.0
 11
179.2510169637191
 21
-92.32962507349566
 31
0.0
  0
LINE
  5
1450D
  8
01
 10
179.2510169637191
 20
-92.32962507349566
 30
0.0
 11
179.3496272336009
 21
-92.42640285326615
 31
0.0
  0
LINE
  5
1450E
  8
01
 10
179.3496272336009
 20
-92.42640285326615
 30
0.0
 11
179.4501398306927
 21
-92.52070293189445
 31
0.0
  0
LINE
  5
1450F
  8
01
 10
179.4501398306927
 20
-92.52070293189445
 30
0.0
 11
179.5525609750101
 21
-92.61250558903521
 31
0.0
  0
LINE
  5
14510
  8
01
 10
179.5525609750101
 20
-92.61250558903521
 30
0.0
 11
179.6568968865691
 21
-92.70179110434401
 31
0.0
  0
LINE
  5
14511
  8
01
 10
179.6568968865691
 20
-92.70179110434401
 30
0.0
 11
179.7631537853858
 21
-92.7885397574737
 31
0.0
  0
LINE
  5
14512
  8
01
 10
179.7631537853858
 20
-92.7885397574737
 30
0.0
 11
179.8713378914758
 21
-92.87273182807985
 31
0.0
  0
LINE
  5
14513
  8
01
 10
179.8713378914758
 20
-92.87273182807985
 30
0.0
 11
179.9814554248553
 21
-92.95434759581622
 31
0.0
  0
LINE
  5
14514
  8
01
 10
179.9814554248553
 20
-92.95434759581622
 30
0.0
 11
180.09351260554
 21
-93.03336734033837
 31
0.0
  0
LINE
  5
14515
  8
01
 10
180.09351260554
 20
-93.03336734033837
 30
0.0
 11
180.2075156535459
 21
-93.10977134130007
 31
0.0
  0
LINE
  5
14516
  8
01
 10
180.2075156535459
 20
-93.10977134130007
 30
0.0
 11
180.3234707888888
 21
-93.18353987835599
 31
0.0
  0
LINE
  5
14517
  8
01
 10
180.3234707888888
 20
-93.18353987835599
 30
0.0
 11
180.4413842315848
 21
-93.25465323115986
 31
0.0
  0
LINE
  5
14518
  8
01
 10
180.4413842315848
 20
-93.25465323115986
 30
0.0
 11
180.5612622016497
 21
-93.32309167936819
 31
0.0
  0
LINE
  5
14519
  8
01
 10
180.5612622016497
 20
-93.32309167936819
 30
0.0
 11
180.6831109190995
 21
-93.38883550263381
 31
0.0
  0
LINE
  5
1451A
  8
01
 10
180.6831109190995
 20
-93.38883550263381
 30
0.0
 11
180.80693660395
 21
-93.45186498061139
 31
0.0
  0
LINE
  5
1451B
  8
01
 10
180.80693660395
 20
-93.45186498061139
 30
0.0
 11
180.9327454762172
 21
-93.5121603929556
 31
0.0
  0
LINE
  5
1451C
  8
01
 10
180.9327454762172
 20
-93.5121603929556
 30
0.0
 11
181.0605437559169
 21
-93.569702019322
 31
0.0
  0
LINE
  5
1451D
  8
01
 10
181.0605437559169
 20
-93.569702019322
 30
0.0
 11
181.1903376630651
 21
-93.62447013936435
 31
0.0
  0
LINE
  5
1451E
  8
01
 10
181.1903376630651
 20
-93.62447013936435
 30
0.0
 11
181.3221334176777
 21
-93.67644503273641
 31
0.0
  0
LINE
  5
1451F
  8
01
 10
181.3221334176777
 20
-93.67644503273641
 30
0.0
 11
181.4559372397706
 21
-93.72560697909375
 31
0.0
  0
LINE
  5
14520
  8
01
 10
181.4559372397706
 20
-93.72560697909375
 30
0.0
 11
181.5917553493598
 21
-93.77193625809014
 31
0.0
  0
LINE
  5
14521
  8
01
 10
181.5917553493598
 20
-93.77193625809014
 30
0.0
 11
181.729593966461
 21
-93.81541314938022
 31
0.0
  0
LINE
  5
14522
  8
01
 10
181.729593966461
 20
-93.81541314938022
 30
0.0
 11
181.8694593110904
 21
-93.85601793261958
 31
0.0
  0
LINE
  5
14523
  8
01
 10
181.8694593110904
 20
-93.85601793261958
 30
0.0
 11
182.0113576032637
 21
-93.89373088746106
 31
0.0
  0
LINE
  5
14524
  8
01
 10
182.0113576032637
 20
-93.89373088746106
 30
0.0
 11
182.1552950629969
 21
-93.92853229356115
 31
0.0
  0
LINE
  5
14525
  8
01
 10
182.1552950629969
 20
-93.92853229356115
 30
0.0
 11
182.3012779103058
 21
-93.96040243057269
 31
0.0
  0
LINE
  5
14526
  8
01
 10
182.3012779103058
 20
-93.96040243057269
 30
0.0
 11
182.4493123652064
 21
-93.98932157815034
 31
0.0
  0
LINE
  5
14527
  8
01
 10
182.4493123652064
 20
-93.98932157815034
 30
0.0
 11
182.5994046477147
 21
-94.01527001594968
 31
0.0
  0
LINE
  5
14528
  8
01
 10
182.5994046477147
 20
-94.01527001594968
 30
0.0
 11
182.7515609778463
 21
-94.03822802362447
 31
0.0
  0
LINE
  5
14529
  8
01
 10
182.7515609778463
 20
-94.03822802362447
 30
0.0
 11
182.9057875756175
 21
-94.05817588082937
 31
0.0
  0
LINE
  5
1452A
  8
01
 10
182.9057875756175
 20
-94.05817588082937
 30
0.0
 11
183.0620906610441
 21
-94.07509386721904
 31
0.0
  0
LINE
  5
1452B
  8
01
 10
183.0620906610441
 20
-94.07509386721904
 30
0.0
 11
183.2204764541418
 21
-94.08896226244724
 31
0.0
  0
LINE
  5
1452C
  8
01
 10
183.2204764541418
 20
-94.08896226244724
 30
0.0
 11
183.3809511749268
 21
-94.09976134616954
 31
0.0
  0
LINE
  5
1452F
  8
01
 10
191.8786897523493
 20
-87.11354704971382
 30
0.0
 11
178.1125703315487
 21
-87.11354704971382
 31
0.0
  0
LINE
  5
14530
  8
01
 10
444.4151767319313
 20
-87.11354704971382
 30
0.0
 11
458.1803108473702
 21
-87.11354704971382
 31
0.0
  0
LINE
  5
14532
  8
01
 10
444.4141864539889
 20
-87.11354704971382
 30
0.0
 11
191.8786931961924
 21
-87.11354704971382
 31
0.0
  0
ARC
  5
14534
  8
01
 10
458.1803196333082
 20
-88.1136155515378
 30
0.0
 40
1.000068459828323
 50
345.0283943066531
 51
89.99189205654591
  0
ARC
  5
14535
  8
01
 10
178.1125612111439
 20
-88.11361659909562
 30
0.0
 40
1.00006950560951
 50
90.00844326677002
 51
194.9715275456866
  0
LINE
  5
14539
  8
01
 10
183.9300210683965
 20
-94.11354704971382
 30
0.0
 11
452.4163272193261
 21
-94.11354704971382
 31
0.0
  0
LINE
  5
1453A
  8
01
 10
347.8464597945706
 20
60.60189252886357
 30
0.0
 11
326.0558598610664
 21
60.60189476698451
 31
0.0
  0
ARC
  5
1453B
  8
01
 10
347.8464597571128
 20
60.30189252794935
 30
0.0
 40
0.3000000000013642
 50
33.17579766518568
 51
56.82419525857803
  0
ARC
  5
1453C
  8
01
 10
288.446459757114
 20
60.30189862916541
 30
0.0
 40
0.3000000000003456
 50
123.1757956143849
 51
146.8241973091737
  0
ARC
  5
1453D
  8
01
 10
444.0933416823876
 20
-27.07543973319935
 30
0.0
 40
15.09069935667995
 50
271.2547530293219
 51
358.7452469854027
  0
ARC
  5
1453E
  8
01
 10
444.0933416823869
 20
42.81832419146849
 30
0.0
 40
15.0906993566806
 50
1.254753014597285
 51
88.74524697067805
  0
ARC
  5
1453F
  8
01
 10
192.201039956261
 20
42.81686199310934
 30
0.0
 40
15.09219328857916
 50
91.26018120222227
 51
178.7398188042801
  0
ARC
  5
14540
  8
01
 10
192.1995777600529
 20
-27.07543973319935
 30
0.0
 40
15.09069935667979
 50
181.2547530145973
 51
268.745246970678
  0
LINE
  5
14541
  8
01
 10
444.4235294764042
 20
-42.16251548456148
 30
0.0
 11
191.8693556019771
 21
-42.16251821768947
 31
0.0
  0
LINE
  5
14542
  8
01
 10
459.1804338674889
 20
43.14854503299284
 30
0.0
 11
459.1804147031992
 21
-27.40566417462287
 31
0.0
  0
LINE
  5
14543
  8
01
 10
177.1125049688848
 20
-27.40566414797831
 30
0.0
 11
177.1124863956447
 21
43.14854482643295
 31
0.0
  0
LINE
  5
14544
  8
01
 10
191.8693898128334
 20
57.90540721373873
 30
0.0
 11
444.4235291870325
 21
57.90540411516758
 31
0.0
  0
LINE
  5
14545
  8
01
 10
348.1464591198985
 20
57.87144222870302
 30
0.0
 11
348.1464590509355
 21
58.20524856811062
 31
0.0
  0
LINE
  5
14546
  8
01
 10
288.146460463292
 20
58.20524856811062
 30
0.0
 11
288.1464603943291
 21
57.87144222843835
 31
0.0
  0
LINE
  5
14547
  8
01
 10
288.4464597571138
 20
57.96579808332717
 30
0.0
 11
288.4464597571139
 21
57.87144222844836
 31
0.0
  0
LINE
  5
14548
  8
01
 10
347.8464597571137
 20
57.9657980833299
 30
0.0
 11
288.4464597571138
 21
57.96579808332717
 31
0.0
  0
LINE
  5
14549
  8
01
 10
347.8464597571137
 20
57.87144222870938
 30
0.0
 11
347.8464597571137
 21
57.9657980833299
 31
0.0
  0
LINE
  5
1454A
  8
01
 10
288.44645979185
 20
60.60189862916559
 30
0.0
 11
326.0558598610664
 21
60.60189476615142
 31
0.0
  0
LINE
  5
1454C
  8
01
 10
288.1464597571138
 20
60.30189862916632
 30
0.0
 11
288.146460476903
 21
58.2586080478186
 31
0.0
  0
LINE
  5
1454F
  8
01
 10
348.1464590373245
 20
58.2586080478186
 30
0.0
 11
348.1464597571138
 21
60.30189252795026
 31
0.0
  0
ARC
  5
14552
  8
01
 10
288.4464597547533
 20
60.3018986320767
 30
0.0
 40
0.2999999970887758
 50
89.99999291505705
 51
123.17579577993
  0
ARC
  5
14553
  8
01
 10
288.4464597570409
 20
60.30189863044598
 30
0.0
 40
0.2999999999270386
 50
146.8241975922535
 51
180.0000002443969
  0
ARC
  5
14556
  8
01
 10
288.4432016720739
 20
58.26254754231559
 30
0.0
 40
0.2967673441069294
 50
180.7606060514879
 51
270.6290391309844
  0
ARC
  5
14559
  8
01
 10
347.8497158541154
 20
58.26255091552321
 30
0.0
 40
0.2967706952895708
 50
269.3713518145217
 51
359.2195379588763
  0
ARC
  5
1455C
  8
01
 10
347.8464597571133
 20
60.30189252795026
 30
0.0
 40
0.30000000000044
 50
0.0
 51
33.17579766488217
  0
ARC
  5
1455D
  8
01
 10
347.8464597571135
 20
60.30189252795026
 30
0.0
 40
0.3000000000005821
 50
56.8241952585428
 51
89.99999292356404
  0
LINE
  5
1457F
  8
01
 10
444.4045171545044
 20
-40.19633711995721
 30
0.0
 11
191.8884024214069
 21
-40.19633670503754
 31
0.0
  0
ARC
  5
14581
  8
01
 10
192.128631363031
 20
-27.14638413549255
 30
0.0
 40
13.05216349927345
 50
181.0546955118029
 51
268.9453946312511
  0
LINE
  5
14583
  8
01
 10
179.0784378507498
 20
43.1294976900017
 30
0.0
 11
179.0786791714528
 21
-27.38663360851569
 31
0.0
  0
ARC
  5
14585
  8
01
 10
192.1296547329795
 20
42.88808280305966
 30
0.0
 40
13.05344947723145
 50
91.05898701280708
 51
178.9402921580717
  0
LINE
  5
14588
  8
01
 10
444.4045151336602
 20
55.9392977245916
 30
0.0
 11
191.8884040413465
 21
55.93930272145826
 31
0.0
  0
ARC
  5
1458B
  8
01
 10
444.1642569081771
 20
42.88907434861721
 30
0.0
 40
13.0524347988314
 50
1.055435883203613
 51
88.9452879860458
  0
LINE
  5
1458E
  8
01
 10
457.2144772477113
 20
43.12949744932303
 30
0.0
 11
457.2142468079961
 21
-27.38663444187205
 31
0.0
  0
ARC
  5
14590
  8
01
 10
444.1633003831164
 20
-27.14539018708092
 30
0.0
 40
13.0531759114612
 50
271.0588602939759
 51
358.9410190494142
  0
LINE
  5
1459F
  8
01
 10
183.3809511749268
 20
-94.09976134616954
 30
0.0
 11
183.9300210683965
 21
-94.11354704971382
 31
0.0
  0
LINE
  5
145A0
  8
01
 10
452.5846872023342
 20
-94.11207269771057
 30
0.0
 11
452.4163272193261
 21
-94.11354704971382
 31
0.0
  0
LINE
  5
14753
  8
01
 10
584.5012794992713
 20
-112.1088175894456
 30
0.0
 11
584.5012794147515
 21
-111.4086168365911
 31
0.0
  0
LINE
  5
14756
  8
01
 10
560.5012795904995
 20
-94.31354717985505
 30
0.0
 11
559.2968453338285
 21
-94.31354718269067
 31
0.0
  0
ARC
  5
1475E
  8
01
 10
573.1706599156273
 20
-86.53001534675877
 30
0.0
 40
8.94683526850542
 50
323.7667664225156
 51
346.3605683368135
  0
ARC
  5
1475F
  8
01
 10
575.3434389868019
 20
-87.99922055442585
 30
0.0
 40
6.323981784665158
 50
266.8332065223254
 51
319.2446766147222
  0
LINE
  5
14760
  8
01
 10
574.9940842970768
 20
-94.31354529374221
 30
0.0
 11
574.7115663290513
 21
-94.31354533050944
 31
0.0
  0
LINE
  5
14761
  8
01
 10
574.3115692405411
 20
-94.31354538256619
 30
0.0
 11
562.8369832318322
 21
-94.313546875881
 31
0.0
  0
ARC
  5
14762
  8
01
 10
574.5115677848955
 20
-94.31430843966245
 30
0.0
 40
0.2000000000000028
 50
0.218615199326938
 51
179.7813997139415
  0
LINE
  5
14763
  8
01
 10
562.4369861315415
 20
-94.31354692793957
 30
0.0
 11
560.50127959066
 21
-94.31354717985505
 31
0.0
  0
ARC
  5
14764
  8
01
 10
562.6369846817861
 20
-94.31430843966245
 30
0.0
 40
0.2000000000000313
 50
0.2181724792487223
 51
179.7818424340192
  0
LINE
  5
14765
  8
01
 10
582.1570136836658
 20
-88.40861683659114
 30
0.0
 11
584.5012803449393
 21
-88.40861683621193
 31
0.0
  0
LINE
  5
1476C
  8
01
 10
584.5012794147515
 20
-88.70861668749512
 30
0.0
 11
584.5012794147515
 21
-111.4086168366139
 31
0.0
  0
ARC
  5
1476D
  8
01
 10
582.1570816030078
 20
-88.70849251192521
 30
0.0
 40
0.2998756830261857
 50
90.01297701646642
 51
166.74835817154
  0
ARC
  5
14773
  8
01
 10
580.2610042482909
 20
-91.97330410725408
 30
0.0
 40
0.1999999999999318
 50
50.82785378665744
 51
230.5348827307899
  0
LINE
  5
1477B
  8
01
 10
559.2968453650537
 20
-107.5764947619937
 30
0.0
 11
559.2968453338285
 21
-94.31354724274124
 31
0.0
  0
LINE
  5
1477C
  8
01
 10
564.2968453650535
 20
-112.5764947619937
 30
0.0
 11
584.5012803754552
 21
-112.5505370446484
 31
0.0
  0
ARC
  5
1477D
  8
01
 10
564.2968453650537
 20
-107.5764947619937
 30
0.0
 40
5.000000000000114
 50
180.0
 51
270.0
  0
LINE
  5
14789
  8
01
 10
575.1564845625792
 20
-94.11354704971382
 30
0.0
 11
575.3740456353601
 21
-94.10746018215468
 31
0.0
  0
LINE
  5
1478A
  8
01
 10
575.3740456353601
 20
-94.10746018215468
 30
0.0
 11
575.536607017935
 21
-94.09974475725812
 31
0.0
  0
LINE
  5
1478B
  8
01
 10
575.536607017935
 20
-94.09974475725812
 30
0.0
 11
575.6970733850133
 21
-94.0889405143289
 31
0.0
  0
LINE
  5
1478C
  8
01
 10
575.6970733850133
 20
-94.0889405143289
 30
0.0
 11
575.8554509560718
 21
-94.0750671720034
 31
0.0
  0
LINE
  5
1478D
  8
01
 10
575.8554509560718
 20
-94.0750671720034
 30
0.0
 11
576.0117459505873
 21
-94.05814444891712
 31
0.0
  0
LINE
  5
1478E
  8
01
 10
576.0117459505873
 20
-94.05814444891712
 30
0.0
 11
576.1659645880366
 21
-94.03819206370736
 31
0.0
  0
LINE
  5
1478F
  8
01
 10
576.1659645880366
 20
-94.03819206370736
 30
0.0
 11
576.3181130878966
 21
-94.0152297350096
 31
0.0
  0
LINE
  5
14790
  8
01
 10
576.3181130878966
 20
-94.0152297350096
 30
0.0
 11
576.4681976696438
 21
-93.98927718146024
 31
0.0
  0
LINE
  5
14791
  8
01
 10
576.4681976696438
 20
-93.98927718146024
 30
0.0
 11
576.6162245527555
 21
-93.96035412169567
 31
0.0
  0
LINE
  5
14792
  8
01
 10
576.6162245527555
 20
-93.96035412169567
 30
0.0
 11
576.7621999567082
 21
-93.92848027435139
 31
0.0
  0
LINE
  5
14793
  8
01
 10
576.7621999567082
 20
-93.92848027435139
 30
0.0
 11
576.9061301009785
 21
-93.8936753580656
 31
0.0
  0
LINE
  5
14794
  8
01
 10
576.9061301009785
 20
-93.8936753580656
 30
0.0
 11
577.0480212050436
 21
-93.85595909147196
 31
0.0
  0
LINE
  5
14795
  8
01
 10
577.0480212050436
 20
-93.85595909147196
 30
0.0
 11
577.1878794883803
 21
-93.8153511932087
 31
0.0
  0
LINE
  5
14796
  8
01
 10
577.1878794883803
 20
-93.8153511932087
 30
0.0
 11
577.325711170465
 21
-93.77187138191039
 31
0.0
  0
LINE
  5
14797
  8
01
 10
577.325711170465
 20
-93.77187138191039
 30
0.0
 11
577.4615224707748
 21
-93.72553937621524
 31
0.0
  0
LINE
  5
14798
  8
01
 10
577.4615224707748
 20
-93.72553937621524
 30
0.0
 11
577.5953196087862
 21
-93.67637489475783
 31
0.0
  0
LINE
  5
14799
  8
01
 10
577.5953196087862
 20
-93.67637489475783
 30
0.0
 11
577.7271088039765
 21
-93.62439765617455
 31
0.0
  0
LINE
  5
1479A
  8
01
 10
577.7271088039765
 20
-93.62439765617455
 30
0.0
 11
577.856896275822
 21
-93.56962737910271
 31
0.0
  0
LINE
  5
1479B
  8
01
 10
577.856896275822
 20
-93.56962737910271
 30
0.0
 11
577.9846882437998
 21
-93.5120837821778
 31
0.0
  0
LINE
  5
1479C
  8
01
 10
577.9846882437998
 20
-93.5120837821778
 30
0.0
 11
578.1104909273865
 21
-93.4517865840362
 31
0.0
  0
LINE
  5
1479D
  8
01
 10
578.1104909273865
 20
-93.4517865840362
 30
0.0
 11
578.2343105460593
 21
-93.38875550331431
 31
0.0
  0
LINE
  5
1479E
  8
01
 10
578.2343105460593
 20
-93.38875550331431
 30
0.0
 11
578.3561533192944
 21
-93.32301025864854
 31
0.0
  0
LINE
  5
1479F
  8
01
 10
578.3561533192944
 20
-93.32301025864854
 30
0.0
 11
578.4760254665691
 21
-93.25457056867344
 31
0.0
  0
LINE
  5
147A0
  8
01
 10
578.4760254665691
 20
-93.25457056867344
 30
0.0
 11
578.5939332073601
 21
-93.18345615202725
 31
0.0
  0
LINE
  5
147A1
  8
01
 10
578.5939332073601
 20
-93.18345615202725
 30
0.0
 11
578.709882761144
 21
-93.10968672734634
 31
0.0
  0
LINE
  5
147A2
  8
01
 10
578.709882761144
 20
-93.10968672734634
 30
0.0
 11
578.8238803473976
 21
-93.0332820132653
 31
0.0
  0
LINE
  5
147A3
  8
01
 10
578.8238803473976
 20
-93.0332820132653
 30
0.0
 11
578.935932185598
 21
-92.95426172842144
 31
0.0
  0
LINE
  5
147A4
  8
01
 10
578.935932185598
 20
-92.95426172842144
 30
0.0
 11
579.0460444952216
 21
-92.87264559145024
 31
0.0
  0
LINE
  5
147A5
  8
01
 10
579.0460444952216
 20
-92.87264559145024
 30
0.0
 11
579.1542234957453
 21
-92.78845332098899
 31
0.0
  0
LINE
  5
147A6
  8
01
 10
579.1542234957453
 20
-92.78845332098899
 30
0.0
 11
579.2604754066463
 21
-92.7017046356732
 31
0.0
  0
LINE
  5
147A7
  8
01
 10
579.2604754066463
 20
-92.7017046356732
 30
0.0
 11
579.364806447401
 21
-92.61241925413924
 31
0.0
  0
LINE
  5
147A8
  8
01
 10
579.364806447401
 20
-92.61241925413924
 30
0.0
 11
579.4672228374864
 21
-92.52061689502352
 31
0.0
  0
LINE
  5
147A9
  8
01
 10
579.4672228374864
 20
-92.52061689502352
 30
0.0
 11
579.567730796379
 21
-92.42631727696153
 31
0.0
  0
LINE
  5
147AA
  8
01
 10
579.567730796379
 20
-92.42631727696153
 30
0.0
 11
579.6663365435559
 21
-92.32954011859147
 31
0.0
  0
LINE
  5
147AB
  8
01
 10
579.6663365435559
 20
-92.32954011859147
 30
0.0
 11
579.7630462984937
 21
-92.23030513854701
 31
0.0
  0
LINE
  5
147AC
  8
01
 10
579.7630462984937
 20
-92.23030513854701
 30
0.0
 11
579.8578662806694
 21
-92.12863205546637
 31
0.0
  0
LINE
  5
147AD
  8
01
 10
579.8578662806694
 20
-92.12863205546637
 30
0.0
 11
579.9508027095596
 21
-92.02454058798503
 31
0.0
  0
LINE
  5
147AE
  8
01
 10
579.9508027095596
 20
-92.02454058798503
 30
0.0
 11
580.0418618046413
 21
-91.91805045473848
 31
0.0
  0
LINE
  5
147AF
  8
01
 10
580.0418618046413
 20
-91.91805045473848
 30
0.0
 11
580.131049785391
 21
-91.80918137436402
 31
0.0
  0
LINE
  5
147B0
  8
01
 10
580.131049785391
 20
-91.80918137436402
 30
0.0
 11
580.218372871286
 21
-91.69795306549804
 31
0.0
  0
LINE
  5
147B1
  8
01
 10
580.218372871286
 20
-91.69795306549804
 30
0.0
 11
580.3038372818025
 21
-91.58438524677604
 31
0.0
  0
LINE
  5
147B2
  8
01
 10
580.3038372818025
 20
-91.58438524677604
 30
0.0
 11
580.3874492364178
 21
-91.4684976368344
 31
0.0
  0
LINE
  5
147B3
  8
01
 10
580.3874492364178
 20
-91.4684976368344
 30
0.0
 11
580.4692149546083
 21
-91.35030995430952
 31
0.0
  0
LINE
  5
147B4
  8
01
 10
580.4692149546083
 20
-91.35030995430952
 30
0.0
 11
580.549140655851
 21
-91.2298419178378
 31
0.0
  0
LINE
  5
147B5
  8
01
 10
580.549140655851
 20
-91.2298419178378
 30
0.0
 11
580.6272325596228
 21
-91.10711324605472
 31
0.0
  0
LINE
  5
147B6
  8
01
 10
580.6272325596228
 20
-91.10711324605472
 30
0.0
 11
580.7034968854005
 21
-90.98214365759759
 31
0.0
  0
LINE
  5
147B7
  8
01
 10
580.7034968854005
 20
-90.98214365759759
 30
0.0
 11
580.7779398526604
 21
-90.8549528711028
 31
0.0
  0
LINE
  5
147C7
  8
01
 10
573.0580662539589
 20
-94.11354704971382
 30
0.0
 11
575.1564845625792
 21
-94.11354704971382
 31
0.0
  0
LINE
  5
147CA
  8
01
 10
561.7478571800259
 20
-94.32413565326078
 30
0.0
 11
561.9680480960262
 21
-94.31354698896757
 31
0.0
  0
LINE
  5
147CB
  8
1DIM
  6
DASHED2
 10
561.5012788108838
 20
-96.13545811202312
 30
0.0
 11
581.5012785691333
 21
-96.13545811202312
 31
0.0
  0
LINE
  5
147CC
  8
1DIM
  6
DASHED2
 10
561.501278958717
 20
-104.6354581120231
 30
0.0
 11
581.5012785691333
 21
-104.6354581120231
 31
0.0
  0
LINE
  5
147CD
  8
1DIM
  6
HIDDEN
 10
581.5012785691333
 20
-98.13545811202312
 30
0.0
 11
584.5012794147515
 21
-98.13545811202312
 31
0.0
  0
LINE
  5
147CE
  8
1DIM
  6
HIDDEN
 10
581.5012785691333
 20
-102.6354581120231
 30
0.0
 11
584.5012794147515
 21
-102.6354581120231
 31
0.0
  0
LINE
  5
147CF
  8
1DIM
 10
581.5012785691333
 20
-96.13545811202312
 30
0.0
 11
581.5012785691333
 21
-100.3854578885284
 31
0.0
  0
LINE
  5
147D0
  8
01
 10
581.5012785691333
 20
-100.3854581120231
 30
0.0
 11
581.5012785691333
 21
-104.6354578885412
 31
0.0
  0
LINE
  5
147D1
  8
1CENTER
 10
557.3149118167269
 20
-100.3854581120231
 30
0.0
 11
619.4343446283169
 21
-100.3854581120231
 31
0.0
  0
LINE
  5
147D3
  8
01
 10
615.5012785690792
 20
-100.3854581120231
 30
0.0
 11
610.2012820592174
 21
-98.88545811202312
 31
0.0
  0
LINE
  5
147D4
  8
01
 10
610.2012820592174
 20
-98.88545811202312
 30
0.0
 11
580.5012820593256
 21
-98.88545811202312
 31
0.0
  0
LINE
  5
147D5
  8
01
 10
580.5012820593256
 20
-98.88545811202312
 30
0.0
 11
580.5012867130238
 21
-96.88541157612508
 31
0.0
  0
LINE
  5
147D6
  8
01
 10
580.5012867130238
 20
-96.88541157612508
 30
0.0
 11
579.4012832228284
 21
-96.88541157612508
 31
0.0
  0
ARC
  5
147D7
  8
01
 10
579.4012832228284
 20
-98.38541157612508
 30
0.0
 40
1.5
 50
90.0
 51
179.9998666844749
  0
LINE
  5
147D8
  8
01
 10
577.9012832228325
 20
-98.3854080859328
 30
0.0
 11
577.9012739156528
 21
-102.3854080859328
 31
0.0
  0
ARC
  5
147D9
  8
01
 10
579.4012739156487
 20
-102.3854115761251
 30
0.0
 40
1.5
 50
179.9998666844749
 51
270.0
  0
LINE
  5
147DA
  8
01
 10
579.4012739156487
 20
-103.8854115761251
 30
0.0
 11
580.5012704254596
 21
-103.8854115761251
 31
0.0
  0
LINE
  5
147DB
  8
01
 10
580.5012704254596
 20
-103.8854115761251
 30
0.0
 11
580.501275078941
 21
-101.8854581120231
 31
0.0
  0
LINE
  5
147DC
  8
01
 10
580.501275078941
 20
-101.8854581120231
 30
0.0
 11
610.2012750788338
 21
-101.8854581120231
 31
0.0
  0
LINE
  5
147DD
  8
01
 10
610.2012750788338
 20
-101.8854581120231
 30
0.0
 11
615.5012785690792
 21
-100.3854581120231
 31
0.0
  0
LINE
  5
147DE
  8
01
 10
613.4012811154014
 20
-99.29108776212979
 30
0.0
 11
614.2012765494524
 21
-101.2534228510058
 31
0.0
  0
LINE
  5
147DF
  8
01
 10
614.2012765494524
 20
-101.2534228510058
 30
0.0
 11
614.5130464057045
 21
-100.6651462759628
 31
0.0
  0
LINE
  5
147E0
  8
01
 10
586.0012832226114
 20
-98.38545811202312
 30
0.0
 11
586.8012739154296
 21
-102.3854581120231
 31
0.0
  0
LINE
  5
147E1
  8
01
 10
597.2012832226158
 20
-98.38545811202312
 30
0.0
 11
598.0012739154383
 21
-102.3854581120231
 31
0.0
  0
LINE
  5
147E2
  8
01
 10
600.4012832226158
 20
-98.38545811202312
 30
0.0
 11
601.2012739154384
 21
-102.3854581120231
 31
0.0
  0
LINE
  5
147E3
  8
01
 10
601.2012739154384
 20
-102.3854581120231
 30
0.0
 11
601.3012750788355
 21
-101.8854581120231
 31
0.0
  0
LINE
  5
147E4
  8
01
 10
601.9012820592186
 20
-98.88545811202312
 30
0.0
 11
602.0012832226157
 21
-98.38545811202312
 31
0.0
  0
LINE
  5
147E5
  8
01
 10
598.0012739154383
 20
-102.3854581120231
 30
0.0
 11
598.1012750788354
 21
-101.8854581120231
 31
0.0
  0
LINE
  5
147E6
  8
01
 10
599.6012739154385
 20
-102.3854581120231
 30
0.0
 11
599.7012750788356
 21
-101.8854581120231
 31
0.0
  0
LINE
  5
147E7
  8
01
 10
600.3012820592187
 20
-98.88545811202312
 30
0.0
 11
600.4012832226158
 21
-98.38545811202312
 31
0.0
  0
LINE
  5
147E8
  8
01
 10
598.7012820592188
 20
-98.88545811202312
 30
0.0
 11
598.8012832226159
 21
-98.38545811202312
 31
0.0
  0
LINE
  5
147E9
  8
01
 10
598.8012832226159
 20
-98.38545811202312
 30
0.0
 11
599.6012739154385
 21
-102.3854581120231
 31
0.0
  0
LINE
  5
147EA
  8
01
 10
612.6012754958467
 20
-101.7062369554124
 30
0.0
 11
612.7840396384747
 21
-101.154487491609
 31
0.0
  0
LINE
  5
147EB
  8
01
 10
609.4012739154384
 20
-102.3854581120231
 30
0.0
 11
609.5012750788355
 21
-101.8854581120231
 31
0.0
  0
LINE
  5
147EC
  8
01
 10
602.8012739154383
 20
-102.3854581120231
 30
0.0
 11
602.9012750788354
 21
-101.8854581120231
 31
0.0
  0
LINE
  5
147ED
  8
01
 10
611.0012744422411
 20
-102.1590510598189
 30
0.0
 11
611.130545139871
 21
-101.6224573245481
 31
0.0
  0
LINE
  5
147EE
  8
01
 10
611.6885126566556
 20
-99.30637270923125
 30
0.0
 11
611.8012821690056
 21
-98.83827425408163
 31
0.0
  0
LINE
  5
147EF
  8
01
 10
608.5012820592187
 20
-98.88545811202312
 30
0.0
 11
608.6012832226158
 21
-98.38545811202312
 31
0.0
  0
LINE
  5
147F0
  8
01
 10
610.1012820592186
 20
-98.88545811202312
 30
0.0
 11
610.2012832226158
 21
-98.38545811202312
 31
0.0
  0
LINE
  5
147F1
  8
01
 10
613.249845318961
 20
-99.74825960276121
 30
0.0
 11
613.4012811154014
 21
-99.29108776212979
 31
0.0
  0
LINE
  5
147F2
  8
01
 10
611.8012821690056
 20
-98.83827425408163
 30
0.0
 11
612.6012754958467
 21
-101.7062369554124
 31
0.0
  0
LINE
  5
147F3
  8
01
 10
608.6012832226158
 20
-98.38545811202312
 30
0.0
 11
609.4012739154384
 21
-102.3854581120231
 31
0.0
  0
LINE
  5
147F4
  8
01
 10
610.2012832226158
 20
-98.38545811202312
 30
0.0
 11
611.0012744422411
 21
-102.1590510598189
 31
0.0
  0
LINE
  5
147F5
  8
01
 10
602.0012832226157
 20
-98.38545811202312
 30
0.0
 11
602.8012739154383
 21
-102.3854581120231
 31
0.0
  0
LINE
  5
147F6
  8
01
 10
589.2012832226114
 20
-98.38545811202312
 30
0.0
 11
590.0012739154297
 21
-102.3854581120231
 31
0.0
  0
LINE
  5
147F7
  8
01
 10
590.0012739154297
 20
-102.3854581120231
 30
0.0
 11
590.1012750788273
 21
-101.8854581120231
 31
0.0
  0
LINE
  5
147F8
  8
01
 10
590.7012820592181
 20
-98.88545811202312
 30
0.0
 11
590.8012832226157
 21
-98.38545811202312
 31
0.0
  0
LINE
  5
147F9
  8
01
 10
588.4012739154296
 20
-102.3854581120231
 30
0.0
 11
588.5012750788271
 21
-101.8854581120231
 31
0.0
  0
LINE
  5
147FA
  8
01
 10
586.8012739154296
 20
-102.3854581120231
 30
0.0
 11
586.9012750788272
 21
-101.8854581120231
 31
0.0
  0
LINE
  5
147FB
  8
01
 10
589.1012820592136
 20
-98.88545811202312
 30
0.0
 11
589.2012832226114
 21
-98.38545811202312
 31
0.0
  0
LINE
  5
147FC
  8
01
 10
587.5012820592135
 20
-98.88545811202312
 30
0.0
 11
587.6012832226113
 21
-98.38545811202312
 31
0.0
  0
LINE
  5
147FD
  8
01
 10
587.6012832226113
 20
-98.38545811202312
 30
0.0
 11
588.4012739154296
 21
-102.3854581120231
 31
0.0
  0
LINE
  5
147FE
  8
01
 10
594.801273915434
 20
-102.3854581120231
 30
0.0
 11
594.9012750788318
 21
-101.8854581120231
 31
0.0
  0
LINE
  5
147FF
  8
01
 10
596.4012739154384
 20
-102.3854581120231
 30
0.0
 11
596.5012750788355
 21
-101.8854581120231
 31
0.0
  0
LINE
  5
14800
  8
01
 10
591.6012739154339
 20
-102.3854581120231
 30
0.0
 11
591.7012750788317
 21
-101.8854581120231
 31
0.0
  0
LINE
  5
14801
  8
01
 10
593.2012739154338
 20
-102.3854581120231
 30
0.0
 11
593.3012750788316
 21
-101.8854581120231
 31
0.0
  0
LINE
  5
14802
  8
01
 10
597.1012820592186
 20
-98.88545811202312
 30
0.0
 11
597.2012832226158
 21
-98.38545811202312
 31
0.0
  0
LINE
  5
14803
  8
01
 10
595.501282059218
 20
-98.88545811202312
 30
0.0
 11
595.6012832226158
 21
-98.38545811202312
 31
0.0
  0
LINE
  5
14804
  8
01
 10
592.301282059218
 20
-98.88545811202312
 30
0.0
 11
592.4012832226156
 21
-98.38545811202312
 31
0.0
  0
LINE
  5
14805
  8
01
 10
593.9012820592181
 20
-98.88545811202312
 30
0.0
 11
594.0012832226157
 21
-98.38545811202312
 31
0.0
  0
LINE
  5
14806
  8
01
 10
594.0012832226157
 20
-98.38545811202312
 30
0.0
 11
594.801273915434
 21
-102.3854581120231
 31
0.0
  0
LINE
  5
14807
  8
01
 10
595.6012832226158
 20
-98.38545811202312
 30
0.0
 11
596.4012739154384
 21
-102.3854581120231
 31
0.0
  0
LINE
  5
14808
  8
01
 10
592.4012832226156
 20
-98.38545811202312
 30
0.0
 11
593.2012739154338
 21
-102.3854581120231
 31
0.0
  0
LINE
  5
14809
  8
01
 10
590.8012832226157
 20
-98.38545811202312
 30
0.0
 11
591.6012739154339
 21
-102.3854581120231
 31
0.0
  0
LINE
  5
1480A
  8
01
 10
580.501275078941
 20
-101.8854581120231
 30
0.0
 11
580.5012820593256
 21
-98.88545811202312
 31
0.0
  0
LINE
  5
1480B
  8
01
 10
581.1012820592096
 20
-98.88545811202312
 30
0.0
 11
581.2012832226071
 21
-98.38545811202312
 31
0.0
  0
LINE
  5
1480C
  8
01
 10
581.2012832226071
 20
-98.38545811202312
 30
0.0
 11
582.0012739154254
 21
-102.3854581120231
 31
0.0
  0
LINE
  5
1480D
  8
01
 10
582.0012739154254
 20
-102.3854581120231
 30
0.0
 11
582.1012750788232
 21
-101.8854581120231
 31
0.0
  0
LINE
  5
1480E
  8
01
 10
582.7012820592095
 20
-98.88545811202312
 30
0.0
 11
582.801283222607
 21
-98.38545811202312
 31
0.0
  0
LINE
  5
1480F
  8
01
 10
584.3012820592094
 20
-98.88545811202312
 30
0.0
 11
584.4012832226069
 21
-98.38545811202312
 31
0.0
  0
LINE
  5
14810
  8
01
 10
584.4012832226069
 20
-98.38545811202312
 30
0.0
 11
585.2012739154252
 21
-102.3854581120231
 31
0.0
  0
LINE
  5
14811
  8
01
 10
583.6012739154253
 20
-102.3854581120231
 30
0.0
 11
583.7012750788231
 21
-101.8854581120231
 31
0.0
  0
LINE
  5
14812
  8
01
 10
585.2012739154252
 20
-102.3854581120231
 30
0.0
 11
585.301275078823
 21
-101.8854581120231
 31
0.0
  0
LINE
  5
14813
  8
01
 10
582.801283222607
 20
-98.38545811202312
 30
0.0
 11
583.6012739154253
 21
-102.3854581120231
 31
0.0
  0
LINE
  5
14814
  8
01
 10
585.9012820592136
 20
-98.88545811202312
 30
0.0
 11
586.0012832226114
 21
-98.38545811202312
 31
0.0
  0
LINE
  5
14817
  8
1DIM
 10
596.5012803357049
 20
-76.98108595935173
 30
0.0
 11
596.5012803929976
 21
-122.3070243895086
 31
0.0
  0
LINE
  5
14818
  8
1DIM
 10
605.5012803357049
 20
-76.98108593591405
 30
0.0
 11
605.5012803929976
 21
-122.3070243895086
 31
0.0
  0
LINE
  5
14819
  8
01
 10
603.5012820592185
 20
-98.88545811202312
 30
0.0
 11
603.6012832226158
 21
-98.38545811202312
 31
0.0
  0
LINE
  5
1481A
  8
01
 10
604.4012739154384
 20
-102.3854581120231
 30
0.0
 11
604.5012750788353
 21
-101.8854581120231
 31
0.0
  0
LINE
  5
1481B
  8
01
 10
603.6012832226158
 20
-98.38545811202312
 30
0.0
 11
604.4012739154384
 21
-102.3854581120231
 31
0.0
  0
LINE
  5
1481C
  8
01
 10
605.1012820592186
 20
-98.88545811202312
 30
0.0
 11
605.2012832226158
 21
-98.38545811202312
 31
0.0
  0
LINE
  5
1481D
  8
01
 10
606.0012739154383
 20
-102.3854581120231
 30
0.0
 11
606.1012750788354
 21
-101.8854581120231
 31
0.0
  0
LINE
  5
1481E
  8
01
 10
605.2012832226158
 20
-98.38545811202312
 30
0.0
 11
606.0012739154383
 21
-102.3854581120231
 31
0.0
  0
LINE
  5
1481F
  8
01
 10
606.7012820592186
 20
-98.88545811202312
 30
0.0
 11
606.8012832226159
 21
-98.38545811202312
 31
0.0
  0
LINE
  5
14820
  8
01
 10
607.6012739154385
 20
-102.3854581120231
 30
0.0
 11
607.7012750788354
 21
-101.8854581120231
 31
0.0
  0
LINE
  5
14821
  8
01
 10
606.8012832226159
 20
-98.38545811202312
 30
0.0
 11
607.6012739154385
 21
-102.3854581120231
 31
0.0
  0
LINE
  5
14822
  8
1DIM
 10
584.5012803304949
 20
-76.98108599060288
 30
0.0
 11
584.5012803877876
 21
-122.3070243895086
 31
0.0
  0
LINE
  5
14823
  8
1CENTER
 10
337.8883091049258
 20
-100.3854581120231
 30
0.0
 11
344.404509104926
 21
-100.3854581120231
 31
0.0
  0
LINE
  5
14824
  8
1CENTER
 10
341.1464398250907
 20
-103.643578774143
 30
0.0
 11
341.1464398250907
 21
-97.12737877414384
 31
0.0
  0
LINE
  5
14825
  8
1CENTER
 10
298.4045705452555
 20
-100.3854581120231
 30
0.0
 11
291.8883705452554
 21
-100.3854581120231
 31
0.0
  0
LINE
  5
14826
  8
1CENTER
 10
295.1464398250907
 20
-103.643578774143
 30
0.0
 11
295.1464398250907
 21
-97.12737877414384
 31
0.0
  0
ARC
  5
148F4
  8
01
 10
294.6464398250907
 20
-34.62855777086497
 30
0.0
 40
1.5
 50
90.0
 51
270.0
  0
ARC
  5
148F5
  8
01
 10
341.6464398250907
 20
-34.62855777086497
 30
0.0
 40
1.499999999999999
 50
270.0
 51
90.0
  0
LINE
  5
148F6
  8
01
 10
341.6464398250907
 20
-33.12855777086497
 30
0.0
 11
294.6464398250907
 21
-33.12855777086497
 31
0.0
  0
LINE
  5
148F7
  8
01
 10
341.6464398250907
 20
-36.12855777086497
 30
0.0
 11
294.6464398250907
 21
-36.12855777086497
 31
0.0
  0
LINE
  5
148FD
  8
01
 10
320.2016353562899
 20
50.95170717267411
 30
0.0
 11
321.0973956678297
 21
48.94926236297306
 31
0.0
  0
LINE
  5
148FE
  8
01
 10
322.1250948429417
 20
50.95168492328776
 30
0.0
 11
321.6469555211585
 21
50.95168492328776
 31
0.0
  0
LINE
  5
148FF
  8
01
 10
320.5480583083682
 20
50.95168492328776
 30
0.0
 11
320.2016353562899
 21
50.95168492328776
 31
0.0
  0
LINE
  5
14900
  8
01
 10
318.8052638423246
 20
50.95168492328776
 30
0.0
 11
318.4588408902465
 21
50.95168492328776
 31
0.0
  0
LINE
  5
149DD
  8
01
 10
337.3464398250908
 20
56.60189321702521
 30
0.0
 11
337.3464398250908
 21
57.60189321702521
 31
0.0
  0
LINE
  5
149DE
  8
01
 10
337.3464398250908
 20
57.60189321702521
 30
0.0
 11
344.9464398250907
 21
57.60189321702521
 31
0.0
  0
LINE
  5
149DF
  8
01
 10
337.3464398250908
 20
56.60189321702521
 30
0.0
 11
344.9464398250907
 21
56.60189321702521
 31
0.0
  0
LINE
  5
149E0
  8
01
 10
341.1463932922972
 20
91.60189321686286
 30
0.0
 11
342.6463932922972
 21
86.30189670700119
 31
0.0
  0
LINE
  5
149E1
  8
01
 10
342.6463932922972
 20
86.30189670700119
 30
0.0
 11
342.646393292297
 21
57.60189670699348
 31
0.0
  0
LINE
  5
149E2
  8
01
 10
341.1463932922972
 20
91.60189321686286
 30
0.0
 11
339.6463932922971
 21
86.30188972661753
 31
0.0
  0
LINE
  5
149E3
  8
01
 10
344.646439828195
 20
56.60190136080738
 30
0.0
 11
337.6464398281951
 21
56.60188507324305
 31
0.0
  0
LINE
  5
149E4
  8
01
 10
339.6463932922971
 20
86.30188972661753
 30
0.0
 11
339.646393292297
 21
57.60189321702521
 31
0.0
  0
LINE
  5
149E5
  8
01
 10
344.646439828195
 20
56.60190136080738
 30
0.0
 11
344.6464398281951
 21
55.50189787061206
 31
0.0
  0
ARC
  5
149E6
  8
01
 10
343.1464398281951
 20
55.50189787061206
 30
0.0
 40
1.5
 50
270.0001333155316
 51
0.0
  0
LINE
  5
149E7
  8
01
 10
337.6464398281951
 20
56.60188507324305
 30
0.0
 11
337.6464398281951
 21
55.50188856343247
 31
0.0
  0
LINE
  5
149E8
  8
01
 10
343.1464433183875
 20
54.00189787061615
 30
0.0
 11
339.1464433183875
 21
54.0018885634365
 31
0.0
  0
ARC
  5
149E9
  8
01
 10
339.1464398281951
 20
55.50188856343247
 30
0.0
 40
1.5
 50
180.0
 51
270.0001333155316
  0
LINE
  5
149EA
  8
1CENTER
 10
341.1464398281951
 20
93.03268813432825
 30
0.0
 11
341.1464398281951
 21
52.93161680771639
 31
0.0
  0
LINE
  5
149EB
  8
01
 10
342.2407636421902
 20
89.50189576318505
 30
0.0
 11
340.2784285533148
 21
90.30189119723602
 31
0.0
  0
LINE
  5
149EC
  8
01
 10
340.2784285533148
 20
90.30189119723602
 30
0.0
 11
340.8667051283572
 21
90.61366105348813
 31
0.0
  0
LINE
  5
149ED
  8
01
 10
343.1463932922972
 20
67.10189787039505
 30
0.0
 11
339.1463932922972
 21
67.9018885632133
 31
0.0
  0
LINE
  5
149EE
  8
01
 10
343.1463932922972
 20
78.30189787039942
 30
0.0
 11
339.1463932922972
 21
79.10188856322199
 31
0.0
  0
LINE
  5
149EF
  8
01
 10
343.1463932922972
 20
81.50189787039946
 30
0.0
 11
339.1463932922972
 21
82.30188856322204
 31
0.0
  0
LINE
  5
149F0
  8
01
 10
339.1463932922972
 20
82.30188856322204
 30
0.0
 11
339.6463932922972
 21
82.40188972661926
 31
0.0
  0
LINE
  5
149F1
  8
01
 10
342.6463932922972
 20
83.00189670700226
 30
0.0
 11
343.1463932922972
 21
83.10189787039948
 31
0.0
  0
LINE
  5
149F2
  8
01
 10
339.1463932922972
 20
79.10188856322199
 30
0.0
 11
339.6463932922972
 21
79.20188972661921
 31
0.0
  0
LINE
  5
149F3
  8
01
 10
339.1463932922972
 20
80.70188856322213
 30
0.0
 11
339.6463932922972
 21
80.80188972661924
 31
0.0
  0
LINE
  5
149F4
  8
01
 10
342.6463932922972
 20
81.40189670700235
 30
0.0
 11
343.1463932922972
 21
81.50189787039946
 31
0.0
  0
LINE
  5
149F5
  8
01
 10
342.6463932922972
 20
79.80189670700244
 30
0.0
 11
343.1463932922972
 21
79.90189787039955
 31
0.0
  0
LINE
  5
149F6
  8
01
 10
343.1463932922972
 20
79.90189787039955
 30
0.0
 11
339.1463932922972
 21
80.70188856322213
 31
0.0
  0
LINE
  5
149F7
  8
01
 10
339.825614448908
 20
88.70189014363038
 30
0.0
 11
340.3773639127112
 21
88.88465428625838
 31
0.0
  0
LINE
  5
149F8
  8
01
 10
339.1463932922972
 20
85.50188856322208
 30
0.0
 11
339.6463932922972
 21
85.60188972661919
 31
0.0
  0
LINE
  5
149F9
  8
01
 10
339.1463932922972
 20
83.90188856322206
 30
0.0
 11
339.6463932922972
 21
84.00188972661905
 31
0.0
  0
LINE
  5
149FA
  8
01
 10
339.3728003445012
 20
87.10188909002474
 30
0.0
 11
339.9093940797723
 21
87.2311597876546
 31
0.0
  0
LINE
  5
149FB
  8
01
 10
342.2254786950885
 20
87.78912730443923
 30
0.0
 11
342.6935771502385
 21
87.90189681678928
 31
0.0
  0
LINE
  5
149FC
  8
01
 10
342.6463932922972
 20
84.6018967070024
 30
0.0
 11
343.1463932922972
 21
84.7018978703995
 31
0.0
  0
LINE
  5
149FD
  8
01
 10
342.6463932922972
 20
86.2018967070023
 30
0.0
 11
343.1463932922972
 21
86.30189787039942
 31
0.0
  0
LINE
  5
149FE
  8
01
 10
341.7835918015591
 20
89.35045996674464
 30
0.0
 11
342.2407636421902
 21
89.50189576318505
 31
0.0
  0
LINE
  5
149FF
  8
01
 10
342.6935771502385
 20
87.90189681678928
 30
0.0
 11
339.825614448908
 21
88.70189014363038
 31
0.0
  0
LINE
  5
14A00
  8
01
 10
343.1463932922972
 20
84.7018978703995
 30
0.0
 11
339.1463932922972
 21
85.50188856322208
 31
0.0
  0
LINE
  5
14A01
  8
01
 10
343.1463932922972
 20
86.30189787039942
 30
0.0
 11
339.3728003445012
 21
87.10188909002474
 31
0.0
  0
LINE
  5
14A02
  8
01
 10
343.1463932922972
 20
83.10189787039948
 30
0.0
 11
339.1463932922972
 21
83.90188856322206
 31
0.0
  0
LINE
  5
14A03
  8
01
 10
343.1463932922972
 20
70.3018978703951
 30
0.0
 11
339.1463932922972
 21
71.10188856321335
 31
0.0
  0
LINE
  5
14A04
  8
01
 10
339.1463932922972
 20
71.10188856321335
 30
0.0
 11
339.6463932922972
 21
71.20188972661103
 31
0.0
  0
LINE
  5
14A05
  8
01
 10
342.6463932922972
 20
71.80189670700176
 30
0.0
 11
343.1463932922972
 21
71.90189787039944
 31
0.0
  0
LINE
  5
14A06
  8
01
 10
339.1463932922972
 20
69.50188856321321
 30
0.0
 11
339.6463932922972
 21
69.60188972661089
 31
0.0
  0
LINE
  5
14A07
  8
01
 10
339.1463932922972
 20
67.9018885632133
 30
0.0
 11
339.6463932922972
 21
68.00188972661098
 31
0.0
  0
LINE
  5
14A08
  8
01
 10
342.6463932922972
 20
70.20189670699742
 30
0.0
 11
343.1463932922972
 21
70.3018978703951
 31
0.0
  0
LINE
  5
14A09
  8
01
 10
342.6463932922972
 20
68.60189670699728
 30
0.0
 11
343.1463932922972
 21
68.70189787039496
 31
0.0
  0
LINE
  5
14A0A
  8
01
 10
343.1463932922972
 20
68.70189787039496
 30
0.0
 11
339.1463932922972
 21
69.50188856321321
 31
0.0
  0
LINE
  5
14A0B
  8
01
 10
339.1463932922972
 20
75.90188856321774
 30
0.0
 11
339.6463932922972
 21
76.00188972661542
 31
0.0
  0
LINE
  5
14A0C
  8
01
 10
339.1463932922972
 20
77.50188856322208
 30
0.0
 11
339.6463932922972
 21
77.60188972661919
 31
0.0
  0
LINE
  5
14A0D
  8
01
 10
339.1463932922972
 20
72.7018885632177
 30
0.0
 11
339.6463932922972
 21
72.80188972661537
 31
0.0
  0
LINE
  5
14A0E
  8
01
 10
339.1463932922972
 20
74.3018885632176
 30
0.0
 11
339.6463932922972
 21
74.40188972661528
 31
0.0
  0
LINE
  5
14A0F
  8
01
 10
342.6463932922972
 20
78.2018967070023
 30
0.0
 11
343.1463932922972
 21
78.30189787039942
 31
0.0
  0
LINE
  5
14A10
  8
01
 10
342.6463932922972
 20
76.60189670700171
 30
0.0
 11
343.1463932922972
 21
76.7018978703995
 31
0.0
  0
LINE
  5
14A11
  8
01
 10
342.6463932922972
 20
73.40189670700167
 30
0.0
 11
343.1463932922972
 21
73.50189787039935
 31
0.0
  0
LINE
  5
14A12
  8
01
 10
342.6463932922972
 20
75.0018967070018
 30
0.0
 11
343.1463932922972
 21
75.10189787039948
 31
0.0
  0
LINE
  5
14A13
  8
01
 10
343.1463932922972
 20
75.10189787039948
 30
0.0
 11
339.1463932922972
 21
75.90188856321774
 31
0.0
  0
LINE
  5
14A14
  8
01
 10
343.1463932922972
 20
76.7018978703995
 30
0.0
 11
339.1463932922972
 21
77.50188856322208
 31
0.0
  0
LINE
  5
14A15
  8
01
 10
343.1463932922972
 20
73.50189787039935
 30
0.0
 11
339.1463932922972
 21
74.3018885632176
 31
0.0
  0
LINE
  5
14A16
  8
01
 10
343.1463932922972
 20
71.90189787039944
 30
0.0
 11
339.1463932922972
 21
72.7018885632177
 31
0.0
  0
LINE
  5
14A17
  8
01
 10
342.6463932922972
 20
62.20189670699321
 30
0.0
 11
343.1463932922972
 21
62.30189787039089
 31
0.0
  0
LINE
  5
14A18
  8
01
 10
343.1463932922972
 20
62.30189787039089
 30
0.0
 11
339.1463932922972
 21
63.10188856320914
 31
0.0
  0
LINE
  5
14A19
  8
01
 10
339.1463932922972
 20
63.10188856320914
 30
0.0
 11
339.6463932922972
 21
63.20188972660682
 31
0.0
  0
LINE
  5
14A1A
  8
01
 10
342.6463932922972
 20
63.80189670699312
 30
0.0
 11
343.1463932922972
 21
63.9018978703908
 31
0.0
  0
LINE
  5
14A1B
  8
01
 10
342.6463932922972
 20
65.40189670699303
 30
0.0
 11
343.1463932922972
 21
65.5018978703907
 31
0.0
  0
LINE
  5
14A1C
  8
01
 10
343.1463932922972
 20
65.5018978703907
 30
0.0
 11
339.1463932922972
 21
66.30188856320896
 31
0.0
  0
LINE
  5
14A1D
  8
01
 10
339.1463932922972
 20
64.70188856320905
 30
0.0
 11
339.6463932922972
 21
64.80188972660673
 31
0.0
  0
LINE
  5
14A1E
  8
01
 10
339.1463932922972
 20
66.30188856320896
 30
0.0
 11
339.6463932922972
 21
66.40188972660664
 31
0.0
  0
LINE
  5
14A1F
  8
01
 10
343.1463932922972
 20
63.9018978703908
 30
0.0
 11
339.1463932922972
 21
64.70188856320905
 31
0.0
  0
LINE
  5
14A20
  8
01
 10
342.6463932922972
 20
67.00189670699737
 30
0.0
 11
343.1463932922972
 21
67.10189787039505
 31
0.0
  0
LINE
  5
14A21
  8
01
 10
342.6463932922972
 20
60.60189670699331
 30
0.0
 11
343.1463932922972
 21
60.70189787039099
 31
0.0
  0
LINE
  5
14A22
  8
01
 10
343.1463932922972
 20
60.70189787039099
 30
0.0
 11
339.1463932922972
 21
61.50188856320923
 31
0.0
  0
LINE
  5
14A23
  8
01
 10
339.1463932922972
 20
61.50188856320923
 30
0.0
 11
339.6463932922972
 21
61.60188972660691
 31
0.0
  0
LINE
  5
14A24
  8
01
 10
342.6463932922972
 20
59.0018967069934
 30
0.0
 11
343.1463932922972
 21
59.10189787039108
 31
0.0
  0
LINE
  5
14A25
  8
01
 10
343.1463932922972
 20
59.10189787039108
 30
0.0
 11
339.1463932922972
 21
59.90188856320928
 31
0.0
  0
LINE
  5
14A26
  8
01
 10
339.1463932922972
 20
59.90188856320928
 30
0.0
 11
339.6463932922972
 21
60.00188972660695
 31
0.0
  0
LINE
  5
14A27
  8
01
 10
342.6464107423414
 20
57.60189321702521
 30
0.0
 11
339.1463932922972
 21
58.30188856320937
 31
0.0
  0
LINE
  5
14A28
  8
01
 10
339.1463932922972
 20
58.30188856320937
 30
0.0
 11
339.6463932922972
 21
58.40188972660705
 31
0.0
  0
LINE
  5
14A29
  8
01
 10
344.9464398312994
 20
56.60189321702521
 30
0.0
 11
344.9464398312994
 21
57.60189321702521
 31
0.0
  0
LINE
  5
14A2B
  8
01
 10
298.9464791747751
 20
56.60189321702521
 30
0.0
 11
298.9464791747751
 21
57.60189321702521
 31
0.0
  0
LINE
  5
14A2C
  8
01
 10
298.9464791747751
 20
57.60189321702521
 30
0.0
 11
291.3464791747752
 21
57.60189321702521
 31
0.0
  0
LINE
  5
14A2D
  8
01
 10
298.9464791747751
 20
56.60189321702521
 30
0.0
 11
291.3464791747752
 21
56.60189321702521
 31
0.0
  0
LINE
  5
14A2E
  8
01
 10
295.1465257075687
 20
91.60189321686286
 30
0.0
 11
293.6465257075687
 21
86.30189670700119
 31
0.0
  0
LINE
  5
14A2F
  8
01
 10
293.6465257075687
 20
86.30189670700119
 30
0.0
 11
293.646525707569
 21
57.60189670699348
 31
0.0
  0
LINE
  5
14A30
  8
01
 10
295.1465257075687
 20
91.60189321686286
 30
0.0
 11
296.6465257075689
 21
86.30188972661753
 31
0.0
  0
LINE
  5
14A31
  8
01
 10
291.6464791716709
 20
56.60190136080738
 30
0.0
 11
298.6464791716708
 21
56.60188507324305
 31
0.0
  0
LINE
  5
14A32
  8
01
 10
296.6465257075689
 20
86.30188972661753
 30
0.0
 11
296.646525707569
 21
57.60189321702521
 31
0.0
  0
LINE
  5
14A33
  8
01
 10
291.6464791716709
 20
56.60190136080738
 30
0.0
 11
291.6464791716708
 21
55.50189787061206
 31
0.0
  0
ARC
  5
14A34
  8
01
 10
293.1464791716708
 20
55.50189787061206
 30
0.0
 40
1.5
 50
180.0
 51
269.9998666844684
  0
LINE
  5
14A35
  8
01
 10
298.6464791716708
 20
56.60188507324305
 30
0.0
 11
298.6464791716708
 21
55.50188856343247
 31
0.0
  0
LINE
  5
14A36
  8
01
 10
293.1464756814784
 20
54.00189787061615
 30
0.0
 11
297.1464756814784
 21
54.0018885634365
 31
0.0
  0
ARC
  5
14A37
  8
01
 10
297.1464791716708
 20
55.50188856343247
 30
0.0
 40
1.5
 50
269.9998666844684
 51
0.000000000000007
  0
LINE
  5
14A38
  8
1CENTER
 10
295.1464791716708
 20
93.03268813432825
 30
0.0
 11
295.1464791716708
 21
52.93161680771639
 31
0.0
  0
LINE
  5
14A39
  8
01
 10
294.0521553576758
 20
89.50189576318505
 30
0.0
 11
296.0144904465512
 21
90.30189119723602
 31
0.0
  0
LINE
  5
14A3A
  8
01
 10
296.0144904465512
 20
90.30189119723602
 30
0.0
 11
295.4262138715088
 21
90.61366105348813
 31
0.0
  0
LINE
  5
14A3B
  8
01
 10
293.1465257075687
 20
67.10189787039505
 30
0.0
 11
297.1465257075687
 21
67.9018885632133
 31
0.0
  0
LINE
  5
14A3C
  8
01
 10
293.1465257075687
 20
78.30189787039942
 30
0.0
 11
297.1465257075687
 21
79.10188856322199
 31
0.0
  0
LINE
  5
14A3D
  8
01
 10
293.1465257075687
 20
81.50189787039946
 30
0.0
 11
297.1465257075687
 21
82.30188856322204
 31
0.0
  0
LINE
  5
14A3E
  8
01
 10
297.1465257075687
 20
82.30188856322204
 30
0.0
 11
296.6465257075687
 21
82.40188972661926
 31
0.0
  0
LINE
  5
14A3F
  8
01
 10
293.6465257075687
 20
83.00189670700226
 30
0.0
 11
293.1465257075687
 21
83.10189787039948
 31
0.0
  0
LINE
  5
14A40
  8
01
 10
297.1465257075687
 20
79.10188856322199
 30
0.0
 11
296.6465257075687
 21
79.20188972661921
 31
0.0
  0
LINE
  5
14A41
  8
01
 10
297.1465257075687
 20
80.70188856322213
 30
0.0
 11
296.6465257075687
 21
80.80188972661924
 31
0.0
  0
LINE
  5
14A42
  8
01
 10
293.6465257075687
 20
81.40189670700235
 30
0.0
 11
293.1465257075687
 21
81.50189787039946
 31
0.0
  0
LINE
  5
14A43
  8
01
 10
293.6465257075687
 20
79.80189670700244
 30
0.0
 11
293.1465257075687
 21
79.90189787039955
 31
0.0
  0
LINE
  5
14A44
  8
01
 10
293.1465257075687
 20
79.90189787039955
 30
0.0
 11
297.1465257075687
 21
80.70188856322213
 31
0.0
  0
LINE
  5
14A45
  8
01
 10
296.467304550958
 20
88.70189014363038
 30
0.0
 11
295.9155550871547
 21
88.88465428625838
 31
0.0
  0
LINE
  5
14A46
  8
01
 10
297.1465257075687
 20
85.50188856322208
 30
0.0
 11
296.6465257075687
 21
85.60188972661919
 31
0.0
  0
LINE
  5
14A47
  8
01
 10
297.1465257075687
 20
83.90188856322206
 30
0.0
 11
296.6465257075687
 21
84.00188972661905
 31
0.0
  0
LINE
  5
14A48
  8
01
 10
296.9201186553648
 20
87.10188909002474
 30
0.0
 11
296.3835249200936
 21
87.2311597876546
 31
0.0
  0
LINE
  5
14A49
  8
01
 10
294.0674403047774
 20
87.78912730443923
 30
0.0
 11
293.5993418496275
 21
87.90189681678928
 31
0.0
  0
LINE
  5
14A4A
  8
01
 10
293.6465257075687
 20
84.6018967070024
 30
0.0
 11
293.1465257075687
 21
84.7018978703995
 31
0.0
  0
LINE
  5
14A4B
  8
01
 10
293.6465257075687
 20
86.2018967070023
 30
0.0
 11
293.1465257075687
 21
86.30189787039942
 31
0.0
  0
LINE
  5
14A4C
  8
01
 10
294.5093271983068
 20
89.35045996674464
 30
0.0
 11
294.0521553576758
 21
89.50189576318505
 31
0.0
  0
LINE
  5
14A4D
  8
01
 10
293.5993418496275
 20
87.90189681678928
 30
0.0
 11
296.467304550958
 21
88.70189014363038
 31
0.0
  0
LINE
  5
14A4E
  8
01
 10
293.1465257075687
 20
84.7018978703995
 30
0.0
 11
297.1465257075687
 21
85.50188856322208
 31
0.0
  0
LINE
  5
14A4F
  8
01
 10
293.1465257075687
 20
86.30189787039942
 30
0.0
 11
296.9201186553648
 21
87.10188909002474
 31
0.0
  0
LINE
  5
14A50
  8
01
 10
293.1465257075687
 20
83.10189787039948
 30
0.0
 11
297.1465257075687
 21
83.90188856322206
 31
0.0
  0
LINE
  5
14A51
  8
01
 10
293.1465257075687
 20
70.3018978703951
 30
0.0
 11
297.1465257075687
 21
71.10188856321335
 31
0.0
  0
LINE
  5
14A52
  8
01
 10
297.1465257075687
 20
71.10188856321335
 30
0.0
 11
296.6465257075687
 21
71.20188972661103
 31
0.0
  0
LINE
  5
14A53
  8
01
 10
293.6465257075687
 20
71.80189670700176
 30
0.0
 11
293.1465257075687
 21
71.90189787039944
 31
0.0
  0
LINE
  5
14A54
  8
01
 10
297.1465257075687
 20
69.50188856321321
 30
0.0
 11
296.6465257075687
 21
69.60188972661089
 31
0.0
  0
LINE
  5
14A55
  8
01
 10
297.1465257075687
 20
67.9018885632133
 30
0.0
 11
296.6465257075687
 21
68.00188972661098
 31
0.0
  0
LINE
  5
14A56
  8
01
 10
293.6465257075687
 20
70.20189670699742
 30
0.0
 11
293.1465257075687
 21
70.3018978703951
 31
0.0
  0
LINE
  5
14A57
  8
01
 10
293.6465257075687
 20
68.60189670699728
 30
0.0
 11
293.1465257075687
 21
68.70189787039496
 31
0.0
  0
LINE
  5
14A58
  8
01
 10
293.1465257075687
 20
68.70189787039496
 30
0.0
 11
297.1465257075687
 21
69.50188856321321
 31
0.0
  0
LINE
  5
14A59
  8
01
 10
297.1465257075687
 20
75.90188856321774
 30
0.0
 11
296.6465257075687
 21
76.00188972661542
 31
0.0
  0
LINE
  5
14A5A
  8
01
 10
297.1465257075687
 20
77.50188856322208
 30
0.0
 11
296.6465257075687
 21
77.60188972661919
 31
0.0
  0
LINE
  5
14A5B
  8
01
 10
297.1465257075687
 20
72.7018885632177
 30
0.0
 11
296.6465257075687
 21
72.80188972661537
 31
0.0
  0
LINE
  5
14A5C
  8
01
 10
297.1465257075687
 20
74.3018885632176
 30
0.0
 11
296.6465257075687
 21
74.40188972661528
 31
0.0
  0
LINE
  5
14A5D
  8
01
 10
293.6465257075687
 20
78.2018967070023
 30
0.0
 11
293.1465257075687
 21
78.30189787039942
 31
0.0
  0
LINE
  5
14A5E
  8
01
 10
293.6465257075687
 20
76.60189670700171
 30
0.0
 11
293.1465257075687
 21
76.7018978703995
 31
0.0
  0
LINE
  5
14A5F
  8
01
 10
293.6465257075687
 20
73.40189670700167
 30
0.0
 11
293.1465257075687
 21
73.50189787039935
 31
0.0
  0
LINE
  5
14A60
  8
01
 10
293.6465257075687
 20
75.0018967070018
 30
0.0
 11
293.1465257075687
 21
75.10189787039948
 31
0.0
  0
LINE
  5
14A61
  8
01
 10
293.1465257075687
 20
75.10189787039948
 30
0.0
 11
297.1465257075687
 21
75.90188856321774
 31
0.0
  0
LINE
  5
14A62
  8
01
 10
293.1465257075687
 20
76.7018978703995
 30
0.0
 11
297.1465257075687
 21
77.50188856322208
 31
0.0
  0
LINE
  5
14A63
  8
01
 10
293.1465257075687
 20
73.50189787039935
 30
0.0
 11
297.1465257075687
 21
74.3018885632176
 31
0.0
  0
LINE
  5
14A64
  8
01
 10
293.1465257075687
 20
71.90189787039944
 30
0.0
 11
297.1465257075687
 21
72.7018885632177
 31
0.0
  0
LINE
  5
14A65
  8
01
 10
293.6465257075687
 20
62.20189670699321
 30
0.0
 11
293.1465257075687
 21
62.30189787039089
 31
0.0
  0
LINE
  5
14A66
  8
01
 10
293.1465257075687
 20
62.30189787039089
 30
0.0
 11
297.1465257075687
 21
63.10188856320914
 31
0.0
  0
LINE
  5
14A67
  8
01
 10
297.1465257075687
 20
63.10188856320914
 30
0.0
 11
296.6465257075687
 21
63.20188972660682
 31
0.0
  0
LINE
  5
14A68
  8
01
 10
293.6465257075687
 20
63.80189670699312
 30
0.0
 11
293.1465257075687
 21
63.9018978703908
 31
0.0
  0
LINE
  5
14A69
  8
01
 10
293.6465257075687
 20
65.40189670699303
 30
0.0
 11
293.1465257075687
 21
65.5018978703907
 31
0.0
  0
LINE
  5
14A6A
  8
01
 10
293.1465257075687
 20
65.5018978703907
 30
0.0
 11
297.1465257075687
 21
66.30188856320896
 31
0.0
  0
LINE
  5
14A6B
  8
01
 10
297.1465257075687
 20
64.70188856320905
 30
0.0
 11
296.6465257075687
 21
64.80188972660673
 31
0.0
  0
LINE
  5
14A6C
  8
01
 10
297.1465257075687
 20
66.30188856320896
 30
0.0
 11
296.6465257075687
 21
66.40188972660664
 31
0.0
  0
LINE
  5
14A6D
  8
01
 10
293.1465257075687
 20
63.9018978703908
 30
0.0
 11
297.1465257075687
 21
64.70188856320905
 31
0.0
  0
LINE
  5
14A6E
  8
01
 10
293.6465257075687
 20
67.00189670699737
 30
0.0
 11
293.1465257075687
 21
67.10189787039505
 31
0.0
  0
LINE
  5
14A6F
  8
01
 10
293.6465257075687
 20
60.60189670699331
 30
0.0
 11
293.1465257075687
 21
60.70189787039099
 31
0.0
  0
LINE
  5
14A70
  8
01
 10
293.1465257075687
 20
60.70189787039099
 30
0.0
 11
297.1465257075687
 21
61.50188856320923
 31
0.0
  0
LINE
  5
14A71
  8
01
 10
297.1465257075687
 20
61.50188856320923
 30
0.0
 11
296.6465257075687
 21
61.60188972660691
 31
0.0
  0
LINE
  5
14A72
  8
01
 10
293.6465257075687
 20
59.0018967069934
 30
0.0
 11
293.1465257075687
 21
59.10189787039108
 31
0.0
  0
LINE
  5
14A73
  8
01
 10
293.1465257075687
 20
59.10189787039108
 30
0.0
 11
297.1465257075687
 21
59.90188856320928
 31
0.0
  0
LINE
  5
14A74
  8
01
 10
297.1465257075687
 20
59.90188856320928
 30
0.0
 11
296.6465257075687
 21
60.00188972660695
 31
0.0
  0
LINE
  5
14A75
  8
01
 10
293.6465082575245
 20
57.60189321702521
 30
0.0
 11
297.1465257075687
 21
58.30188856320937
 31
0.0
  0
LINE
  5
14A76
  8
01
 10
297.1465257075687
 20
58.30188856320937
 30
0.0
 11
296.6465257075687
 21
58.40188972660705
 31
0.0
  0
LINE
  5
14A77
  8
01
 10
291.3464791685665
 20
56.60189321702521
 30
0.0
 11
291.3464791685665
 21
57.60189321702521
 31
0.0
  0
ARC
  5
14B32
  8
01
 10
563.8273500933653
 20
-95.1135470510626
 30
0.0
 40
1.000000001349381
 50
79.80993586950221
 51
84.58878636527328
  0
LINE
  5
14B35
  8
01
 10
575.2159940823431
 20
-94.11206707038218
 30
0.0
 11
575.3806566998912
 21
-94.10746018215468
 31
0.0
  0
LINE
  5
14B36
  8
01
 10
575.3806566998912
 20
-94.10746018215468
 30
0.0
 11
575.543218082466
 21
-94.09974475725812
 31
0.0
  0
LINE
  5
14B37
  8
01
 10
575.543218082466
 20
-94.09974475725812
 30
0.0
 11
575.7036844495444
 21
-94.0889405143289
 31
0.0
  0
LINE
  5
14B38
  8
01
 10
575.7036844495444
 20
-94.0889405143289
 30
0.0
 11
575.8620620206027
 21
-94.0750671720034
 31
0.0
  0
LINE
  5
14B39
  8
01
 10
575.8620620206027
 20
-94.0750671720034
 30
0.0
 11
576.0183570151182
 21
-94.05814444891803
 31
0.0
  0
LINE
  5
14B3A
  8
01
 10
576.0183570151182
 20
-94.05814444891803
 30
0.0
 11
576.1725756525677
 21
-94.03819206370736
 31
0.0
  0
LINE
  5
14B3B
  8
01
 10
576.1725756525677
 20
-94.03819206370736
 30
0.0
 11
576.3247241524277
 21
-94.0152297350096
 31
0.0
  0
LINE
  5
14B3C
  8
01
 10
576.3247241524277
 20
-94.0152297350096
 30
0.0
 11
576.474808734175
 21
-93.98927718146024
 31
0.0
  0
LINE
  5
14B3D
  8
01
 10
576.474808734175
 20
-93.98927718146024
 30
0.0
 11
576.6228356172867
 21
-93.96035412169567
 31
0.0
  0
LINE
  5
14B3E
  8
01
 10
576.6228356172867
 20
-93.96035412169567
 30
0.0
 11
576.7688110212393
 21
-93.9284802743523
 31
0.0
  0
LINE
  5
14B3F
  8
01
 10
576.7688110212393
 20
-93.9284802743523
 30
0.0
 11
576.9127411655097
 21
-93.8936753580656
 31
0.0
  0
LINE
  5
14B40
  8
01
 10
576.9127411655097
 20
-93.8936753580656
 30
0.0
 11
577.054632269575
 21
-93.85595909147196
 31
0.0
  0
LINE
  5
14B41
  8
01
 10
577.054632269575
 20
-93.85595909147196
 30
0.0
 11
577.1944905529115
 21
-93.8153511932087
 31
0.0
  0
LINE
  5
14B42
  8
01
 10
577.1944905529115
 20
-93.8153511932087
 30
0.0
 11
577.3323222349961
 21
-93.7718713819113
 31
0.0
  0
LINE
  5
14B43
  8
01
 10
577.3323222349961
 20
-93.7718713819113
 30
0.0
 11
577.4681335353059
 21
-93.72553937621524
 31
0.0
  0
LINE
  5
14B44
  8
01
 10
577.4681335353059
 20
-93.72553937621524
 30
0.0
 11
577.6019306733174
 21
-93.67637489475783
 31
0.0
  0
LINE
  5
14B45
  8
01
 10
577.6019306733174
 20
-93.67637489475783
 30
0.0
 11
577.7337198685077
 21
-93.62439765617546
 31
0.0
  0
LINE
  5
14B46
  8
01
 10
577.7337198685077
 20
-93.62439765617546
 30
0.0
 11
577.8635073403532
 21
-93.56962737910362
 31
0.0
  0
LINE
  5
14B47
  8
01
 10
577.8635073403532
 20
-93.56962737910362
 30
0.0
 11
577.991299308331
 21
-93.5120837821787
 31
0.0
  0
LINE
  5
14B48
  8
01
 10
577.991299308331
 20
-93.5120837821787
 30
0.0
 11
578.1171019919179
 21
-93.45178658403711
 31
0.0
  0
LINE
  5
14B49
  8
01
 10
578.1171019919179
 20
-93.45178658403711
 30
0.0
 11
578.2409216105905
 21
-93.38875550331431
 31
0.0
  0
LINE
  5
14B4A
  8
01
 10
578.2409216105905
 20
-93.38875550331431
 30
0.0
 11
578.3627643838258
 21
-93.32301025864854
 31
0.0
  0
LINE
  5
14B4B
  8
01
 10
578.3627643838258
 20
-93.32301025864854
 30
0.0
 11
578.4826365311003
 21
-93.25457056867435
 31
0.0
  0
LINE
  5
14B4C
  8
01
 10
578.4826365311003
 20
-93.25457056867435
 30
0.0
 11
578.6005442718913
 21
-93.18345615202816
 31
0.0
  0
LINE
  5
14B4D
  8
01
 10
578.6005442718913
 20
-93.18345615202816
 30
0.0
 11
578.7164938256751
 21
-93.10968672734634
 31
0.0
  0
LINE
  5
14B4E
  8
01
 10
578.7164938256751
 20
-93.10968672734634
 30
0.0
 11
578.830491411929
 21
-93.0332820132653
 31
0.0
  0
LINE
  5
14B4F
  8
01
 10
578.830491411929
 20
-93.0332820132653
 30
0.0
 11
578.9425432501291
 21
-92.95426172842144
 31
0.0
  0
LINE
  5
14B50
  8
01
 10
578.9425432501291
 20
-92.95426172842144
 30
0.0
 11
579.0526555597528
 21
-92.87264559145024
 31
0.0
  0
LINE
  5
14B51
  8
01
 10
579.0526555597528
 20
-92.87264559145024
 30
0.0
 11
579.1608345602767
 21
-92.78845332098899
 31
0.0
  0
LINE
  5
14B52
  8
01
 10
579.1608345602767
 20
-92.78845332098899
 30
0.0
 11
579.2670864711774
 21
-92.7017046356732
 31
0.0
  0
LINE
  5
14B53
  8
01
 10
579.2670864711774
 20
-92.7017046356732
 30
0.0
 11
579.3714175119321
 21
-92.61241925413924
 31
0.0
  0
LINE
  5
14B54
  8
01
 10
579.3714175119321
 20
-92.61241925413924
 30
0.0
 11
579.4738339020175
 21
-92.52061689502352
 31
0.0
  0
LINE
  5
14B55
  8
01
 10
579.4738339020175
 20
-92.52061689502352
 30
0.0
 11
579.5743418609102
 21
-92.42631727696244
 31
0.0
  0
LINE
  5
14B56
  8
01
 10
579.5743418609102
 20
-92.42631727696244
 30
0.0
 11
579.672947608087
 21
-92.32954011859147
 31
0.0
  0
LINE
  5
14B57
  8
01
 10
579.672947608087
 20
-92.32954011859147
 30
0.0
 11
579.7696573630249
 21
-92.23030513854701
 31
0.0
  0
LINE
  5
14B58
  8
01
 10
579.7696573630249
 20
-92.23030513854701
 30
0.0
 11
579.8644773452006
 21
-92.12863205546637
 31
0.0
  0
LINE
  5
14B59
  8
01
 10
579.8644773452006
 20
-92.12863205546637
 30
0.0
 11
579.9574137740908
 21
-92.02454058798503
 31
0.0
  0
LINE
  5
14B5A
  8
01
 10
579.9574137740908
 20
-92.02454058798503
 30
0.0
 11
580.0484728691724
 21
-91.91805045473848
 31
0.0
  0
LINE
  5
14B5B
  8
01
 10
580.0484728691724
 20
-91.91805045473848
 30
0.0
 11
580.1376608499224
 21
-91.80918137436493
 31
0.0
  0
LINE
  5
14B5C
  8
01
 10
580.1376608499224
 20
-91.80918137436493
 30
0.0
 11
580.2249839358171
 21
-91.69795306549804
 31
0.0
  0
LINE
  5
14B5D
  8
01
 10
580.2249839358171
 20
-91.69795306549804
 30
0.0
 11
580.3104483463337
 21
-91.58438524677604
 31
0.0
  0
LINE
  5
14B5E
  8
01
 10
580.3104483463337
 20
-91.58438524677604
 30
0.0
 11
580.3940603009489
 21
-91.4684976368344
 31
0.0
  0
LINE
  5
14B5F
  8
01
 10
580.3940603009489
 20
-91.4684976368344
 30
0.0
 11
580.4758260191395
 21
-91.35030995430952
 31
0.0
  0
LINE
  5
14B60
  8
01
 10
580.4758260191395
 20
-91.35030995430952
 30
0.0
 11
580.5557517203822
 21
-91.2298419178378
 31
0.0
  0
LINE
  5
14B61
  8
01
 10
580.5557517203822
 20
-91.2298419178378
 30
0.0
 11
580.633843624154
 21
-91.10711324605563
 31
0.0
  0
LINE
  5
14B62
  8
01
 10
580.633843624154
 20
-91.10711324605563
 30
0.0
 11
580.7101079499316
 21
-90.9821436575985
 31
0.0
  0
LINE
  5
14B63
  8
01
 10
580.7101079499316
 20
-90.9821436575985
 30
0.0
 11
580.7845509171916
 21
-90.8549528711028
 31
0.0
  0
LINE
  5
14B64
  8
01
 10
580.7845509171916
 20
-90.8549528711028
 30
0.0
 11
580.8571787454111
 21
-90.72556060520492
 31
0.0
  0
LINE
  5
14B65
  8
01
 10
580.8571787454111
 20
-90.72556060520492
 30
0.0
 11
580.9970138626356
 21
-90.46025050974822
 31
0.0
  0
LINE
  5
14B66
  8
01
 10
580.9970138626356
 20
-90.46025050974822
 30
0.0
 11
581.1296630574191
 21
-90.18637112031865
 31
0.0
  0
LINE
  5
14B67
  8
01
 10
581.1296630574191
 20
-90.18637112031865
 30
0.0
 11
581.2551760855758
 21
-89.90408018600465
 31
0.0
  0
LINE
  5
14B68
  8
01
 10
581.2551760855758
 20
-89.90408018600465
 30
0.0
 11
581.3736027029208
 21
-89.61353545589736
 31
0.0
  0
LINE
  5
14B69
  8
01
 10
581.3736027029208
 20
-89.61353545589736
 30
0.0
 11
581.4849926652678
 21
-89.31489467908614
 31
0.0
  0
LINE
  5
14B6A
  8
01
 10
581.4849926652678
 20
-89.31489467908614
 30
0.0
 11
581.5893957284318
 21
-89.00831560466031
 31
0.0
  0
LINE
  5
14B6B
  8
01
 10
581.5893957284318
 20
-89.00831560466031
 30
0.0
 11
581.6868616482266
 21
-88.69395598171104
 31
0.0
  0
LINE
  5
14B6C
  8
01
 10
581.6868616482266
 20
-88.69395598171104
 30
0.0
 11
581.7774401804668
 21
-88.37197355932767
 31
0.0
  0
LINE
  5
14B6F
  8
01
 10
580.8113362938795
 20
-87.11354704971382
 30
0.0
 11
567.0451783427673
 21
-87.11354704971382
 31
0.0
  0
LINE
  5
14B70
  8
01
 10
482.7435783927495
 20
-87.11354704971382
 30
0.0
 11
496.5096710053404
 21
-87.11354704971382
 31
0.0
  0
ARC
  5
14B71
  8
01
 10
482.7435719591386
 20
-88.11362447759166
 30
0.0
 40
1.000077427898879
 50
89.9996314097849
 51
194.9709387268668
  0
LINE
  5
14B73
  8
01
 10
567.045178205102
 20
-87.11354704971382
 30
0.0
 11
496.509671232508
 21
-87.11354704971382
 31
0.0
  0
ARC
  5
14B76
  8
01
 10
580.8113360159712
 20
-88.11360327768034
 30
0.0
 40
1.00005622796646
 50
345.0274792040693
 51
89.99998407791487
  0
LINE
  5
14B77
  8
01
 10
488.1644888415033
 20
-94.10708775281728
 30
0.0
 11
488.0047244079445
 21
-94.09934389301179
 31
0.0
  0
LINE
  5
14B78
  8
01
 10
488.0047244079445
 20
-94.09934389301179
 30
0.0
 11
487.8469859394714
 21
-94.08861345907462
 31
0.0
  0
LINE
  5
14B79
  8
01
 10
487.8469859394714
 20
-94.08861345907462
 30
0.0
 11
487.6912675204129
 21
-94.07491520643634
 31
0.0
  0
LINE
  5
14B7A
  8
01
 10
487.6912675204129
 20
-94.07491520643634
 30
0.0
 11
487.5375632350973
 21
-94.05826789052844
 31
0.0
  0
LINE
  5
14B7B
  8
01
 10
487.5375632350973
 20
-94.05826789052844
 30
0.0
 11
487.3858671678536
 21
-94.0386902667824
 31
0.0
  0
LINE
  5
14B7C
  8
01
 10
487.3858671678536
 20
-94.0386902667824
 30
0.0
 11
487.236173403011
 21
-94.01620109062878
 31
0.0
  0
LINE
  5
14B7D
  8
01
 10
487.236173403011
 20
-94.01620109062878
 30
0.0
 11
487.0884760248976
 21
-93.99081911749909
 31
0.0
  0
LINE
  5
14B7E
  8
01
 10
487.0884760248976
 20
-93.99081911749909
 30
0.0
 11
486.9427691178426
 21
-93.96256310282479
 31
0.0
  0
LINE
  5
14B7F
  8
01
 10
486.9427691178426
 20
-93.96256310282479
 30
0.0
 11
486.7990467661746
 21
-93.93145180203646
 31
0.0
  0
LINE
  5
14B80
  8
01
 10
486.7990467661746
 20
-93.93145180203646
 30
0.0
 11
486.6573030542227
 21
-93.89750397056469
 31
0.0
  0
LINE
  5
14B81
  8
01
 10
486.6573030542227
 20
-93.89750397056469
 30
0.0
 11
486.517532066315
 21
-93.86073836384276
 31
0.0
  0
LINE
  5
14B82
  8
01
 10
486.517532066315
 20
-93.86073836384276
 30
0.0
 11
486.379727886781
 21
-93.82117373729943
 31
0.0
  0
LINE
  5
14B83
  8
01
 10
486.379727886781
 20
-93.82117373729943
 30
0.0
 11
486.2438845999491
 21
-93.77882884636801
 31
0.0
  0
LINE
  5
14B84
  8
01
 10
486.2438845999491
 20
-93.77882884636801
 30
0.0
 11
486.1099962901481
 21
-93.73372244647817
 31
0.0
  0
LINE
  5
14B85
  8
01
 10
486.1099962901481
 20
-93.73372244647817
 30
0.0
 11
485.9780570417068
 21
-93.68587329306138
 31
0.0
  0
LINE
  5
14B86
  8
01
 10
485.9780570417068
 20
-93.68587329306138
 30
0.0
 11
485.848060938954
 21
-93.63530014154912
 31
0.0
  0
LINE
  5
14B87
  8
01
 10
485.848060938954
 20
-93.63530014154912
 30
0.0
 11
485.7200020662183
 21
-93.58202174737198
 31
0.0
  0
LINE
  5
14B88
  8
01
 10
485.7200020662183
 20
-93.58202174737198
 30
0.0
 11
485.5938745078288
 21
-93.52605686596235
 31
0.0
  0
LINE
  5
14B89
  8
01
 10
485.5938745078288
 20
-93.52605686596235
 30
0.0
 11
485.4696723481141
 21
-93.46742425274988
 31
0.0
  0
LINE
  5
14B8A
  8
01
 10
485.4696723481141
 20
-93.46742425274988
 30
0.0
 11
485.3473896714032
 21
-93.40614266316697
 31
0.0
  0
LINE
  5
14B8B
  8
01
 10
485.3473896714032
 20
-93.40614266316697
 30
0.0
 11
485.2270205620244
 21
-93.3422308526433
 31
0.0
  0
LINE
  5
14B8C
  8
01
 10
485.2270205620244
 20
-93.3422308526433
 30
0.0
 11
485.1085591043066
 21
-93.27570757661215
 31
0.0
  0
LINE
  5
14B8D
  8
01
 10
485.1085591043066
 20
-93.27570757661215
 30
0.0
 11
484.9919993825789
 21
-93.2065915905032
 31
0.0
  0
LINE
  5
14B8E
  8
01
 10
484.9919993825789
 20
-93.2065915905032
 30
0.0
 11
484.87733548117
 21
-93.13490164974701
 31
0.0
  0
LINE
  5
14B8F
  8
01
 10
484.87733548117
 20
-93.13490164974701
 30
0.0
 11
484.7645614844085
 21
-93.06065650977689
 31
0.0
  0
LINE
  5
14B90
  8
01
 10
484.7645614844085
 20
-93.06065650977689
 30
0.0
 11
484.6536714766231
 21
-92.98387492602251
 31
0.0
  0
LINE
  5
14B91
  8
01
 10
484.6536714766231
 20
-92.98387492602251
 30
0.0
 11
484.5446595421427
 21
-92.90457565391443
 31
0.0
  0
LINE
  5
14B92
  8
01
 10
484.5446595421427
 20
-92.90457565391443
 30
0.0
 11
484.4375197652963
 21
-92.82277744888597
 31
0.0
  0
LINE
  5
14B93
  8
01
 10
484.4375197652963
 20
-92.82277744888597
 30
0.0
 11
484.3322462304123
 21
-92.73849906636588
 31
0.0
  0
LINE
  5
14B94
  8
01
 10
484.3322462304123
 20
-92.73849906636588
 30
0.0
 11
484.2288330218196
 21
-92.65175926178745
 31
0.0
  0
LINE
  5
14B95
  8
01
 10
484.2288330218196
 20
-92.65175926178745
 30
0.0
 11
484.1272742238469
 21
-92.56257679058035
 31
0.0
  0
LINE
  5
14B96
  8
01
 10
484.1272742238469
 20
-92.56257679058035
 30
0.0
 11
484.0275639208233
 21
-92.47097040817607
 31
0.0
  0
LINE
  5
14B97
  8
01
 10
484.0275639208233
 20
-92.47097040817607
 30
0.0
 11
483.9296961970775
 21
-92.37695887000609
 31
0.0
  0
LINE
  5
14B98
  8
01
 10
483.9296961970775
 20
-92.37695887000609
 30
0.0
 11
483.8336651369378
 21
-92.2805609315019
 31
0.0
  0
LINE
  5
14B99
  8
01
 10
483.8336651369378
 20
-92.2805609315019
 30
0.0
 11
483.7394648247335
 21
-92.18179534809406
 31
0.0
  0
LINE
  5
14B9A
  8
01
 10
483.7394648247335
 20
-92.18179534809406
 30
0.0
 11
483.6470893447932
 21
-92.08068087521406
 31
0.0
  0
LINE
  5
14B9B
  8
01
 10
483.6470893447932
 20
-92.08068087521406
 30
0.0
 11
483.5565327814455
 21
-91.97723626829247
 31
0.0
  0
LINE
  5
14B9C
  8
01
 10
483.5565327814455
 20
-91.97723626829247
 30
0.0
 11
483.4677892190194
 21
-91.87148028276079
 31
0.0
  0
LINE
  5
14B9D
  8
01
 10
483.4677892190194
 20
-91.87148028276079
 30
0.0
 11
483.3808527418437
 21
-91.76343167405048
 31
0.0
  0
LINE
  5
14B9E
  8
01
 10
483.3808527418437
 20
-91.76343167405048
 30
0.0
 11
483.2957174342471
 21
-91.65310919759213
 31
0.0
  0
LINE
  5
14B9F
  8
01
 10
483.2957174342471
 20
-91.65310919759213
 30
0.0
 11
483.2123773805582
 21
-91.54053160881813
 31
0.0
  0
LINE
  5
14BA0
  8
01
 10
483.2123773805582
 20
-91.54053160881813
 30
0.0
 11
483.1308266651061
 21
-91.42571766315814
 31
0.0
  0
LINE
  5
14BA1
  8
01
 10
483.1308266651061
 20
-91.42571766315814
 30
0.0
 11
483.0510593722193
 21
-91.30868611604365
 31
0.0
  0
LINE
  5
14BA2
  8
01
 10
483.0510593722193
 20
-91.30868611604365
 30
0.0
 11
482.9730695862266
 21
-91.18945572290704
 31
0.0
  0
LINE
  5
14BA3
  8
01
 10
482.9730695862266
 20
-91.18945572290704
 30
0.0
 11
482.896851391457
 21
-91.06804523917799
 31
0.0
  0
LINE
  5
14BA4
  8
01
 10
482.896851391457
 20
-91.06804523917799
 30
0.0
 11
482.8223988722391
 21
-90.94447342028798
 31
0.0
  0
LINE
  5
14BA5
  8
01
 10
482.8223988722391
 20
-90.94447342028798
 30
0.0
 11
482.7497061129018
 21
-90.8187590216694
 31
0.0
  0
LINE
  5
14BA6
  8
01
 10
482.7497061129018
 20
-90.8187590216694
 30
0.0
 11
482.6787671977737
 21
-90.6909207987519
 31
0.0
  0
LINE
  5
14BA7
  8
01
 10
482.6787671977737
 20
-90.6909207987519
 30
0.0
 11
482.5421272374604
 21
-90.42894790174614
 31
0.0
  0
LINE
  5
14BA8
  8
01
 10
482.5421272374604
 20
-90.42894790174614
 30
0.0
 11
482.4124316659295
 21
-90.15870477272165
 31
0.0
  0
LINE
  5
14BA9
  8
01
 10
482.4124316659295
 20
-90.15870477272165
 30
0.0
 11
482.2896331578114
 21
-89.88034145512665
 31
0.0
  0
LINE
  5
14BAA
  8
01
 10
482.2896331578114
 20
-89.88034145512665
 30
0.0
 11
482.1736843877359
 21
-89.5940079924112
 31
0.0
  0
LINE
  5
14BAB
  8
01
 10
482.1736843877359
 20
-89.5940079924112
 30
0.0
 11
482.0645380303336
 21
-89.29985442802445
 31
0.0
  0
LINE
  5
14BAC
  8
01
 10
482.0645380303336
 20
-89.29985442802445
 30
0.0
 11
481.9621467602347
 21
-88.99803080541551
 31
0.0
  0
LINE
  5
14BAD
  8
01
 10
481.9621467602347
 20
-88.99803080541551
 30
0.0
 11
481.8664632520689
 21
-88.68868716803263
 31
0.0
  0
LINE
  5
14BAE
  8
01
 10
481.8664632520689
 20
-88.68868716803263
 30
0.0
 11
481.7774401804668
 21
-88.37197355932767
 31
0.0
  0
LINE
  5
14BAF
  8
01
 10
488.2845929821718
 20
-94.11354704971382
 30
0.0
 11
575.2159940823431
 21
-94.11206707038218
 31
0.0
  0
LINE
  5
14BB0
  8
01
 10
488.1644888415033
 20
-94.10708775281728
 30
0.0
 11
488.2845929821718
 21
-94.11354704971382
 31
0.0
  0
LINE
  5
14D43
  8
01
 10
1101.809647100833
 20
-107.3718815982984
 30
0.0
 11
1101.809647100833
 21
-108.4943938251517
 31
0.0
  0
ARC
  5
14D44
  8
01
 10
1044.107383294584
 20
-110.6999780807237
 30
0.0
 40
0.2902960973989723
 50
99.46469126836172
 51
170.2821537504138
  0
LINE
  5
14D45
  8
01
 10
1101.50984785365
 20
-94.31354718189414
 30
0.0
 11
1100.809647101162
 21
-94.31354727095459
 31
0.0
  0
ARC
  5
14D46
  8
01
 10
1101.509890985244
 20
-94.61359013702713
 30
0.0
 40
0.3000429082662117
 50
0.0082026310118147
 51
89.94152091481884
  0
ARC
  5
14D47
  8
01
 10
1042.109403342527
 20
-94.61359021328917
 30
0.0
 40
0.3000430344775417
 50
89.99178773684606
 51
179.9916713103815
  0
LINE
  5
14D48
  8
01
 10
1042.80964710048
 20
-94.31354727095459
 30
0.0
 11
1042.109446348004
 21
-94.31354718189414
 31
0.0
  0
LINE
  5
14D49
  8
01
 10
1100.809647100833
 20
-94.31354727095459
 30
0.0
 11
1100.109647100833
 21
-94.31354727095459
 31
0.0
  0
LINE
  5
14D4A
  8
01
 10
1043.509647100833
 20
-94.31354727095459
 30
0.0
 11
1042.809647100833
 21
-94.31354727095459
 31
0.0
  0
ARC
  5
14D4B
  8
01
 10
1043.506322215014
 20
-112.1039128946877
 30
0.0
 40
0.3057137159715669
 50
270.6368436593668
 51
312.4825087355636
  0
LINE
  5
14D4C
  8
01
 10
1043.809647100833
 20
-110.6495365759929
 30
0.0
 11
1043.809647100833
 21
-110.7086168363749
 31
0.0
  0
ARC
  5
14D4D
  8
01
 10
1100.112972497819
 20
-112.1039118464796
 30
0.0
 40
0.3057148342320216
 50
227.5175532887013
 51
269.3745312557631
  0
LINE
  5
14D4E
  8
01
 10
1099.809647100833
 20
-110.6495365759929
 30
0.0
 11
1099.809647100833
 21
-110.7086168363749
 31
0.0
  0
ARC
  5
14D4F
  8
01
 10
1044.359648240453
 20
-112.2766022540418
 30
0.0
 40
0.300001175561257
 50
179.9989792802032
 51
269.9997754943078
  0
LINE
  5
14D50
  8
01
 10
1044.059647064939
 20
-110.9008470017097
 30
0.0
 11
1044.059647064939
 21
-112.2765969095444
 31
0.0
  0
LINE
  5
14D51
  8
01
 10
1044.059647064939
 20
-110.3905371027449
 30
0.0
 11
1044.059647064939
 21
-110.4350734057571
 31
0.0
  0
ARC
  5
14D52
  8
01
 10
1099.25964537427
 20
-112.2766017388985
 30
0.0
 40
0.3000016907077067
 50
270.0003228921487
 51
0.0009223334835207
  0
LINE
  5
14D53
  8
01
 10
1099.559647064939
 20
-110.9008470017106
 30
0.0
 11
1099.559647064939
 21
-112.2765969095444
 31
0.0
  0
ARC
  5
14D54
  8
01
 10
1206.088729813324
 20
-87.67422381221604
 30
0.0
 40
6.553616379806404
 50
304.4627366806717
 51
331.9385348096867
  0
LINE
  5
14D55
  8
01
 10
1101.809647032218
 20
-94.55895213943131
 30
0.0
 11
1101.809647010308
 21
-94.51430955192427
 31
0.0
  0
LINE
  5
14D56
  8
01
 10
1041.809647191361
 20
-94.51430197089667
 30
0.0
 11
1041.809647169445
 21
-94.55895830830468
 31
0.0
  0
LINE
  5
14D57
  8
01
 10
1044.109647100833
 20
-94.31354701067175
 30
0.0
 11
1043.564236015071
 21
-94.31354705609829
 31
0.0
  0
LINE
  5
14D58
  8
01
 10
1099.509647100833
 20
-94.31354701067175
 30
0.0
 11
1044.109647100833
 21
-94.31354701067175
 31
0.0
  0
LINE
  5
14D59
  8
01
 10
1100.055058186584
 20
-94.3135470560992
 30
0.0
 11
1099.509647100833
 21
-94.31354701067175
 31
0.0
  0
LINE
  5
14D5A
  8
01
 10
1101.809647100833
 20
-94.11430843966355
 30
0.0
 11
1101.809647100833
 21
-94.51430843966318
 31
0.0
  0
LINE
  5
14D5B
  8
01
 10
1101.792757905308
 20
-94.51430843966318
 30
0.0
 11
1101.807864446365
 21
-94.51430843966318
 31
0.0
  0
LINE
  5
14D5C
  8
01
 10
1041.811124222678
 20
-94.51430843966318
 30
0.0
 11
1041.826536296358
 21
-94.51430843966318
 31
0.0
  0
LINE
  5
14D5D
  8
01
 10
1041.809647100833
 20
-94.11430843966355
 30
0.0
 11
1041.809647100833
 21
-94.51430197035188
 31
0.0
  0
LINE
  5
14D5E
  8
01
 10
1100.809647100833
 20
-112.4086168365911
 30
0.0
 11
1100.109647100833
 21
-112.4086168365911
 31
0.0
  0
ARC
  5
14D5F
  8
01
 10
1042.809647097958
 20
-111.408616839466
 30
0.0
 40
0.9999999971253004
 50
180.0000000106305
 51
270.0000001647073
  0
ARC
  5
14D60
  8
01
 10
1100.809647103708
 20
-111.408616839466
 30
0.0
 40
0.9999999971253912
 50
269.9999998352927
 51
359.9999999893695
  0
LINE
  5
14D61
  8
01
 10
1041.809647100833
 20
-107.3718815737348
 30
0.0
 11
1041.809647100841
 21
-94.61354677568852
 31
0.0
  0
LINE
  5
14D62
  8
01
 10
1041.809647100833
 20
-111.4086168366239
 30
0.0
 11
1041.809647100833
 21
-107.3718815737348
 31
0.0
  0
LINE
  5
14D63
  8
01
 10
1101.809647100833
 20
-108.4943938251508
 30
0.0
 11
1101.809647100833
 21
-111.4086168366248
 31
0.0
  0
LINE
  5
14D64
  8
01
 10
1101.809647100822
 20
-94.61354718447456
 30
0.0
 11
1101.809647100833
 21
-107.3718815737348
 31
0.0
  0
LINE
  5
14D65
  8
01
 10
1043.509647100833
 20
-112.4086168365911
 30
0.0
 11
1042.809647100833
 21
-112.4086168365911
 31
0.0
  0
LINE
  5
14D66
  8
01
 10
1043.809647100833
 20
-94.6135472595679
 30
0.0
 11
1043.809647100833
 21
-107.3718815736474
 31
0.0
  0
LINE
  5
14D67
  8
01
 10
1099.809647100833
 20
-94.6135472595679
 30
0.0
 11
1099.809647100833
 21
-107.3718815736474
 31
0.0
  0
ARC
  5
14D68
  8
01
 10
1043.509647100833
 20
-112.1086168365919
 30
0.0
 40
0.3000000000003098
 50
312.6269861057856
 51
0.0
  0
LINE
  5
14D69
  8
01
 10
1043.809647100833
 20
-110.7086168363749
 30
0.0
 11
1043.809647100833
 21
-112.1086168365919
 31
0.0
  0
LINE
  5
14D6A
  8
01
 10
1043.809647100833
 20
-107.3718815736474
 30
0.0
 11
1043.809647100833
 21
-110.6495365759929
 31
0.0
  0
ARC
  5
14D6B
  8
01
 10
1100.109647100833
 20
-112.1086168365919
 30
0.0
 40
0.3000000000000682
 50
180.0
 51
227.3730138186112
  0
LINE
  5
14D6C
  8
01
 10
1099.809647100833
 20
-110.7086168363749
 30
0.0
 11
1099.809647100833
 21
-112.1086168365919
 31
0.0
  0
LINE
  5
14D6D
  8
01
 10
1099.809647100833
 20
-107.3718815736474
 30
0.0
 11
1099.809647100833
 21
-110.6495365759929
 31
0.0
  0
ARC
  5
14D6E
  8
01
 10
1043.509647110553
 20
-94.61354726123591
 30
0.0
 40
0.2999999902799715
 50
0.0000003185497009
 51
90.00000185638706
  0
ARC
  5
14D6F
  8
01
 10
1100.109647091113
 20
-94.61354726123591
 30
0.0
 40
0.2999999902800141
 50
89.99999814361293
 51
179.9999996814503
  0
LINE
  5
14D70
  8
01
 10
1044.359647064939
 20
-112.5764947619946
 30
0.0
 11
1099.259647064939
 21
-112.5764947619946
 31
0.0
  0
LINE
  5
14D71
  8
1DIM
 10
1041.809647100833
 20
-107.5764947619946
 30
0.0
 11
1099.259647064939
 21
-107.5764947619946
 31
0.0
  0
LINE
  5
14D72
  8
01
 10
1099.559647064939
 20
-107.5764947619946
 30
0.0
 11
1099.559647064939
 21
-94.91159587677066
 31
0.0
  0
LINE
  5
14D73
  8
01
 10
1044.059647064939
 20
-107.5764947619946
 30
0.0
 11
1044.059647064939
 21
-94.91159587677066
 31
0.0
  0
LINE
  5
14D74
  8
01
 10
1044.359647064939
 20
-94.61159587677048
 30
0.0
 11
1099.259647064939
 21
-94.61159587677048
 31
0.0
  0
LINE
  5
14D75
  8
1DIM
 10
1044.059647064939
 20
-107.5764947619946
 30
0.0
 11
1044.359647064939
 21
-107.5764947619946
 31
0.0
  0
LINE
  5
14D76
  8
01
 10
1044.059647064939
 20
-110.4350734057571
 30
0.0
 11
1044.059647064939
 21
-110.9008470017097
 31
0.0
  0
LINE
  5
14D77
  8
01
 10
1044.059647064939
 20
-107.5764947619946
 30
0.0
 11
1044.059647064939
 21
-110.3905371027449
 31
0.0
  0
LINE
  5
14D78
  8
1DIM
 10
1101.809647100833
 20
-107.5764947619955
 30
0.0
 11
1099.259647064939
 21
-107.5764947619946
 31
0.0
  0
LINE
  5
14D79
  8
01
 10
1099.559647064939
 20
-107.5764947619946
 30
0.0
 11
1099.559647064939
 21
-110.9008470017097
 31
0.0
  0
ARC
  5
14D7A
  8
01
 10
1099.259647064939
 20
-94.91159587677066
 30
0.0
 40
0.2999999999999545
 50
0.0
 51
90.00000000001303
  0
ARC
  5
14D7B
  8
01
 10
1044.359647064939
 20
-94.91159587677066
 30
0.0
 40
0.2999999999999048
 50
89.99999999998697
 51
180.0
  0
ARC
  5
14D7C
  8
01
 10
1206.288242117531
 20
-87.64406833482462
 30
0.0
 40
6.468130206359673
 50
269.6425919693569
 51
302.8542287536335
  0
ARC
  5
14D7D
  8
01
 10
1202.648862885652
 20
-85.75425650787565
 30
0.0
 40
10.49256773714089
 50
331.5230579801012
 51
345.5530803423485
  0
LINE
  5
14D7E
  8
01
 10
930.8096470649394
 20
-88.3719735629511
 30
0.0
 11
930.900228313646
 21
-88.69396517893529
 31
0.0
  0
LINE
  5
14D7F
  8
01
 10
930.900228313646
 20
-88.69396517893529
 30
0.0
 11
930.997697349346
 21
-89.00833355042778
 31
0.0
  0
LINE
  5
14D80
  8
01
 10
930.997697349346
 20
-89.00833355042778
 30
0.0
 11
931.1021039321666
 21
-89.31492091466407
 31
0.0
  0
LINE
  5
14D81
  8
01
 10
931.1021039321666
 20
-89.31492091466407
 30
0.0
 11
931.2134978222352
 21
-89.61356950888057
 31
0.0
  0
LINE
  5
14D82
  8
01
 10
931.2134978222352
 20
-89.61356950888057
 30
0.0
 11
931.3319287796792
 21
-89.90412157031369
 31
0.0
  0
LINE
  5
14D83
  8
01
 10
931.3319287796792
 20
-89.90412157031369
 30
0.0
 11
931.4574465646257
 21
-90.18641933619892
 31
0.0
  0
LINE
  5
14D84
  8
01
 10
931.4574465646257
 20
-90.18641933619892
 30
0.0
 11
931.590100937202
 21
-90.46030504377268
 31
0.0
  0
LINE
  5
14D85
  8
01
 10
931.590100937202
 20
-90.46030504377268
 30
0.0
 11
931.7299416575356
 21
-90.72562093027136
 31
0.0
  0
LINE
  5
14D86
  8
01
 10
931.7299416575356
 20
-90.72562093027136
 30
0.0
 11
931.8025724481511
 21
-90.85501588975421
 31
0.0
  0
LINE
  5
14D87
  8
01
 10
931.8025724481511
 20
-90.85501588975421
 30
0.0
 11
931.8770184857536
 21
-90.98220923293138
 31
0.0
  0
LINE
  5
14D88
  8
01
 10
931.8770184857536
 20
-90.98220923293138
 30
0.0
 11
931.9532859903591
 21
-91.10718123945753
 31
0.0
  0
LINE
  5
14D89
  8
01
 10
931.9532859903591
 20
-91.10718123945753
 30
0.0
 11
932.0313811819834
 21
-91.22991218898824
 31
0.0
  0
LINE
  5
14D8A
  8
01
 10
932.0313811819834
 20
-91.22991218898824
 30
0.0
 11
932.1113102806424
 21
-91.35038236117725
 31
0.0
  0
LINE
  5
14D8B
  8
01
 10
932.1113102806424
 20
-91.35038236117725
 30
0.0
 11
932.1930795063522
 21
-91.46857203567833
 31
0.0
  0
LINE
  5
14D8C
  8
01
 10
932.1930795063522
 20
-91.46857203567833
 30
0.0
 11
932.2766950791286
 21
-91.58446149214706
 31
0.0
  0
LINE
  5
14D8D
  8
01
 10
932.2766950791286
 20
-91.58446149214706
 30
0.0
 11
932.3621632189875
 21
-91.69803101023808
 31
0.0
  0
LINE
  5
14D8E
  8
01
 10
932.3621632189875
 20
-91.69803101023808
 30
0.0
 11
932.4494901459448
 21
-91.80926086960517
 31
0.0
  0
LINE
  5
14D8F
  8
01
 10
932.4494901459448
 20
-91.80926086960517
 30
0.0
 11
932.5386820800163
 21
-91.91813134990298
 31
0.0
  0
LINE
  5
14D90
  8
01
 10
932.5386820800163
 20
-91.91813134990298
 30
0.0
 11
932.6297452412182
 21
-92.02462273078709
 31
0.0
  0
LINE
  5
14D91
  8
01
 10
932.6297452412182
 20
-92.02462273078709
 30
0.0
 11
932.7226858495662
 21
-92.12871529191034
 31
0.0
  0
LINE
  5
14D92
  8
01
 10
932.7226858495662
 20
-92.12871529191034
 30
0.0
 11
932.8175101250763
 21
-92.23038931292831
 31
0.0
  0
LINE
  5
14D93
  8
01
 10
932.8175101250763
 20
-92.23038931292831
 30
0.0
 11
932.9142242877643
 21
-92.32962507349566
 31
0.0
  0
LINE
  5
14D94
  8
01
 10
932.9142242877643
 20
-92.32962507349566
 30
0.0
 11
933.0128345576462
 21
-92.42640285326615
 31
0.0
  0
LINE
  5
14D95
  8
01
 10
933.0128345576462
 20
-92.42640285326615
 30
0.0
 11
933.113347154738
 21
-92.52070293189445
 31
0.0
  0
LINE
  5
14D96
  8
01
 10
933.113347154738
 20
-92.52070293189445
 30
0.0
 11
933.2157682990554
 21
-92.61250558903521
 31
0.0
  0
LINE
  5
14D97
  8
01
 10
933.2157682990554
 20
-92.61250558903521
 30
0.0
 11
933.3201042106144
 21
-92.70179110434401
 31
0.0
  0
LINE
  5
14D98
  8
01
 10
933.3201042106144
 20
-92.70179110434401
 30
0.0
 11
933.4263611094311
 21
-92.7885397574737
 31
0.0
  0
LINE
  5
14D99
  8
01
 10
933.4263611094311
 20
-92.7885397574737
 30
0.0
 11
933.5345452155211
 21
-92.87273182807985
 31
0.0
  0
LINE
  5
14D9A
  8
01
 10
933.5345452155211
 20
-92.87273182807985
 30
0.0
 11
933.6446627489006
 21
-92.95434759581622
 31
0.0
  0
LINE
  5
14D9B
  8
01
 10
933.6446627489006
 20
-92.95434759581622
 30
0.0
 11
933.7567199295853
 21
-93.03336734033837
 31
0.0
  0
LINE
  5
14D9C
  8
01
 10
933.7567199295853
 20
-93.03336734033837
 30
0.0
 11
933.8707229775912
 21
-93.10977134130007
 31
0.0
  0
LINE
  5
14D9D
  8
01
 10
933.8707229775912
 20
-93.10977134130007
 30
0.0
 11
933.9866781129341
 21
-93.18353987835599
 31
0.0
  0
LINE
  5
14D9E
  8
01
 10
933.9866781129341
 20
-93.18353987835599
 30
0.0
 11
934.1045915556301
 21
-93.25465323115986
 31
0.0
  0
LINE
  5
14D9F
  8
01
 10
934.1045915556301
 20
-93.25465323115986
 30
0.0
 11
934.224469525695
 21
-93.32309167936819
 31
0.0
  0
LINE
  5
14DA0
  8
01
 10
934.224469525695
 20
-93.32309167936819
 30
0.0
 11
934.3463182431448
 21
-93.38883550263381
 31
0.0
  0
LINE
  5
14DA1
  8
01
 10
934.3463182431448
 20
-93.38883550263381
 30
0.0
 11
934.4701439279953
 21
-93.45186498061139
 31
0.0
  0
LINE
  5
14DA2
  8
01
 10
934.4701439279953
 20
-93.45186498061139
 30
0.0
 11
934.5959528002625
 21
-93.5121603929556
 31
0.0
  0
LINE
  5
14DA3
  8
01
 10
934.5959528002625
 20
-93.5121603929556
 30
0.0
 11
934.7237510799622
 21
-93.569702019322
 31
0.0
  0
LINE
  5
14DA4
  8
01
 10
934.7237510799622
 20
-93.569702019322
 30
0.0
 11
934.8535449871104
 21
-93.62447013936435
 31
0.0
  0
LINE
  5
14DA5
  8
01
 10
934.8535449871104
 20
-93.62447013936435
 30
0.0
 11
934.985340741723
 21
-93.67644503273641
 31
0.0
  0
LINE
  5
14DA6
  8
01
 10
934.985340741723
 20
-93.67644503273641
 30
0.0
 11
935.1191445638159
 21
-93.72560697909375
 31
0.0
  0
LINE
  5
14DA7
  8
01
 10
935.1191445638159
 20
-93.72560697909375
 30
0.0
 11
935.2549626734051
 21
-93.77193625809014
 31
0.0
  0
LINE
  5
14DA8
  8
01
 10
935.2549626734051
 20
-93.77193625809014
 30
0.0
 11
935.3928012905063
 21
-93.81541314938022
 31
0.0
  0
LINE
  5
14DA9
  8
01
 10
935.3928012905063
 20
-93.81541314938022
 30
0.0
 11
935.5326666351357
 21
-93.85601793261958
 31
0.0
  0
LINE
  5
14DAA
  8
01
 10
935.5326666351357
 20
-93.85601793261958
 30
0.0
 11
935.674564927309
 21
-93.89373088746106
 31
0.0
  0
LINE
  5
14DAB
  8
01
 10
935.674564927309
 20
-93.89373088746106
 30
0.0
 11
935.8185023870421
 21
-93.92853229356115
 31
0.0
  0
LINE
  5
14DAC
  8
01
 10
935.8185023870421
 20
-93.92853229356115
 30
0.0
 11
935.9644852343511
 21
-93.96040243057269
 31
0.0
  0
LINE
  5
14DAD
  8
01
 10
935.9644852343511
 20
-93.96040243057269
 30
0.0
 11
936.1125196892517
 21
-93.98932157815034
 31
0.0
  0
LINE
  5
14DAE
  8
01
 10
936.1125196892517
 20
-93.98932157815034
 30
0.0
 11
936.26261197176
 21
-94.01527001594968
 31
0.0
  0
LINE
  5
14DAF
  8
01
 10
936.26261197176
 20
-94.01527001594968
 30
0.0
 11
936.4147683018916
 21
-94.03822802362447
 31
0.0
  0
LINE
  5
14DB0
  8
01
 10
936.4147683018916
 20
-94.03822802362447
 30
0.0
 11
936.5689948996628
 21
-94.05817588082937
 31
0.0
  0
LINE
  5
14DB1
  8
01
 10
936.5689948996628
 20
-94.05817588082937
 30
0.0
 11
936.7252979850894
 21
-94.07509386721904
 31
0.0
  0
LINE
  5
14DB2
  8
01
 10
936.7252979850894
 20
-94.07509386721904
 30
0.0
 11
936.8836837781871
 21
-94.08896226244724
 31
0.0
  0
LINE
  5
14DB3
  8
01
 10
936.8836837781871
 20
-94.08896226244724
 30
0.0
 11
937.0441584989721
 21
-94.09976134616954
 31
0.0
  0
LINE
  5
14DB6
  8
01
 10
945.5418970763945
 20
-87.11354704971382
 30
0.0
 11
931.775777655594
 21
-87.11354704971382
 31
0.0
  0
LINE
  5
14DB7
  8
01
 10
1198.078384055977
 20
-87.11354704971382
 30
0.0
 11
1211.843518171415
 21
-87.11354704971382
 31
0.0
  0
LINE
  5
14DB9
  8
01
 10
1198.077393778034
 20
-87.11354704971382
 30
0.0
 11
945.5419005202377
 21
-87.11354704971382
 31
0.0
  0
ARC
  5
14DBB
  8
01
 10
1211.843526957353
 20
-88.1136155515378
 30
0.0
 40
1.000068459828323
 50
345.0283943066535
 51
89.99189205654591
  0
ARC
  5
14DBC
  8
01
 10
931.7757685351892
 20
-88.11361659909562
 30
0.0
 40
1.00006950560951
 50
90.00844326677002
 51
194.9715275456861
  0
LINE
  5
14DC0
  8
01
 10
937.5932283924418
 20
-94.11354704971382
 30
0.0
 11
1206.079534543371
 21
-94.11354704971382
 31
0.0
  0
LINE
  5
14E0A
  8
01
 10
937.0441584989721
 20
-94.09976134616954
 30
0.0
 11
937.5932283924418
 21
-94.11354704971382
 31
0.0
  0
LINE
  5
14E0B
  8
01
 10
1206.247894526379
 20
-94.11207269771057
 30
0.0
 11
1206.079534543371
 21
-94.11354704971382
 31
0.0
  0
LINE
  5
14E0C
  8
1CENTER
 10
1091.551516428971
 20
-100.3854581120231
 30
0.0
 11
1098.067716428971
 21
-100.3854581120231
 31
0.0
  0
LINE
  5
14E0D
  8
1CENTER
 10
1094.809647149136
 20
-103.643578774143
 30
0.0
 11
1094.809647149136
 21
-97.12737877414384
 31
0.0
  0
LINE
  5
14E0E
  8
1CENTER
 10
1052.067777869301
 20
-100.3854581120231
 30
0.0
 11
1045.551577869301
 21
-100.3854581120231
 31
0.0
  0
LINE
  5
14E0F
  8
1CENTER
 10
1048.809647149136
 20
-103.643578774143
 30
0.0
 11
1048.809647149136
 21
-97.12737877414384
 31
0.0
  0
LINE
  5
14FEC
  8
01
 10
561.501278958717
 20
-104.6354581120231
 30
0.0
 11
561.5012788108838
 21
-96.13545808505764
 31
0.0
  0
LINE
  5
150D9
  8
01
 10
1101.509667118616
 20
60.60189252886357
 30
0.0
 11
1079.719067185112
 21
60.60189476698451
 31
0.0
  0
ARC
  5
150DA
  8
01
 10
1101.509667081158
 20
60.30189252794935
 30
0.0
 40
0.3000000000013642
 50
33.17579766518597
 51
56.82419525857568
  0
ARC
  5
150DB
  8
01
 10
1042.109667081159
 20
60.30189862916541
 30
0.0
 40
0.3000000000003456
 50
123.1757956143854
 51
146.8241973091748
  0
ARC
  5
150DC
  8
01
 10
1197.756549006433
 20
-27.07543973319935
 30
0.0
 40
15.09069935667995
 50
271.2547530293219
 51
358.7452469854027
  0
ARC
  5
150DD
  8
01
 10
1197.756549006432
 20
42.81832419146849
 30
0.0
 40
15.0906993566806
 50
1.254753014597246
 51
88.74524697067808
  0
ARC
  5
150DE
  8
01
 10
945.8642472803062
 20
42.81686199310934
 30
0.0
 40
15.09219328857916
 50
91.26018120222223
 51
178.7398188042801
  0
ARC
  5
150DF
  8
01
 10
945.8627850840982
 20
-27.07543973319935
 30
0.0
 40
15.09069935667979
 50
181.2547530145972
 51
268.7452469706781
  0
LINE
  5
150E0
  8
01
 10
1198.086736800449
 20
-42.16251548456148
 30
0.0
 11
945.5325629260224
 21
-42.16251821768947
 31
0.0
  0
LINE
  5
150E1
  8
01
 10
1212.843641191534
 20
43.14854503299284
 30
0.0
 11
1212.843622027244
 21
-27.40566417462287
 31
0.0
  0
LINE
  5
150E2
  8
01
 10
930.77571229293
 20
-27.40566414797831
 30
0.0
 11
930.77569371969
 21
43.14854482643295
 31
0.0
  0
LINE
  5
150E3
  8
01
 10
945.5325971368787
 20
57.90540721373873
 30
0.0
 11
1198.086736511078
 21
57.90540411516758
 31
0.0
  0
LINE
  5
150E4
  8
01
 10
1101.809666443944
 20
57.87144222870302
 30
0.0
 11
1101.809666374981
 21
58.20524856811062
 31
0.0
  0
LINE
  5
150E5
  8
01
 10
1041.809667787337
 20
58.20524856811062
 30
0.0
 11
1041.809667718374
 21
57.87144222843835
 31
0.0
  0
LINE
  5
150E6
  8
01
 10
1042.109667081159
 20
57.96579808332717
 30
0.0
 11
1042.109667081159
 21
57.87144222844836
 31
0.0
  0
LINE
  5
150E7
  8
01
 10
1101.509667081159
 20
57.9657980833299
 30
0.0
 11
1042.109667081159
 21
57.96579808332717
 31
0.0
  0
LINE
  5
150E8
  8
01
 10
1101.509667081159
 20
57.87144222870938
 30
0.0
 11
1101.509667081159
 21
57.9657980833299
 31
0.0
  0
LINE
  5
150E9
  8
01
 10
1042.109667115895
 20
60.60189862916559
 30
0.0
 11
1079.719067185112
 21
60.60189476615142
 31
0.0
  0
LINE
  5
150EA
  8
01
 10
1041.809667081159
 20
60.30189862916632
 30
0.0
 11
1041.809667800948
 21
58.2586080478186
 31
0.0
  0
LINE
  5
150EB
  8
01
 10
1101.80966636137
 20
58.2586080478186
 30
0.0
 11
1101.809667081159
 21
60.30189252795026
 31
0.0
  0
ARC
  5
150EC
  8
01
 10
1042.109667078799
 20
60.3018986320767
 30
0.0
 40
0.2999999970887758
 50
89.99999291505705
 51
123.1757957799309
  0
ARC
  5
150ED
  8
01
 10
1042.109667081086
 20
60.30189863044598
 30
0.0
 40
0.2999999999270386
 50
146.8241975922546
 51
180.0000002443969
  0
ARC
  5
150EE
  8
01
 10
1042.106408996119
 20
58.26254754231559
 30
0.0
 40
0.2967673441069294
 50
180.7606060514879
 51
270.6290391309845
  0
ARC
  5
150EF
  8
01
 10
1101.512923178161
 20
58.26255091552321
 30
0.0
 40
0.2967706952895708
 50
269.3713518145218
 51
359.2195379588764
  0
ARC
  5
150F0
  8
01
 10
1101.509667081159
 20
60.30189252795026
 30
0.0
 40
0.30000000000044
 50
0.0
 51
33.17579766488066
  0
ARC
  5
150F1
  8
01
 10
1101.509667081159
 20
60.30189252795026
 30
0.0
 40
0.3000000000005821
 50
56.82419525854332
 51
89.99999292356404
  0
LINE
  5
150F2
  8
01
 10
1198.06772447855
 20
-40.19633711995721
 30
0.0
 11
945.5516097454522
 21
-40.19633670503754
 31
0.0
  0
ARC
  5
150F3
  8
01
 10
945.7918386870763
 20
-27.14638413549255
 30
0.0
 40
13.05216349927345
 50
181.0546955118029
 51
268.9453946312512
  0
LINE
  5
150F4
  8
01
 10
932.741645174795
 20
43.1294976900017
 30
0.0
 11
932.7418864954981
 21
-27.38663360851569
 31
0.0
  0
ARC
  5
150F5
  8
01
 10
945.7928620570248
 20
42.88808280305966
 30
0.0
 40
13.05344947723145
 50
91.05898701280704
 51
178.9402921580716
  0
LINE
  5
150F6
  8
01
 10
1198.067722457705
 20
55.9392977245916
 30
0.0
 11
945.5516113653918
 21
55.93930272145826
 31
0.0
  0
ARC
  5
150F7
  8
01
 10
1197.827464232222
 20
42.88907434861721
 30
0.0
 40
13.0524347988314
 50
1.055435883203643
 51
88.94528798604577
  0
LINE
  5
150F8
  8
01
 10
1210.877684571757
 20
43.12949744932303
 30
0.0
 11
1210.877454132041
 21
-27.38663444187205
 31
0.0
  0
ARC
  5
150F9
  8
01
 10
1197.826507707162
 20
-27.14539018708092
 30
0.0
 40
13.0531759114612
 50
271.0588602939758
 51
358.9410190494142
  0
ARC
  5
150FE
  8
01
 10
1048.309647149136
 20
-34.62855777086497
 30
0.0
 40
1.5
 50
90.0
 51
270.0
  0
ARC
  5
150FF
  8
01
 10
1095.309647149136
 20
-34.62855777086497
 30
0.0
 40
1.499999999999999
 50
270.0
 51
90.0
  0
LINE
  5
15100
  8
01
 10
1095.309647149136
 20
-33.12855777086497
 30
0.0
 11
1048.309647149136
 21
-33.12855777086497
 31
0.0
  0
LINE
  5
15101
  8
01
 10
1095.309647149136
 20
-36.12855777086497
 30
0.0
 11
1048.309647149136
 21
-36.12855777086497
 31
0.0
  0
LINE
  5
15103
  8
01
 10
1073.864842680335
 20
50.95170717267411
 30
0.0
 11
1074.760602991875
 21
48.94926236297306
 31
0.0
  0
LINE
  5
15104
  8
01
 10
1075.788302166987
 20
50.95168492328776
 30
0.0
 11
1075.310162845204
 21
50.95168492328776
 31
0.0
  0
LINE
  5
15105
  8
01
 10
1074.211265632413
 20
50.95168492328776
 30
0.0
 11
1073.864842680335
 21
50.95168492328776
 31
0.0
  0
LINE
  5
15106
  8
01
 10
1072.46847116637
 20
50.95168492328776
 30
0.0
 11
1072.122048214292
 21
50.95168492328776
 31
0.0
  0
LINE
  5
15110
  8
01
 10
1091.009647149136
 20
56.60189321702521
 30
0.0
 11
1091.009647149136
 21
57.60189321702521
 31
0.0
  0
LINE
  5
15111
  8
01
 10
1091.009647149136
 20
57.60189321702521
 30
0.0
 11
1098.609647149136
 21
57.60189321702521
 31
0.0
  0
LINE
  5
15112
  8
01
 10
1091.009647149136
 20
56.60189321702521
 30
0.0
 11
1098.609647149136
 21
56.60189321702521
 31
0.0
  0
LINE
  5
15113
  8
01
 10
1094.809600616343
 20
91.60189321686286
 30
0.0
 11
1096.309600616343
 21
86.30189670700119
 31
0.0
  0
LINE
  5
15114
  8
01
 10
1096.309600616343
 20
86.30189670700119
 30
0.0
 11
1096.309600616342
 21
57.60189670699348
 31
0.0
  0
LINE
  5
15115
  8
01
 10
1094.809600616343
 20
91.60189321686286
 30
0.0
 11
1093.309600616342
 21
86.30188972661753
 31
0.0
  0
LINE
  5
15116
  8
01
 10
1098.30964715224
 20
56.60190136080738
 30
0.0
 11
1091.30964715224
 21
56.60188507324305
 31
0.0
  0
LINE
  5
15117
  8
01
 10
1093.309600616342
 20
86.30188972661753
 30
0.0
 11
1093.309600616342
 21
57.60189321702521
 31
0.0
  0
LINE
  5
15118
  8
01
 10
1098.30964715224
 20
56.60190136080738
 30
0.0
 11
1098.30964715224
 21
55.50189787061206
 31
0.0
  0
ARC
  5
15119
  8
01
 10
1096.80964715224
 20
55.50189787061206
 30
0.0
 40
1.5
 50
270.0001333155316
 51
0.0
  0
LINE
  5
1511A
  8
01
 10
1091.30964715224
 20
56.60188507324305
 30
0.0
 11
1091.30964715224
 21
55.50188856343247
 31
0.0
  0
LINE
  5
1511B
  8
01
 10
1096.809650642433
 20
54.00189787061615
 30
0.0
 11
1092.809650642433
 21
54.0018885634365
 31
0.0
  0
ARC
  5
1511C
  8
01
 10
1092.80964715224
 20
55.50188856343247
 30
0.0
 40
1.5
 50
180.0
 51
270.0001333155316
  0
LINE
  5
1511D
  8
1CENTER
 10
1094.80964715224
 20
93.03268813432825
 30
0.0
 11
1094.80964715224
 21
52.93161680771639
 31
0.0
  0
LINE
  5
1511E
  8
01
 10
1095.903970966235
 20
89.50189576318505
 30
0.0
 11
1093.94163587736
 21
90.30189119723602
 31
0.0
  0
LINE
  5
1511F
  8
01
 10
1093.94163587736
 20
90.30189119723602
 30
0.0
 11
1094.529912452402
 21
90.61366105348813
 31
0.0
  0
LINE
  5
15120
  8
01
 10
1096.809600616343
 20
67.10189787039505
 30
0.0
 11
1092.809600616343
 21
67.9018885632133
 31
0.0
  0
LINE
  5
15121
  8
01
 10
1096.809600616343
 20
78.30189787039942
 30
0.0
 11
1092.809600616343
 21
79.10188856322199
 31
0.0
  0
LINE
  5
15122
  8
01
 10
1096.809600616343
 20
81.50189787039946
 30
0.0
 11
1092.809600616343
 21
82.30188856322204
 31
0.0
  0
LINE
  5
15123
  8
01
 10
1092.809600616343
 20
82.30188856322204
 30
0.0
 11
1093.309600616343
 21
82.40188972661926
 31
0.0
  0
LINE
  5
15124
  8
01
 10
1096.309600616343
 20
83.00189670700226
 30
0.0
 11
1096.809600616343
 21
83.10189787039948
 31
0.0
  0
LINE
  5
15125
  8
01
 10
1092.809600616343
 20
79.10188856322199
 30
0.0
 11
1093.309600616343
 21
79.20188972661921
 31
0.0
  0
LINE
  5
15126
  8
01
 10
1092.809600616343
 20
80.70188856322213
 30
0.0
 11
1093.309600616343
 21
80.80188972661924
 31
0.0
  0
LINE
  5
15127
  8
01
 10
1096.309600616343
 20
81.40189670700235
 30
0.0
 11
1096.809600616343
 21
81.50189787039946
 31
0.0
  0
LINE
  5
15128
  8
01
 10
1096.309600616343
 20
79.80189670700244
 30
0.0
 11
1096.809600616343
 21
79.90189787039955
 31
0.0
  0
LINE
  5
15129
  8
01
 10
1096.809600616343
 20
79.90189787039955
 30
0.0
 11
1092.809600616343
 21
80.70188856322213
 31
0.0
  0
LINE
  5
1512A
  8
01
 10
1093.488821772953
 20
88.70189014363038
 30
0.0
 11
1094.040571236756
 21
88.88465428625838
 31
0.0
  0
LINE
  5
1512B
  8
01
 10
1092.809600616343
 20
85.50188856322208
 30
0.0
 11
1093.309600616343
 21
85.60188972661919
 31
0.0
  0
LINE
  5
1512C
  8
01
 10
1092.809600616343
 20
83.90188856322206
 30
0.0
 11
1093.309600616343
 21
84.00188972661905
 31
0.0
  0
LINE
  5
1512D
  8
01
 10
1093.036007668547
 20
87.10188909002474
 30
0.0
 11
1093.572601403818
 21
87.2311597876546
 31
0.0
  0
LINE
  5
1512E
  8
01
 10
1095.888686019134
 20
87.78912730443923
 30
0.0
 11
1096.356784474284
 21
87.90189681678928
 31
0.0
  0
LINE
  5
1512F
  8
01
 10
1096.309600616343
 20
84.6018967070024
 30
0.0
 11
1096.809600616343
 21
84.7018978703995
 31
0.0
  0
LINE
  5
15130
  8
01
 10
1096.309600616343
 20
86.2018967070023
 30
0.0
 11
1096.809600616343
 21
86.30189787039942
 31
0.0
  0
LINE
  5
15131
  8
01
 10
1095.446799125604
 20
89.35045996674464
 30
0.0
 11
1095.903970966235
 21
89.50189576318505
 31
0.0
  0
LINE
  5
15132
  8
01
 10
1096.356784474284
 20
87.90189681678928
 30
0.0
 11
1093.488821772953
 21
88.70189014363038
 31
0.0
  0
LINE
  5
15133
  8
01
 10
1096.809600616343
 20
84.7018978703995
 30
0.0
 11
1092.809600616343
 21
85.50188856322208
 31
0.0
  0
LINE
  5
15134
  8
01
 10
1096.809600616343
 20
86.30189787039942
 30
0.0
 11
1093.036007668547
 21
87.10188909002474
 31
0.0
  0
LINE
  5
15135
  8
01
 10
1096.809600616343
 20
83.10189787039948
 30
0.0
 11
1092.809600616343
 21
83.90188856322206
 31
0.0
  0
LINE
  5
15136
  8
01
 10
1096.809600616343
 20
70.3018978703951
 30
0.0
 11
1092.809600616343
 21
71.10188856321335
 31
0.0
  0
LINE
  5
15137
  8
01
 10
1092.809600616343
 20
71.10188856321335
 30
0.0
 11
1093.309600616343
 21
71.20188972661103
 31
0.0
  0
LINE
  5
15138
  8
01
 10
1096.309600616343
 20
71.80189670700176
 30
0.0
 11
1096.809600616343
 21
71.90189787039944
 31
0.0
  0
LINE
  5
15139
  8
01
 10
1092.809600616343
 20
69.50188856321321
 30
0.0
 11
1093.309600616343
 21
69.60188972661089
 31
0.0
  0
LINE
  5
1513A
  8
01
 10
1092.809600616343
 20
67.9018885632133
 30
0.0
 11
1093.309600616343
 21
68.00188972661098
 31
0.0
  0
LINE
  5
1513B
  8
01
 10
1096.309600616343
 20
70.20189670699742
 30
0.0
 11
1096.809600616343
 21
70.3018978703951
 31
0.0
  0
LINE
  5
1513C
  8
01
 10
1096.309600616343
 20
68.60189670699728
 30
0.0
 11
1096.809600616343
 21
68.70189787039496
 31
0.0
  0
LINE
  5
1513D
  8
01
 10
1096.809600616343
 20
68.70189787039496
 30
0.0
 11
1092.809600616343
 21
69.50188856321321
 31
0.0
  0
LINE
  5
1513E
  8
01
 10
1092.809600616343
 20
75.90188856321774
 30
0.0
 11
1093.309600616343
 21
76.00188972661542
 31
0.0
  0
LINE
  5
1513F
  8
01
 10
1092.809600616343
 20
77.50188856322208
 30
0.0
 11
1093.309600616343
 21
77.60188972661919
 31
0.0
  0
LINE
  5
15140
  8
01
 10
1092.809600616343
 20
72.7018885632177
 30
0.0
 11
1093.309600616343
 21
72.80188972661537
 31
0.0
  0
LINE
  5
15141
  8
01
 10
1092.809600616343
 20
74.3018885632176
 30
0.0
 11
1093.309600616343
 21
74.40188972661528
 31
0.0
  0
LINE
  5
15142
  8
01
 10
1096.309600616343
 20
78.2018967070023
 30
0.0
 11
1096.809600616343
 21
78.30189787039942
 31
0.0
  0
LINE
  5
15143
  8
01
 10
1096.309600616343
 20
76.60189670700171
 30
0.0
 11
1096.809600616343
 21
76.7018978703995
 31
0.0
  0
LINE
  5
15144
  8
01
 10
1096.309600616343
 20
73.40189670700167
 30
0.0
 11
1096.809600616343
 21
73.50189787039935
 31
0.0
  0
LINE
  5
15145
  8
01
 10
1096.309600616343
 20
75.0018967070018
 30
0.0
 11
1096.809600616343
 21
75.10189787039948
 31
0.0
  0
LINE
  5
15146
  8
01
 10
1096.809600616343
 20
75.10189787039948
 30
0.0
 11
1092.809600616343
 21
75.90188856321774
 31
0.0
  0
LINE
  5
15147
  8
01
 10
1096.809600616343
 20
76.7018978703995
 30
0.0
 11
1092.809600616343
 21
77.50188856322208
 31
0.0
  0
LINE
  5
15148
  8
01
 10
1096.809600616343
 20
73.50189787039935
 30
0.0
 11
1092.809600616343
 21
74.3018885632176
 31
0.0
  0
LINE
  5
15149
  8
01
 10
1096.809600616343
 20
71.90189787039944
 30
0.0
 11
1092.809600616343
 21
72.7018885632177
 31
0.0
  0
LINE
  5
1514A
  8
01
 10
1096.309600616343
 20
62.20189670699321
 30
0.0
 11
1096.809600616343
 21
62.30189787039089
 31
0.0
  0
LINE
  5
1514B
  8
01
 10
1096.809600616343
 20
62.30189787039089
 30
0.0
 11
1092.809600616343
 21
63.10188856320914
 31
0.0
  0
LINE
  5
1514C
  8
01
 10
1092.809600616343
 20
63.10188856320914
 30
0.0
 11
1093.309600616343
 21
63.20188972660682
 31
0.0
  0
LINE
  5
1514D
  8
01
 10
1096.309600616343
 20
63.80189670699312
 30
0.0
 11
1096.809600616343
 21
63.9018978703908
 31
0.0
  0
LINE
  5
1514E
  8
01
 10
1096.309600616343
 20
65.40189670699303
 30
0.0
 11
1096.809600616343
 21
65.5018978703907
 31
0.0
  0
LINE
  5
1514F
  8
01
 10
1096.809600616343
 20
65.5018978703907
 30
0.0
 11
1092.809600616343
 21
66.30188856320896
 31
0.0
  0
LINE
  5
15150
  8
01
 10
1092.809600616343
 20
64.70188856320905
 30
0.0
 11
1093.309600616343
 21
64.80188972660673
 31
0.0
  0
LINE
  5
15151
  8
01
 10
1092.809600616343
 20
66.30188856320896
 30
0.0
 11
1093.309600616343
 21
66.40188972660664
 31
0.0
  0
LINE
  5
15152
  8
01
 10
1096.809600616343
 20
63.9018978703908
 30
0.0
 11
1092.809600616343
 21
64.70188856320905
 31
0.0
  0
LINE
  5
15153
  8
01
 10
1096.309600616343
 20
67.00189670699737
 30
0.0
 11
1096.809600616343
 21
67.10189787039505
 31
0.0
  0
LINE
  5
15154
  8
01
 10
1096.309600616343
 20
60.60189670699331
 30
0.0
 11
1096.809600616343
 21
60.70189787039099
 31
0.0
  0
LINE
  5
15155
  8
01
 10
1096.809600616343
 20
60.70189787039099
 30
0.0
 11
1092.809600616343
 21
61.50188856320923
 31
0.0
  0
LINE
  5
15156
  8
01
 10
1092.809600616343
 20
61.50188856320923
 30
0.0
 11
1093.309600616343
 21
61.60188972660691
 31
0.0
  0
LINE
  5
15157
  8
01
 10
1096.309600616343
 20
59.0018967069934
 30
0.0
 11
1096.809600616343
 21
59.10189787039108
 31
0.0
  0
LINE
  5
15158
  8
01
 10
1096.809600616343
 20
59.10189787039108
 30
0.0
 11
1092.809600616343
 21
59.90188856320928
 31
0.0
  0
LINE
  5
15159
  8
01
 10
1092.809600616343
 20
59.90188856320928
 30
0.0
 11
1093.309600616343
 21
60.00188972660695
 31
0.0
  0
LINE
  5
1515A
  8
01
 10
1096.309618066387
 20
57.60189321702521
 30
0.0
 11
1092.809600616343
 21
58.30188856320937
 31
0.0
  0
LINE
  5
1515B
  8
01
 10
1092.809600616343
 20
58.30188856320937
 30
0.0
 11
1093.309600616343
 21
58.40188972660705
 31
0.0
  0
LINE
  5
1515C
  8
01
 10
1098.609647155345
 20
56.60189321702521
 30
0.0
 11
1098.609647155345
 21
57.60189321702521
 31
0.0
  0
LINE
  5
1515D
  8
01
 10
1052.60968649882
 20
56.60189321702521
 30
0.0
 11
1052.60968649882
 21
57.60189321702521
 31
0.0
  0
LINE
  5
1515E
  8
01
 10
1052.60968649882
 20
57.60189321702521
 30
0.0
 11
1045.00968649882
 21
57.60189321702521
 31
0.0
  0
LINE
  5
1515F
  8
01
 10
1052.60968649882
 20
56.60189321702521
 30
0.0
 11
1045.00968649882
 21
56.60189321702521
 31
0.0
  0
LINE
  5
15160
  8
01
 10
1048.809733031614
 20
91.60189321686286
 30
0.0
 11
1047.309733031614
 21
86.30189670700119
 31
0.0
  0
LINE
  5
15161
  8
01
 10
1047.309733031614
 20
86.30189670700119
 30
0.0
 11
1047.309733031614
 21
57.60189670699348
 31
0.0
  0
LINE
  5
15162
  8
01
 10
1048.809733031614
 20
91.60189321686286
 30
0.0
 11
1050.309733031614
 21
86.30188972661753
 31
0.0
  0
LINE
  5
15163
  8
01
 10
1045.309686495716
 20
56.60190136080738
 30
0.0
 11
1052.309686495716
 21
56.60188507324305
 31
0.0
  0
LINE
  5
15164
  8
01
 10
1050.309733031614
 20
86.30188972661753
 30
0.0
 11
1050.309733031614
 21
57.60189321702521
 31
0.0
  0
LINE
  5
15165
  8
01
 10
1045.309686495716
 20
56.60190136080738
 30
0.0
 11
1045.309686495716
 21
55.50189787061206
 31
0.0
  0
ARC
  5
15166
  8
01
 10
1046.809686495716
 20
55.50189787061206
 30
0.0
 40
1.5
 50
180.0
 51
269.9998666844684
  0
LINE
  5
15167
  8
01
 10
1052.309686495716
 20
56.60188507324305
 30
0.0
 11
1052.309686495716
 21
55.50188856343247
 31
0.0
  0
LINE
  5
15168
  8
01
 10
1046.809683005524
 20
54.00189787061615
 30
0.0
 11
1050.809683005524
 21
54.0018885634365
 31
0.0
  0
ARC
  5
15169
  8
01
 10
1050.809686495716
 20
55.50188856343247
 30
0.0
 40
1.5
 50
269.9998666844684
 51
0.000000000000007
  0
LINE
  5
1516A
  8
1CENTER
 10
1048.809686495716
 20
93.03268813432825
 30
0.0
 11
1048.809686495716
 21
52.93161680771639
 31
0.0
  0
LINE
  5
1516B
  8
01
 10
1047.715362681721
 20
89.50189576318505
 30
0.0
 11
1049.677697770597
 21
90.30189119723602
 31
0.0
  0
LINE
  5
1516C
  8
01
 10
1049.677697770597
 20
90.30189119723602
 30
0.0
 11
1049.089421195554
 21
90.61366105348813
 31
0.0
  0
LINE
  5
1516D
  8
01
 10
1046.809733031614
 20
67.10189787039505
 30
0.0
 11
1050.809733031614
 21
67.9018885632133
 31
0.0
  0
LINE
  5
1516E
  8
01
 10
1046.809733031614
 20
78.30189787039942
 30
0.0
 11
1050.809733031614
 21
79.10188856322199
 31
0.0
  0
LINE
  5
1516F
  8
01
 10
1046.809733031614
 20
81.50189787039946
 30
0.0
 11
1050.809733031614
 21
82.30188856322204
 31
0.0
  0
LINE
  5
15170
  8
01
 10
1050.809733031614
 20
82.30188856322204
 30
0.0
 11
1050.309733031614
 21
82.40188972661926
 31
0.0
  0
LINE
  5
15171
  8
01
 10
1047.309733031614
 20
83.00189670700226
 30
0.0
 11
1046.809733031614
 21
83.10189787039948
 31
0.0
  0
LINE
  5
15172
  8
01
 10
1050.809733031614
 20
79.10188856322199
 30
0.0
 11
1050.309733031614
 21
79.20188972661921
 31
0.0
  0
LINE
  5
15173
  8
01
 10
1050.809733031614
 20
80.70188856322213
 30
0.0
 11
1050.309733031614
 21
80.80188972661924
 31
0.0
  0
LINE
  5
15174
  8
01
 10
1047.309733031614
 20
81.40189670700235
 30
0.0
 11
1046.809733031614
 21
81.50189787039946
 31
0.0
  0
LINE
  5
15175
  8
01
 10
1047.309733031614
 20
79.80189670700244
 30
0.0
 11
1046.809733031614
 21
79.90189787039955
 31
0.0
  0
LINE
  5
15176
  8
01
 10
1046.809733031614
 20
79.90189787039955
 30
0.0
 11
1050.809733031614
 21
80.70188856322213
 31
0.0
  0
LINE
  5
15177
  8
01
 10
1050.130511875003
 20
88.70189014363038
 30
0.0
 11
1049.5787624112
 21
88.88465428625838
 31
0.0
  0
LINE
  5
15178
  8
01
 10
1050.809733031614
 20
85.50188856322208
 30
0.0
 11
1050.309733031614
 21
85.60188972661919
 31
0.0
  0
LINE
  5
15179
  8
01
 10
1050.809733031614
 20
83.90188856322206
 30
0.0
 11
1050.309733031614
 21
84.00188972661905
 31
0.0
  0
LINE
  5
1517A
  8
01
 10
1050.58332597941
 20
87.10188909002474
 30
0.0
 11
1050.046732244139
 21
87.2311597876546
 31
0.0
  0
LINE
  5
1517B
  8
01
 10
1047.730647628823
 20
87.78912730443923
 30
0.0
 11
1047.262549173673
 21
87.90189681678928
 31
0.0
  0
LINE
  5
1517C
  8
01
 10
1047.309733031614
 20
84.6018967070024
 30
0.0
 11
1046.809733031614
 21
84.7018978703995
 31
0.0
  0
LINE
  5
1517D
  8
01
 10
1047.309733031614
 20
86.2018967070023
 30
0.0
 11
1046.809733031614
 21
86.30189787039942
 31
0.0
  0
LINE
  5
1517E
  8
01
 10
1048.172534522352
 20
89.35045996674464
 30
0.0
 11
1047.715362681721
 21
89.50189576318505
 31
0.0
  0
LINE
  5
1517F
  8
01
 10
1047.262549173673
 20
87.90189681678928
 30
0.0
 11
1050.130511875003
 21
88.70189014363038
 31
0.0
  0
LINE
  5
15180
  8
01
 10
1046.809733031614
 20
84.7018978703995
 30
0.0
 11
1050.809733031614
 21
85.50188856322208
 31
0.0
  0
LINE
  5
15181
  8
01
 10
1046.809733031614
 20
86.30189787039942
 30
0.0
 11
1050.58332597941
 21
87.10188909002474
 31
0.0
  0
LINE
  5
15182
  8
01
 10
1046.809733031614
 20
83.10189787039948
 30
0.0
 11
1050.809733031614
 21
83.90188856322206
 31
0.0
  0
LINE
  5
15183
  8
01
 10
1046.809733031614
 20
70.3018978703951
 30
0.0
 11
1050.809733031614
 21
71.10188856321335
 31
0.0
  0
LINE
  5
15184
  8
01
 10
1050.809733031614
 20
71.10188856321335
 30
0.0
 11
1050.309733031614
 21
71.20188972661103
 31
0.0
  0
LINE
  5
15185
  8
01
 10
1047.309733031614
 20
71.80189670700176
 30
0.0
 11
1046.809733031614
 21
71.90189787039944
 31
0.0
  0
LINE
  5
15186
  8
01
 10
1050.809733031614
 20
69.50188856321321
 30
0.0
 11
1050.309733031614
 21
69.60188972661089
 31
0.0
  0
LINE
  5
15187
  8
01
 10
1050.809733031614
 20
67.9018885632133
 30
0.0
 11
1050.309733031614
 21
68.00188972661098
 31
0.0
  0
LINE
  5
15188
  8
01
 10
1047.309733031614
 20
70.20189670699742
 30
0.0
 11
1046.809733031614
 21
70.3018978703951
 31
0.0
  0
LINE
  5
15189
  8
01
 10
1047.309733031614
 20
68.60189670699728
 30
0.0
 11
1046.809733031614
 21
68.70189787039496
 31
0.0
  0
LINE
  5
1518A
  8
01
 10
1046.809733031614
 20
68.70189787039496
 30
0.0
 11
1050.809733031614
 21
69.50188856321321
 31
0.0
  0
LINE
  5
1518B
  8
01
 10
1050.809733031614
 20
75.90188856321774
 30
0.0
 11
1050.309733031614
 21
76.00188972661542
 31
0.0
  0
LINE
  5
1518C
  8
01
 10
1050.809733031614
 20
77.50188856322208
 30
0.0
 11
1050.309733031614
 21
77.60188972661919
 31
0.0
  0
LINE
  5
1518D
  8
01
 10
1050.809733031614
 20
72.7018885632177
 30
0.0
 11
1050.309733031614
 21
72.80188972661537
 31
0.0
  0
LINE
  5
1518E
  8
01
 10
1050.809733031614
 20
74.3018885632176
 30
0.0
 11
1050.309733031614
 21
74.40188972661528
 31
0.0
  0
LINE
  5
1518F
  8
01
 10
1047.309733031614
 20
78.2018967070023
 30
0.0
 11
1046.809733031614
 21
78.30189787039942
 31
0.0
  0
LINE
  5
15190
  8
01
 10
1047.309733031614
 20
76.60189670700171
 30
0.0
 11
1046.809733031614
 21
76.7018978703995
 31
0.0
  0
LINE
  5
15191
  8
01
 10
1047.309733031614
 20
73.40189670700167
 30
0.0
 11
1046.809733031614
 21
73.50189787039935
 31
0.0
  0
LINE
  5
15192
  8
01
 10
1047.309733031614
 20
75.0018967070018
 30
0.0
 11
1046.809733031614
 21
75.10189787039948
 31
0.0
  0
LINE
  5
15193
  8
01
 10
1046.809733031614
 20
75.10189787039948
 30
0.0
 11
1050.809733031614
 21
75.90188856321774
 31
0.0
  0
LINE
  5
15194
  8
01
 10
1046.809733031614
 20
76.7018978703995
 30
0.0
 11
1050.809733031614
 21
77.50188856322208
 31
0.0
  0
LINE
  5
15195
  8
01
 10
1046.809733031614
 20
73.50189787039935
 30
0.0
 11
1050.809733031614
 21
74.3018885632176
 31
0.0
  0
LINE
  5
15196
  8
01
 10
1046.809733031614
 20
71.90189787039944
 30
0.0
 11
1050.809733031614
 21
72.7018885632177
 31
0.0
  0
LINE
  5
15197
  8
01
 10
1047.309733031614
 20
62.20189670699321
 30
0.0
 11
1046.809733031614
 21
62.30189787039089
 31
0.0
  0
LINE
  5
15198
  8
01
 10
1046.809733031614
 20
62.30189787039089
 30
0.0
 11
1050.809733031614
 21
63.10188856320914
 31
0.0
  0
LINE
  5
15199
  8
01
 10
1050.809733031614
 20
63.10188856320914
 30
0.0
 11
1050.309733031614
 21
63.20188972660682
 31
0.0
  0
LINE
  5
1519A
  8
01
 10
1047.309733031614
 20
63.80189670699312
 30
0.0
 11
1046.809733031614
 21
63.9018978703908
 31
0.0
  0
LINE
  5
1519B
  8
01
 10
1047.309733031614
 20
65.40189670699303
 30
0.0
 11
1046.809733031614
 21
65.5018978703907
 31
0.0
  0
LINE
  5
1519C
  8
01
 10
1046.809733031614
 20
65.5018978703907
 30
0.0
 11
1050.809733031614
 21
66.30188856320896
 31
0.0
  0
LINE
  5
1519D
  8
01
 10
1050.809733031614
 20
64.70188856320905
 30
0.0
 11
1050.309733031614
 21
64.80188972660673
 31
0.0
  0
LINE
  5
1519E
  8
01
 10
1050.809733031614
 20
66.30188856320896
 30
0.0
 11
1050.309733031614
 21
66.40188972660664
 31
0.0
  0
LINE
  5
1519F
  8
01
 10
1046.809733031614
 20
63.9018978703908
 30
0.0
 11
1050.809733031614
 21
64.70188856320905
 31
0.0
  0
LINE
  5
151A0
  8
01
 10
1047.309733031614
 20
67.00189670699737
 30
0.0
 11
1046.809733031614
 21
67.10189787039505
 31
0.0
  0
LINE
  5
151A1
  8
01
 10
1047.309733031614
 20
60.60189670699331
 30
0.0
 11
1046.809733031614
 21
60.70189787039099
 31
0.0
  0
LINE
  5
151A2
  8
01
 10
1046.809733031614
 20
60.70189787039099
 30
0.0
 11
1050.809733031614
 21
61.50188856320923
 31
0.0
  0
LINE
  5
151A3
  8
01
 10
1050.809733031614
 20
61.50188856320923
 30
0.0
 11
1050.309733031614
 21
61.60188972660691
 31
0.0
  0
LINE
  5
151A4
  8
01
 10
1047.309733031614
 20
59.0018967069934
 30
0.0
 11
1046.809733031614
 21
59.10189787039108
 31
0.0
  0
LINE
  5
151A5
  8
01
 10
1046.809733031614
 20
59.10189787039108
 30
0.0
 11
1050.809733031614
 21
59.90188856320928
 31
0.0
  0
LINE
  5
151A6
  8
01
 10
1050.809733031614
 20
59.90188856320928
 30
0.0
 11
1050.309733031614
 21
60.00188972660695
 31
0.0
  0
LINE
  5
151A7
  8
01
 10
1047.30971558157
 20
57.60189321702521
 30
0.0
 11
1050.809733031614
 21
58.30188856320937
 31
0.0
  0
LINE
  5
151A8
  8
01
 10
1050.809733031614
 20
58.30188856320937
 30
0.0
 11
1050.309733031614
 21
58.40188972660705
 31
0.0
  0
LINE
  5
151A9
  8
01
 10
1045.009686492612
 20
56.60189321702521
 30
0.0
 11
1045.009686492612
 21
57.60189321702521
 31
0.0
  0
LINE
  5
15289
  8
01
 10
580.5012785691333
 20
-104.185458112023
 30
0.0
 11
580.5012785691333
 21
-96.58545811202282
 31
0.0
  0
LINE
  5
1528A
  8
01
 10
580.5012785691333
 20
-104.185458112023
 30
0.0
 11
581.5012785691333
 21
-104.185458112023
 31
0.0
  0
LINE
  5
1528B
  8
01
 10
581.5012785691333
 20
-104.185458112023
 30
0.0
 11
581.5012785691333
 21
-96.58545811202282
 31
0.0
  0
LINE
  5
1528C
  8
01
 10
580.5012785691333
 20
-96.58545811202282
 30
0.0
 11
581.5012785691333
 21
-96.58545811202282
 31
0.0
  0
LINE
  5
1528D
  8
01
 10
320.807708652026
 20
49.00194891085448
 30
0.0
 11
320.4759702952189
 21
49.00194891085448
 31
0.0
  0
LINE
  5
1528E
  8
01
 10
320.4759702952189
 20
49.00194891085448
 30
0.0
 11
319.9655693626129
 21
50.21393975661977
 31
0.0
  0
LINE
  5
1528F
  8
01
 10
319.9655693626129
 20
50.21393975661977
 30
0.0
 11
319.4900999672424
 21
48.94926236297306
 31
0.0
  0
LINE
  5
15290
  8
01
 10
319.4900999672424
 20
48.94926236297306
 30
0.0
 11
319.0146305718725
 21
50.21393975661977
 31
0.0
  0
LINE
  5
15291
  8
01
 10
319.0146305718725
 20
50.21393975661977
 30
0.0
 11
318.5044521331341
 21
49.00194891085448
 31
0.0
  0
LINE
  5
15292
  8
01
 10
318.5044521331341
 20
49.00194891085448
 30
0.0
 11
318.1727137763269
 21
49.00194891085448
 31
0.0
  0
LINE
  5
15293
  8
01
 10
318.1727137763269
 20
49.00194891085448
 30
0.0
 11
319.0159655350789
 21
51.00439372055553
 31
0.0
  0
LINE
  5
15294
  8
01
 10
319.0159655350789
 20
51.00439372055553
 30
0.0
 11
319.4900999672424
 21
49.74289798921745
 31
0.0
  0
LINE
  5
15295
  8
01
 10
319.4900999672424
 20
49.74289798921745
 30
0.0
 11
319.9644568932739
 21
51.00439372055553
 31
0.0
  0
LINE
  5
15296
  8
01
 10
319.9644568932739
 20
51.00439372055553
 30
0.0
 11
320.807708652026
 21
49.00194891085448
 31
0.0
  0
LINE
  5
15297
  8
01
 10
317.5955646833975
 20
50.42473044692088
 30
0.0
 11
317.3632464502638
 21
50.94432037626757
 31
0.0
  0
LINE
  5
15298
  8
01
 10
317.3632464502638
 20
50.94432037626757
 30
0.0
 11
316.833300692505
 21
50.94432037626757
 31
0.0
  0
ARC
  5
15299
  8
01
 10
316.8333006925056
 20
50.42368472574407
 30
0.0
 40
0.5206356505235021
 50
90.0
 51
180.0
  0
LINE
  5
1529A
  8
01
 10
316.3126650419821
 20
50.42368472574344
 30
0.0
 11
316.3126650419821
 21
49.00194891085448
 31
0.0
  0
LINE
  5
1529B
  8
01
 10
316.3126650419821
 20
49.00194891085448
 30
0.0
 11
316.6330562115346
 21
49.00194891085448
 31
0.0
  0
LINE
  5
1529C
  8
01
 10
316.6330562115346
 20
49.00194891085448
 30
0.0
 11
316.6330562115346
 21
50.44370917384094
 31
0.0
  0
ARC
  5
1529D
  8
01
 10
316.833300692505
 20
50.443709173841
 30
0.0
 40
0.2002444809704116
 50
90.0
 51
180.0
  0
LINE
  5
1529E
  8
01
 10
316.833300692505
 20
50.64395365481141
 30
0.0
 11
317.1511133965815
 21
50.64395365481141
 31
0.0
  0
LINE
  5
1529F
  8
01
 10
317.1511133965815
 20
50.64395365481141
 30
0.0
 11
317.9092810369174
 21
48.94926236297306
 31
0.0
  0
LINE
  5
152A0
  8
01
 10
317.9092810369174
 20
48.94926236297306
 30
0.0
 11
318.8052638423246
 21
50.95170717267411
 31
0.0
  0
LINE
  5
152A1
  8
01
 10
315.0911737080634
 20
49.00194891085448
 30
0.0
 11
315.0911737080636
 21
50.39953981961025
 31
0.0
  0
ARC
  5
152A2
  8
01
 10
315.3514915333248
 20
50.39953981961015
 30
0.0
 40
0.2603178252611908
 50
119.9999999999701
 51
180.0
  0
ARC
  5
152A3
  8
01
 10
315.4416015497615
 20
50.24346469287089
 30
0.0
 40
0.4405378581346286
 50
60.00000000002957
 51
119.9999999999704
  0
ARC
  5
152A4
  8
01
 10
315.5317115661983
 20
50.39953981961005
 30
0.0
 40
0.260317825261253
 50
0.0000000000455964
 51
60.00000000007412
  0
LINE
  5
152A5
  8
01
 10
315.7920293914596
 20
50.39953981961025
 30
0.0
 11
315.7920293914596
 21
49.00194891085448
 31
0.0
  0
LINE
  5
152A6
  8
01
 10
315.7920293914596
 20
49.00194891085448
 30
0.0
 11
316.1124205610122
 21
49.00194891085448
 31
0.0
  0
LINE
  5
152A7
  8
01
 10
316.1124205610122
 20
49.00194891085448
 30
0.0
 11
316.1124205610122
 21
50.39953981961025
 31
0.0
  0
ARC
  5
152A8
  8
01
 10
315.5317115661982
 20
50.3995398196101
 30
0.0
 40
0.580708994814036
 50
0.0
 51
60.00000000002854
  0
ARC
  5
152A9
  8
01
 10
315.4416015497623
 20
50.24346469287065
 30
0.0
 40
0.760929027687194
 50
60.00000000009737
 51
120.0000000000396
  0
ARC
  5
152AA
  8
01
 10
315.3514915333241
 20
50.39953981960974
 30
0.0
 40
0.5807089948131916
 50
119.9999999999206
 51
179.9999999999491
  0
LINE
  5
152AB
  8
01
 10
314.770782538511
 20
50.39953981961025
 30
0.0
 11
314.7707825385112
 21
49.00194891085448
 31
0.0
  0
LINE
  5
152AC
  8
01
 10
314.7707825385112
 20
49.00194891085448
 30
0.0
 11
315.0911737080634
 21
49.00194891085448
 31
0.0
  0
LINE
  5
152AD
  8
01
 10
314.5631957599066
 20
48.94924011358671
 30
0.0
 11
314.5631957599066
 21
50.95168492328776
 31
0.0
  0
LINE
  5
152AE
  8
01
 10
314.5631957599066
 20
50.95168492328776
 30
0.0
 11
314.2470319738414
 21
50.95168492328776
 31
0.0
  0
LINE
  5
152AF
  8
01
 10
314.2470319738414
 20
50.95168492328776
 30
0.0
 11
314.2470319738414
 21
49.76316718056933
 31
0.0
  0
LINE
  5
152B0
  8
01
 10
314.2470319738414
 20
49.76316718056933
 30
0.0
 11
313.14034747568
 21
51.00439372055553
 31
0.0
  0
LINE
  5
152B1
  8
01
 10
313.14034747568
 20
51.00439372055553
 30
0.0
 11
313.14034747568
 21
49.00194891085448
 31
0.0
  0
LINE
  5
152B2
  8
01
 10
313.14034747568
 20
49.00194891085448
 30
0.0
 11
313.4565112617449
 21
49.00194891085448
 31
0.0
  0
LINE
  5
152B3
  8
01
 10
313.4565112617449
 20
49.00194891085448
 30
0.0
 11
313.4565112617449
 21
50.19048890295926
 31
0.0
  0
LINE
  5
152B4
  8
01
 10
313.4565112617449
 20
50.19048890295926
 30
0.0
 11
314.5631957599066
 21
48.94926236297306
 31
0.0
  0
LINE
  5
152B5
  8
01
 10
318.0932834655423
 20
50.13490993479718
 30
0.0
 11
317.7252786082922
 21
50.13490993479718
 31
0.0
  0
LINE
  5
152B6
  8
01
 10
317.7252786082922
 20
50.13490993479718
 30
0.0
 11
317.9092810369174
 21
49.72349652395042
 31
0.0
  0
LINE
  5
152B7
  8
01
 10
317.9092810369174
 20
49.72349652395042
 30
0.0
 11
318.0932834655423
 21
50.13490993479718
 31
0.0
  0
LINE
  5
152B8
  8
01
 10
321.0973956678297
 20
49.72349652395042
 30
0.0
 11
321.2813980964543
 21
50.13490993479718
 31
0.0
  0
LINE
  5
152B9
  8
01
 10
321.2813980964543
 20
50.13490993479718
 30
0.0
 11
320.9133932392047
 21
50.13490993479718
 31
0.0
  0
LINE
  5
152BA
  8
01
 10
320.9133932392047
 20
50.13490993479718
 30
0.0
 11
321.0973956678297
 21
49.72349652395042
 31
0.0
  0
LINE
  5
152BB
  8
01
 10
318.4588408902465
 20
50.95170717267411
 30
0.0
 11
318.2229973904372
 21
50.42473044692088
 31
0.0
  0
LINE
  5
152BC
  8
01
 10
318.2229973904372
 20
50.42473044692088
 30
0.0
 11
317.5955646833975
 21
50.42473044692088
 31
0.0
  0
LINE
  5
152BD
  8
01
 10
322.1250948429417
 20
50.95170717267411
 30
0.0
 11
322.8364077381212
 21
49.8977759705549
 31
0.0
  0
LINE
  5
152BE
  8
01
 10
322.8364077381212
 20
49.8977759705549
 30
0.0
 11
322.1250948429417
 21
49.00194891085448
 31
0.0
  0
LINE
  5
152BF
  8
01
 10
322.1250948429417
 20
49.00194891085448
 30
0.0
 11
321.7212684729852
 21
49.00194891085448
 31
0.0
  0
LINE
  5
152C0
  8
01
 10
321.7212684729852
 20
49.00194891085448
 30
0.0
 11
322.444596037023
 21
49.91295005233496
 31
0.0
  0
LINE
  5
152C1
  8
01
 10
322.444596037023
 20
49.91295005233496
 30
0.0
 11
321.8937012204874
 21
50.7291910555432
 31
0.0
  0
LINE
  5
152C2
  8
01
 10
321.8937012204874
 20
50.7291910555432
 30
0.0
 11
321.0973956678297
 21
48.94924011358671
 31
0.0
  0
LINE
  5
152C3
  8
01
 10
322.8364077381212
 20
50.95168492328776
 30
0.0
 11
323.1525715241862
 21
50.95168492328776
 31
0.0
  0
LINE
  5
152C4
  8
01
 10
323.1525715241862
 20
50.95168492328776
 30
0.0
 11
323.1525715241862
 21
49.00194891085448
 31
0.0
  0
LINE
  5
152C5
  8
01
 10
323.1525715241862
 20
49.00194891085448
 30
0.0
 11
322.8364077381212
 21
49.00194891085448
 31
0.0
  0
LINE
  5
152C6
  8
01
 10
322.8364077381212
 20
49.00194891085448
 30
0.0
 11
322.8364077381212
 21
50.95168492328776
 31
0.0
  0
LINE
  5
152C7
  8
01
 10
321.6469555211585
 20
50.95170717267411
 30
0.0
 11
321.4111120213493
 21
50.42473044692088
 31
0.0
  0
LINE
  5
152C8
  8
01
 10
321.4111120213493
 20
50.42473044692088
 30
0.0
 11
320.7836793143097
 21
50.42473044692088
 31
0.0
  0
LINE
  5
152C9
  8
01
 10
320.7836793143097
 20
50.42473044692088
 30
0.0
 11
320.5480583083682
 21
50.95170717267411
 31
0.0
  0
TEXT
  5
152CA
  8
01
  6
CONTINUOUS
 10
592.3261728178142
 20
-66.36627164817583
 30
0.0
 40
3.5
  1
PB
  0
TEXT
  5
152CB
  8
01
  6
CONTINUOUS
 10
605.4615909629794
 20
-60.52807720373138
 30
0.0
 40
3.5
  1
Plywood 9mm
  0
TEXT
  5
152CC
  8
01
  6
CONTINUOUS
 10
605.4615909629794
 20
-66.36141053706471
 30
0.0
 40
3.5
  1
and above
  0
LINE
  5
152CE
  8
1CENTER
 10
576.5012803877876
 20
-104.955125806871
 30
0.0
 11
576.5012803877876
 21
-114.115569706871
 31
0.0
  0
LINE
  5
152CF
  8
1HATCH
 10
578.1512803877876
 20
-106.556800806871
 30
0.0
 11
578.1512803877876
 21
-110.906800806871
 31
0.0
  0
LINE
  5
152D0
  8
1HATCH
 10
574.8512803877876
 20
-106.556800806871
 30
0.0
 11
574.8512803877876
 21
-110.906800806871
 31
0.0
  0
LINE
  5
152D1
  8
1HATCH
 10
578.5012803877876
 20
-106.906800806871
 30
0.0
 11
574.5012803877876
 21
-106.906800806871
 31
0.0
  0
LINE
  5
152D2
  8
1HATCH
 10
579.5012803877876
 20
-112.256800796871
 30
0.0
 11
573.5012803877876
 21
-112.256800796871
 31
0.0
  0
LINE
  5
152D3
  8
1HATCH
 10
578.1512803877876
 20
-110.906800806871
 30
0.0
 11
578.5012803877876
 21
-111.256800632797
 31
0.0
  0
LINE
  5
152D4
  8
1HATCH
 10
574.5012803877876
 20
-111.256800632797
 30
0.0
 11
574.8512803877876
 21
-110.906800806871
 31
0.0
  0
LINE
  5
152D5
  8
01
 10
1074.470915976071
 20
49.00194891085448
 30
0.0
 11
1074.139177619264
 21
49.00194891085448
 31
0.0
  0
LINE
  5
152D6
  8
01
 10
1074.139177619264
 20
49.00194891085448
 30
0.0
 11
1073.628776686658
 21
50.21393975661977
 31
0.0
  0
LINE
  5
152D7
  8
01
 10
1073.628776686658
 20
50.21393975661977
 30
0.0
 11
1073.153307291288
 21
48.94926236297306
 31
0.0
  0
LINE
  5
152D8
  8
01
 10
1073.153307291288
 20
48.94926236297306
 30
0.0
 11
1072.677837895918
 21
50.21393975661977
 31
0.0
  0
LINE
  5
152D9
  8
01
 10
1072.677837895918
 20
50.21393975661977
 30
0.0
 11
1072.16765945718
 21
49.00194891085448
 31
0.0
  0
LINE
  5
152DA
  8
01
 10
1072.16765945718
 20
49.00194891085448
 30
0.0
 11
1071.835921100372
 21
49.00194891085448
 31
0.0
  0
LINE
  5
152DB
  8
01
 10
1071.835921100372
 20
49.00194891085448
 30
0.0
 11
1072.679172859124
 21
51.00439372055553
 31
0.0
  0
LINE
  5
152DC
  8
01
 10
1072.679172859124
 20
51.00439372055553
 30
0.0
 11
1073.153307291288
 21
49.74289798921745
 31
0.0
  0
LINE
  5
152DD
  8
01
 10
1073.153307291288
 20
49.74289798921745
 30
0.0
 11
1073.627664217319
 21
51.00439372055553
 31
0.0
  0
LINE
  5
152DE
  8
01
 10
1073.627664217319
 20
51.00439372055553
 30
0.0
 11
1074.470915976071
 21
49.00194891085448
 31
0.0
  0
LINE
  5
152DF
  8
01
 10
1071.258772007443
 20
50.42473044692088
 30
0.0
 11
1071.026453774309
 21
50.94432037626757
 31
0.0
  0
LINE
  5
152E0
  8
01
 10
1071.026453774309
 20
50.94432037626757
 30
0.0
 11
1070.49650801655
 21
50.94432037626757
 31
0.0
  0
ARC
  5
152E1
  8
01
 10
1070.496508016551
 20
50.42368472574412
 30
0.0
 40
0.5206356505234453
 50
90.0
 51
180.0
  0
LINE
  5
152E2
  8
01
 10
1069.975872366027
 20
50.42368472574344
 30
0.0
 11
1069.975872366027
 21
49.00194891085448
 31
0.0
  0
LINE
  5
152E3
  8
01
 10
1069.975872366027
 20
49.00194891085448
 30
0.0
 11
1070.29626353558
 21
49.00194891085448
 31
0.0
  0
LINE
  5
152E4
  8
01
 10
1070.29626353558
 20
49.00194891085448
 30
0.0
 11
1070.29626353558
 21
50.44370917384094
 31
0.0
  0
ARC
  5
152E5
  8
01
 10
1070.49650801655
 20
50.44370917384094
 30
0.0
 40
0.2002444809704684
 50
90.0
 51
180.0
  0
LINE
  5
152E6
  8
01
 10
1070.49650801655
 20
50.64395365481141
 30
0.0
 11
1070.814320720627
 21
50.64395365481141
 31
0.0
  0
LINE
  5
152E7
  8
01
 10
1070.814320720627
 20
50.64395365481141
 30
0.0
 11
1071.572488360963
 21
48.94926236297306
 31
0.0
  0
LINE
  5
152E8
  8
01
 10
1071.572488360963
 20
48.94926236297306
 30
0.0
 11
1072.46847116637
 21
50.95170717267411
 31
0.0
  0
LINE
  5
152E9
  8
01
 10
1068.754381032109
 20
49.00194891085448
 30
0.0
 11
1068.754381032109
 21
50.39953981961025
 31
0.0
  0
ARC
  5
152EA
  8
01
 10
1069.01469885737
 20
50.39953981961035
 30
0.0
 40
0.2603178252610771
 50
119.9999999999701
 51
180.0
  0
ARC
  5
152EB
  8
01
 10
1069.104808873807
 20
50.24346469287079
 30
0.0
 40
0.4405378581347423
 50
60.00000000002957
 51
119.9999999999704
  0
ARC
  5
152EC
  8
01
 10
1069.194918890244
 20
50.39953981961015
 30
0.0
 40
0.2603178252611962
 50
0.0000000000239305
 51
60.00000000005247
  0
LINE
  5
152ED
  8
01
 10
1069.455236715505
 20
50.39953981961025
 30
0.0
 11
1069.455236715505
 21
49.00194891085448
 31
0.0
  0
LINE
  5
152EE
  8
01
 10
1069.455236715505
 20
49.00194891085448
 30
0.0
 11
1069.775627885057
 21
49.00194891085448
 31
0.0
  0
LINE
  5
152EF
  8
01
 10
1069.775627885057
 20
49.00194891085448
 30
0.0
 11
1069.775627885057
 21
50.39953981961025
 31
0.0
  0
ARC
  5
152F0
  8
01
 10
1069.194918890243
 20
50.3995398196101
 30
0.0
 40
0.580708994814036
 50
0.0
 51
60.00000000002854
  0
ARC
  5
152F1
  8
01
 10
1069.104808873808
 20
50.24346469287075
 30
0.0
 40
0.7609290276870803
 50
60.00000000009737
 51
120.0000000000396
  0
ARC
  5
152F2
  8
01
 10
1069.014698857369
 20
50.39953981960964
 30
0.0
 40
0.5807089948132483
 50
119.9999999999109
 51
179.9999999999394
  0
LINE
  5
152F3
  8
01
 10
1068.433989862556
 20
50.39953981961025
 30
0.0
 11
1068.433989862556
 21
49.00194891085448
 31
0.0
  0
LINE
  5
152F4
  8
01
 10
1068.433989862556
 20
49.00194891085448
 30
0.0
 11
1068.754381032109
 21
49.00194891085448
 31
0.0
  0
LINE
  5
152F5
  8
01
 10
1068.226403083952
 20
48.94924011358671
 30
0.0
 11
1068.226403083952
 21
50.95168492328776
 31
0.0
  0
LINE
  5
152F6
  8
01
 10
1068.226403083952
 20
50.95168492328776
 30
0.0
 11
1067.910239297887
 21
50.95168492328776
 31
0.0
  0
LINE
  5
152F7
  8
01
 10
1067.910239297887
 20
50.95168492328776
 30
0.0
 11
1067.910239297887
 21
49.76316718056933
 31
0.0
  0
LINE
  5
152F8
  8
01
 10
1067.910239297887
 20
49.76316718056933
 30
0.0
 11
1066.803554799725
 21
51.00439372055553
 31
0.0
  0
LINE
  5
152F9
  8
01
 10
1066.803554799725
 20
51.00439372055553
 30
0.0
 11
1066.803554799725
 21
49.00194891085448
 31
0.0
  0
LINE
  5
152FA
  8
01
 10
1066.803554799725
 20
49.00194891085448
 30
0.0
 11
1067.11971858579
 21
49.00194891085448
 31
0.0
  0
LINE
  5
152FB
  8
01
 10
1067.11971858579
 20
49.00194891085448
 30
0.0
 11
1067.11971858579
 21
50.19048890295926
 31
0.0
  0
LINE
  5
152FC
  8
01
 10
1067.11971858579
 20
50.19048890295926
 30
0.0
 11
1068.226403083952
 21
48.94926236297306
 31
0.0
  0
LINE
  5
152FD
  8
01
 10
1071.756490789588
 20
50.13490993479718
 30
0.0
 11
1071.388485932338
 21
50.13490993479718
 31
0.0
  0
LINE
  5
152FE
  8
01
 10
1071.388485932338
 20
50.13490993479718
 30
0.0
 11
1071.572488360963
 21
49.72349652395042
 31
0.0
  0
LINE
  5
152FF
  8
01
 10
1071.572488360963
 20
49.72349652395042
 30
0.0
 11
1071.756490789588
 21
50.13490993479718
 31
0.0
  0
LINE
  5
15300
  8
01
 10
1074.760602991875
 20
49.72349652395042
 30
0.0
 11
1074.9446054205
 21
50.13490993479718
 31
0.0
  0
LINE
  5
15301
  8
01
 10
1074.9446054205
 20
50.13490993479718
 30
0.0
 11
1074.57660056325
 21
50.13490993479718
 31
0.0
  0
LINE
  5
15302
  8
01
 10
1074.57660056325
 20
50.13490993479718
 30
0.0
 11
1074.760602991875
 21
49.72349652395042
 31
0.0
  0
LINE
  5
15303
  8
01
 10
1072.122048214292
 20
50.95170717267411
 30
0.0
 11
1071.886204714483
 21
50.42473044692088
 31
0.0
  0
LINE
  5
15304
  8
01
 10
1071.886204714483
 20
50.42473044692088
 30
0.0
 11
1071.258772007443
 21
50.42473044692088
 31
0.0
  0
LINE
  5
15305
  8
01
 10
1075.788302166987
 20
50.95170717267411
 30
0.0
 11
1076.499615062166
 21
49.8977759705549
 31
0.0
  0
LINE
  5
15306
  8
01
 10
1076.499615062166
 20
49.8977759705549
 30
0.0
 11
1075.788302166987
 21
49.00194891085448
 31
0.0
  0
LINE
  5
15307
  8
01
 10
1075.788302166987
 20
49.00194891085448
 30
0.0
 11
1075.384475797031
 21
49.00194891085448
 31
0.0
  0
LINE
  5
15308
  8
01
 10
1075.384475797031
 20
49.00194891085448
 30
0.0
 11
1076.107803361068
 21
49.91295005233496
 31
0.0
  0
LINE
  5
15309
  8
01
 10
1076.107803361068
 20
49.91295005233496
 30
0.0
 11
1075.556908544533
 21
50.7291910555432
 31
0.0
  0
LINE
  5
1530A
  8
01
 10
1075.556908544533
 20
50.7291910555432
 30
0.0
 11
1074.760602991875
 21
48.94924011358671
 31
0.0
  0
LINE
  5
1530B
  8
01
 10
1076.499615062166
 20
50.95168492328776
 30
0.0
 11
1076.815778848232
 21
50.95168492328776
 31
0.0
  0
LINE
  5
1530C
  8
01
 10
1076.815778848232
 20
50.95168492328776
 30
0.0
 11
1076.815778848232
 21
49.00194891085448
 31
0.0
  0
LINE
  5
1530D
  8
01
 10
1076.815778848232
 20
49.00194891085448
 30
0.0
 11
1076.499615062166
 21
49.00194891085448
 31
0.0
  0
LINE
  5
1530E
  8
01
 10
1076.499615062166
 20
49.00194891085448
 30
0.0
 11
1076.499615062166
 21
50.95168492328776
 31
0.0
  0
LINE
  5
1530F
  8
01
 10
1075.310162845204
 20
50.95170717267411
 30
0.0
 11
1075.074319345395
 21
50.42473044692088
 31
0.0
  0
LINE
  5
15310
  8
01
 10
1075.074319345395
 20
50.42473044692088
 30
0.0
 11
1074.446886638355
 21
50.42473044692088
 31
0.0
  0
LINE
  5
15311
  8
01
 10
1074.446886638355
 20
50.42473044692088
 30
0.0
 11
1074.211265632413
 21
50.95170717267411
 31
0.0
  0
LINE
  5
15312
  8
01
 10
574.5012803877876
 20
-106.906800806871
 30
0.0
 11
574.5012803877876
 21
-111.256800632797
 31
0.0
  0
LINE
  5
15313
  8
01
 10
574.5012803877876
 20
-111.256800632797
 30
0.0
 11
573.5012803877876
 21
-112.256800706871
 31
0.0
  0
LINE
  5
15314
  8
01
 10
573.5012803877876
 20
-112.256800706871
 30
0.0
 11
573.5012803877876
 21
-112.556800806871
 31
0.0
  0
LINE
  5
15315
  8
01
 10
573.5012803877876
 20
-112.556800806871
 30
0.0
 11
579.5012803877876
 21
-112.556800806871
 31
0.0
  0
LINE
  5
15316
  8
01
 10
579.5012803877876
 20
-112.556800806871
 30
0.0
 11
579.5012803877876
 21
-112.256800796871
 31
0.0
  0
LINE
  5
15317
  8
01
 10
579.5012803877876
 20
-112.256800796871
 30
0.0
 11
578.5012803877876
 21
-111.256800632797
 31
0.0
  0
LINE
  5
15318
  8
01
 10
578.5012803877876
 20
-111.256800632797
 30
0.0
 11
578.5012803877876
 21
-106.906800806871
 31
0.0
  0
LINE
  5
15319
  8
01
 10
578.5012803877876
 20
-106.906800806871
 30
0.0
 11
578.1512803877876
 21
-106.556800806871
 31
0.0
  0
LINE
  5
1531A
  8
01
 10
578.1512803877876
 20
-106.556800806871
 30
0.0
 11
574.8512803877877
 21
-106.556800806871
 31
0.0
  0
LINE
  5
1531B
  8
01
 10
574.8512803877877
 20
-106.556800806871
 30
0.0
 11
574.5012803877876
 21
-106.906800806871
 31
0.0
  0
LINE
  5
1531C
  8
1DIM
 10
347.8464597945706
 20
60.60189252886357
 30
0.0
 11
491.2721417298516
 21
60.60189252886357
 31
0.0
1001
ACAD
1000
DSTYLE
1002
{
1070
   271
1070
     1
1070
    40
1040
1.3
1002
}
  0
LINE
  5
1531D
  8
1DIM
 10
444.4235294764042
 20
-42.16251548456148
 30
0.0
 11
491.2721417298516
 21
-42.16251548456148
 31
0.0
1001
ACAD
1000
DSTYLE
1002
{
1070
   271
1070
     1
1070
    40
1040
1.3
1002
}
  0
LINE
  5
1531E
  8
1DIM
 10
489.9721417298516
 20
58.00189252886356
 30
0.0
 11
489.9721417298516
 21
-39.56251548456148
 31
0.0
1001
ACAD
1000
DSTYLE
1002
{
1070
   271
1070
     1
1070
    40
1040
1.3
1002
}
  0
SOLID
  5
15322
  8
1DIM
 10
589.243263611392
 20
-79.9114395578601
 30
0.0
 11
588.5023288846991
 21
-81.79879931209132
 31
0.0
 12
588.5910964085768
 22
-79.77315584943167
 32
0.0
 13
588.5910964085768
 23
-79.77315584943167
 33
0.0
1001
ACAD
1000
DSTYLE
1002
{
1070
    45
1040
0.5
1002
}
  0
LINE
  5
15323
  8
1DIM
 10
588.9171800099843
 20
-79.8422977036459
 30
0.0
 11
591.6261728178141
 21
-67.06627164817583
 31
0.0
1001
ACAD
1000
DSTYLE
1002
{
1070
    45
1040
0.5
1002
}
  0
SOLID
  5
15324
  8
1DIM
 10
602.3786817565572
 20
-79.9114395578601
 30
0.0
 11
601.6377470298643
 21
-81.79879931209132
 31
0.0
 12
601.726514553742
 22
-79.77315584943167
 32
0.0
 13
601.726514553742
 23
-79.77315584943167
 33
0.0
1001
ACAD
1000
DSTYLE
1002
{
1070
    45
1040
0.5
1002
}
  0
LINE
  5
15325
  8
1DIM
 10
602.0525981551496
 20
-79.8422977036459
 30
0.0
 11
604.7615909629793
 21
-67.06627164817583
 31
0.0
1001
ACAD
1000
DSTYLE
1002
{
1070
    45
1040
0.5
1002
}
  0
LINE
  5
15326
  8
1DIM
 10
619.4343446283169
 20
-100.3854581120231
 30
0.0
 11
625.6971673611846
 21
-100.3854581120231
 31
0.0
1001
ACAD
1000
DSTYLE
1002
{
1070
    45
1040
0.5
1070
   271
1070
     0
1002
}
  0
LINE
  5
15327
  8
1DIM
 10
584.5012803449393
 20
-88.40861683621196
 30
0.0
 11
625.6971673611846
 21
-88.40861683621198
 31
0.0
1001
ACAD
1000
DSTYLE
1002
{
1070
    45
1040
0.5
1070
   271
1070
     0
1002
}
  0
LINE
  5
15328
  8
1DIM
 10
624.6971673611846
 20
-98.38545811202312
 30
0.0
 11
624.6971673611846
 21
-90.40861683621198
 31
0.0
1001
ACAD
1000
DSTYLE
1002
{
1070
    45
1040
0.5
1070
   271
1070
     0
1002
}
  0
LINE
  5
1532C
  8
1DIM
 10
584.5012803754552
 20
-112.5505370440466
 30
0.0
 11
637.3247879821868
 21
-112.5505370440466
 31
0.0
1001
ACAD
1000
DSTYLE
1002
{
1070
    45
1040
0.5
1002
}
  0
LINE
  5
1532D
  8
1DIM
 10
624.6971673611846
 20
-88.40861683659118
 30
0.0
 11
637.3247879821868
 21
-88.40861683659118
 31
0.0
1001
ACAD
1000
DSTYLE
1002
{
1070
    45
1040
0.5
1002
}
  0
LINE
  5
1532E
  8
1DIM
 10
636.3247879821868
 20
-110.5505370440466
 30
0.0
 11
636.3247879821868
 21
-90.40861683659118
 31
0.0
1001
ACAD
1000
DSTYLE
1002
{
1070
    45
1040
0.5
1002
}
  0
SOLID
  5
15332
  8
1DIM
 10
397.7598169032485
 20
-85.12475331555704
 30
0.0
 11
398.1545441457769
 21
-87.11354730064375
 31
0.0
 12
397.1361392455192
 22
-85.36027533935473
 32
0.0
 13
397.1361392455192
 23
-85.36027533935473
 33
0.0
1001
ACAD
1000
DSTYLE
1002
{
1070
    45
1040
0.5
1002
}
  0
LINE
  5
15333
  8
1DIM
 10
397.4479780743838
 20
-85.2425143274559
 30
0.0
 11
393.323304681758
 21
-74.32011055845233
 31
0.0
1001
ACAD
1000
DSTYLE
1002
{
1070
    45
1040
0.5
1002
}
  0
LINE
  5
15334
  8
1DIM
 10
393.323304681758
 20
-74.32011055845233
 30
0.0
 11
337.9899713484247
 21
-74.32011055845233
 31
0.0
1001
ACAD
1000
DSTYLE
1002
{
1070
    45
1040
0.5
1002
}
  0
TEXT
  5
15335
  8
1DIM
  6
CONTINUOUS
 10
338.648304681758
 20
-67.78191611400788
 30
0.0
 40
3.5
  1
Material\U+FF1AAluminium
  0
TEXT
  5
15336
  8
1DIM
  6
CONTINUOUS
 10
330.6890454224987
 20
-73.61524944734121
 30
0.0
 40
3.5
  1
Finish\U+FF1ABlasted black
  0
LINE
  5
15337
  8
1DIM
 10
930.77571229293
 20
-88.43411206495148
 30
0.0
 11
930.77571229293
 21
-161.93014391271
 31
0.0
  0
LINE
  5
15338
  8
1DIM
 10
1212.843629824219
 20
-88.42704453275746
 30
0.0
 11
1212.843629824219
 21
-161.93014391271
 31
0.0
  0
LINE
  5
15339
  8
1DIM
 10
932.77571229293
 20
-160.93014391271
 30
0.0
 11
1210.843629824219
 21
-160.93014391271
 31
0.0
  0
LINE
  5
1533D
  8
1DIM
 10
1048.809647149136
 20
-103.643578774143
 30
0.0
 11
1048.809647149136
 21
-137.3352520158155
 31
0.0
  0
LINE
  5
1533E
  8
1DIM
 10
1094.809647149136
 20
-103.643578774143
 30
0.0
 11
1094.809647149136
 21
-137.3352520158155
 31
0.0
  0
LINE
  5
1533F
  8
1DIM
 10
1050.809647149136
 20
-136.3352520158155
 30
0.0
 11
1092.809647149136
 21
-136.3352520158155
 31
0.0
  0
LINE
  5
15343
  8
1DIM
 10
576.5012803877876
 20
-114.115569706871
 30
0.0
 11
576.5012803877876
 21
-125.6462696449589
 31
0.0
  0
LINE
  5
15344
  8
1DIM
 10
584.5012803877876
 20
-122.3070243895086
 30
0.0
 11
584.5012803877876
 21
-125.6462696449589
 31
0.0
  0
LINE
  5
15345
  8
1DIM
 10
578.5012803877876
 20
-124.6462696449589
 30
0.0
 11
582.5012803877876
 21
-124.6462696449589
 31
0.0
  0
LINE
  5
15349
  8
1DIM
 10
1101.509667118616
 20
60.60189252886357
 30
0.0
 11
1244.935349053897
 21
60.60189252886357
 31
0.0
1001
ACAD
1000
DSTYLE
1002
{
1070
   271
1070
     1
1070
    40
1040
1.3
1002
}
  0
LINE
  5
1534A
  8
1DIM
 10
1198.086736800449
 20
-42.16251548456148
 30
0.0
 11
1244.935349053897
 21
-42.16251548456148
 31
0.0
1001
ACAD
1000
DSTYLE
1002
{
1070
   271
1070
     1
1070
    40
1040
1.3
1002
}
  0
LINE
  5
1534B
  8
1DIM
 10
1243.635349053897
 20
58.00189252886356
 30
0.0
 11
1243.635349053897
 21
-39.56251548456148
 31
0.0
1001
ACAD
1000
DSTYLE
1002
{
1070
   271
1070
     1
1070
    40
1040
1.3
1002
}
  0
LINE
  5
1534F
  8
0
  6
BYBLOCK
 10
489.2754738358516
 20
58.00189252886356
 30
0.0
 11
489.9721417298516
 21
60.60189252886357
 31
0.0
  0
LINE
  5
15350
  8
0
  6
BYBLOCK
 10
489.9721417298516
 20
60.60189252886357
 30
0.0
 11
490.6688096238516
 21
58.00189252886356
 31
0.0
  0
LINE
  5
15351
  8
0
  6
BYBLOCK
 10
489.9721417298516
 20
60.60189252886357
 30
0.0
 11
489.9721417298516
 21
58.00189252886356
 31
0.0
  0
LINE
  5
15352
  8
0
  6
BYBLOCK
 10
490.6688096238516
 20
-39.56251548456148
 30
0.0
 11
489.9721417298516
 21
-42.16251548456148
 31
0.0
  0
LINE
  5
15353
  8
0
  6
BYBLOCK
 10
489.9721417298516
 20
-42.16251548456148
 30
0.0
 11
489.2754738358516
 21
-39.56251548456148
 31
0.0
  0
LINE
  5
15354
  8
0
  6
BYBLOCK
 10
489.9721417298516
 20
-42.16251548456148
 30
0.0
 11
489.9721417298516
 21
-39.56251548456148
 31
0.0
  0
TEXT
  5
15355
  8
1DIM
  6
CONTINUOUS
 10
489.0621417298516
 20
1.257188522151068
 30
0.0
 40
4.55
  1
102.8
 50
90.0
1001
ACAD
1000
DSTYLE
1002
{
1070
   271
1070
     1
1070
    40
1040
1.3
1002
}
  0
LINE
  5
15356
  8
0
  6
BYBLOCK
 10
625.2330657411846
 20
-98.38545811202312
 30
0.0
 11
624.6971673611846
 21
-100.3854581120231
 31
0.0
  0
LINE
  5
15357
  8
0
  6
BYBLOCK
 10
624.6971673611846
 20
-100.3854581120231
 30
0.0
 11
624.1612689811845
 21
-98.38545811202312
 31
0.0
  0
LINE
  5
15358
  8
0
  6
BYBLOCK
 10
624.6971673611846
 20
-100.3854581120231
 30
0.0
 11
624.6971673611846
 21
-98.38545811202312
 31
0.0
  0
LINE
  5
15359
  8
0
  6
BYBLOCK
 10
624.1612689811845
 20
-90.40861683621198
 30
0.0
 11
624.6971673611846
 21
-88.40861683621198
 31
0.0
  0
LINE
  5
1535A
  8
0
  6
BYBLOCK
 10
624.6971673611846
 20
-88.40861683621198
 30
0.0
 11
625.2330657411846
 21
-90.40861683621198
 31
0.0
  0
LINE
  5
1535B
  8
0
  6
BYBLOCK
 10
624.6971673611846
 20
-88.40861683621198
 30
0.0
 11
624.6971673611846
 21
-90.40861683621198
 31
0.0
  0
TEXT
  5
1535C
  8
1DIM
  6
CONTINUOUS
 10
623.9971673611846
 20
-96.73037080745087
 30
0.0
 40
3.5
  1
12
 50
90.0
1001
ACAD
1000
DSTYLE
1002
{
1070
    45
1040
0.5
1070
   271
1070
     0
1002
}
  0
LINE
  5
1535D
  8
0
  6
BYBLOCK
 10
636.8606863621868
 20
-110.5505370440466
 30
0.0
 11
636.3247879821868
 21
-112.5505370440466
 31
0.0
  0
LINE
  5
1535E
  8
0
  6
BYBLOCK
 10
636.3247879821868
 20
-112.5505370440466
 30
0.0
 11
635.7888896021867
 21
-110.5505370440466
 31
0.0
  0
LINE
  5
1535F
  8
0
  6
BYBLOCK
 10
636.3247879821868
 20
-112.5505370440466
 30
0.0
 11
636.3247879821868
 21
-110.5505370440466
 31
0.0
  0
LINE
  5
15360
  8
0
  6
BYBLOCK
 10
635.7888896021867
 20
-90.40861683659118
 30
0.0
 11
636.3247879821868
 21
-88.40861683659118
 31
0.0
  0
LINE
  5
15361
  8
0
  6
BYBLOCK
 10
636.3247879821868
 20
-88.40861683659118
 30
0.0
 11
636.8606863621868
 21
-90.40861683659118
 31
0.0
  0
LINE
  5
15362
  8
0
  6
BYBLOCK
 10
636.3247879821868
 20
-88.40861683659118
 30
0.0
 11
636.3247879821868
 21
-90.40861683659118
 31
0.0
  0
TEXT
  5
15363
  8
1DIM
  6
CONTINUOUS
 10
635.6247879821867
 20
-103.3962436069854
 30
0.0
 40
3.5
  1
24
 50
90.0
1001
ACAD
1000
DSTYLE
1002
{
1070
    45
1040
0.5
1002
}
  0
LINE
  5
15364
  8
0
  6
BYBLOCK
 10
932.77571229293
 20
-161.46604229271
 30
0.0
 11
930.77571229293
 21
-160.93014391271
 31
0.0
  0
LINE
  5
15365
  8
0
  6
BYBLOCK
 10
930.77571229293
 20
-160.93014391271
 30
0.0
 11
932.77571229293
 21
-160.39424553271
 31
0.0
  0
LINE
  5
15366
  8
0
  6
BYBLOCK
 10
930.77571229293
 20
-160.93014391271
 30
0.0
 11
932.77571229293
 21
-160.93014391271
 31
0.0
  0
LINE
  5
15367
  8
0
  6
BYBLOCK
 10
1210.843629824219
 20
-160.39424553271
 30
0.0
 11
1212.843629824219
 21
-160.93014391271
 31
0.0
  0
LINE
  5
15368
  8
0
  6
BYBLOCK
 10
1212.843629824219
 20
-160.93014391271
 30
0.0
 11
1210.843629824219
 21
-161.46604229271
 31
0.0
  0
LINE
  5
15369
  8
0
  6
BYBLOCK
 10
1212.843629824219
 20
-160.93014391271
 30
0.0
 11
1210.843629824219
 21
-160.93014391271
 31
0.0
  0
TEXT
  5
1536A
  8
1DIM
  6
CONTINUOUS
 10
1057.809671058575
 20
-160.23014391271
 30
0.0
 40
10.5
  1
282
  0
LINE
  5
1536B
  8
0
  6
BYBLOCK
 10
1050.809647149136
 20
-136.8711503958155
 30
0.0
 11
1048.809647149136
 21
-136.3352520158155
 31
0.0
  0
LINE
  5
1536C
  8
0
  6
BYBLOCK
 10
1048.809647149136
 20
-136.3352520158155
 30
0.0
 11
1050.809647149136
 21
-135.7993536358155
 31
0.0
  0
LINE
  5
1536D
  8
0
  6
BYBLOCK
 10
1048.809647149136
 20
-136.3352520158155
 30
0.0
 11
1050.809647149136
 21
-136.3352520158155
 31
0.0
  0
LINE
  5
1536E
  8
0
  6
BYBLOCK
 10
1092.809647149136
 20
-135.7993536358155
 30
0.0
 11
1094.809647149136
 21
-136.3352520158155
 31
0.0
  0
LINE
  5
1536F
  8
0
  6
BYBLOCK
 10
1094.809647149136
 20
-136.3352520158155
 30
0.0
 11
1092.809647149136
 21
-136.8711503958155
 31
0.0
  0
LINE
  5
15370
  8
0
  6
BYBLOCK
 10
1094.809647149136
 20
-136.3352520158155
 30
0.0
 11
1092.809647149136
 21
-136.3352520158155
 31
0.0
  0
TEXT
  5
15371
  8
1DIM
  6
CONTINUOUS
 10
1057.809647149136
 20
-135.6352520158155
 30
0.0
 40
10.5
  1
P46
  0
LINE
  5
15372
  8
0
  6
BYBLOCK
 10
578.5012803877876
 20
-125.1821680249589
 30
0.0
 11
576.5012803877876
 21
-124.6462696449589
 31
0.0
  0
LINE
  5
15373
  8
0
  6
BYBLOCK
 10
576.5012803877876
 20
-124.6462696449589
 30
0.0
 11
578.5012803877876
 21
-124.1103712649589
 31
0.0
  0
LINE
  5
15374
  8
0
  6
BYBLOCK
 10
576.5012803877876
 20
-124.6462696449589
 30
0.0
 11
578.5012803877876
 21
-124.6462696449589
 31
0.0
  0
LINE
  5
15375
  8
0
  6
BYBLOCK
 10
582.5012803877876
 20
-124.1103712649589
 30
0.0
 11
584.5012803877876
 21
-124.6462696449589
 31
0.0
  0
LINE
  5
15376
  8
0
  6
BYBLOCK
 10
584.5012803877876
 20
-124.6462696449589
 30
0.0
 11
582.5012803877876
 21
-125.1821680249589
 31
0.0
  0
LINE
  5
15377
  8
0
  6
BYBLOCK
 10
584.5012803877876
 20
-124.6462696449589
 30
0.0
 11
582.5012803877876
 21
-124.6462696449589
 31
0.0
  0
TEXT
  5
15378
  8
1DIM
  6
CONTINUOUS
 10
579.334613721121
 20
-123.9462696449589
 30
0.0
 40
3.5
  1
8
  0
LINE
  5
15379
  8
0
  6
BYBLOCK
 10
1242.938681159897
 20
58.00189252886356
 30
0.0
 11
1243.635349053897
 21
60.60189252886357
 31
0.0
  0
LINE
  5
1537A
  8
0
  6
BYBLOCK
 10
1243.635349053897
 20
60.60189252886357
 30
0.0
 11
1244.332016947897
 21
58.00189252886356
 31
0.0
  0
LINE
  5
1537B
  8
0
  6
BYBLOCK
 10
1243.635349053897
 20
60.60189252886357
 30
0.0
 11
1243.635349053897
 21
58.00189252886356
 31
0.0
  0
LINE
  5
1537C
  8
0
  6
BYBLOCK
 10
1244.332016947897
 20
-39.56251548456148
 30
0.0
 11
1243.635349053897
 21
-42.16251548456148
 31
0.0
  0
LINE
  5
1537D
  8
0
  6
BYBLOCK
 10
1243.635349053897
 20
-42.16251548456148
 30
0.0
 11
1242.938681159897
 21
-39.56251548456148
 31
0.0
  0
LINE
  5
1537E
  8
0
  6
BYBLOCK
 10
1243.635349053897
 20
-42.16251548456148
 30
0.0
 11
1243.635349053897
 21
-39.56251548456148
 31
0.0
  0
TEXT
  5
1537F
  8
1DIM
  6
CONTINUOUS
 10
1242.725349053897
 20
1.257188522150955
 30
0.0
 40
4.55
  1
102.8
 50
90.0
1001
ACAD
1000
DSTYLE
1002
{
1070
   271
1070
     1
1070
    40
1040
1.3
1002
}
  0
VIEWPORT
  5
57
 67
     1
  8
0
 10
0.0
 20
0.0
 30
0.0
 40
615.2903225806451
 41
297.0
 68
     1
 69
     1
1001
ACAD
1000
MVIEW
1002
{
1070
    16
1010
0.0
1020
0.0
1030
0.0
1010
0.0
1020
0.0
1030
1.0
1040
0.0
1040
297.0
1040
-4.171999999925305
1040
12.83903210976956
1040
50.0
1040
0.0
1040
0.0
1070
    16
1070
   100
1070
     0
1070
     1
1070
     0
1070
     0
1070
     0
1070
     0
1040
0.0
1040
0.0
1040
0.0
1040
10.0
1040
10.0
1040
10.0
1040
10.0
1070
     0
1002
{
1002
}
1002
}
  0
ENDSEC
  0
EOF
