  0
SECTION
  2
HEADER
  9
$ACADVER
  1
AC1009
  9
$DWGCODEPAGE
  3
ansi_1252
  9
$INSBASE
 10
0.0
 20
0.0
 30
0.0
  9
$EXTMIN
 10
182.1424222439778
 20
-225.3326759918625
 30
0.0
  9
$EXTMAX
 10
1308.964068072652
 20
76.48009641908786
 30
0.0
  9
$LIMMIN
 10
0.0
 20
0.0
  9
$LIMMAX
 10
420.0
 20
297.0
  9
$ORTHOMODE
 70
     0
  9
$REGENMODE
 70
     1
  9
$FILLMODE
 70
     1
  9
$QTEXTMODE
 70
     0
  9
$MIRRTEXT
 70
     0
  9
$DRAGMODE
 70
     2
  9
$LTSCALE
 40
0.5
  9
$OSMODE
 70
 15199
  9
$ATTMODE
 70
     1
  9
$TEXTSIZE
 40
4.0
  9
$TRACEWID
 40
1.0
  9
$TEXTSTYLE
  7
STANDARD
  9
$CLAYER
  8
1TEXT
  9
$CELTYPE
  6
BYLAYER
  9
$CECOLOR
 62
   256
  9
$DIMSCALE
 40
1.0
  9
$DIMASZ
 40
2.0
  9
$DIMEXO
 40
0.0
  9
$DIMDLI
 40
7.0
  9
$DIMRND
 40
0.0
  9
$DIMDLE
 40
0.0
  9
$DIMEXE
 40
1.0
  9
$DIMTP
 40
0.0
  9
$DIMTM
 40
0.0
  9
$DIMTXT
 40
3.5
  9
$DIMCEN
 40
0.0
  9
$DIMTSZ
 40
0.0
  9
$DIMTOL
 70
     0
  9
$DIMLIM
 70
     0
  9
$DIMTIH
 70
     0
  9
$DIMTOH
 70
     0
  9
$DIMSE1
 70
     0
  9
$DIMSE2
 70
     0
  9
$DIMTAD
 70
     1
  9
$DIMZIN
 70
     8
  9
$DIMBLK
  1

  9
$DIMASO
 70
     1
  9
$DIMSHO
 70
     1
  9
$DIMPOST
  1
 
  9
$DIMAPOST
  1

  9
$DIMALT
 70
     0
  9
$DIMALTD
 70
     2
  9
$DIMALTF
 40
25.4
  9
$DIMLFAC
 40
1.0
  9
$DIMTOFL
 70
     1
  9
$DIMTVP
 40
0.0
  9
$DIMTIX
 70
     0
  9
$DIMSOXD
 70
     0
  9
$DIMSAH
 70
     1
  9
$DIMBLK1
  1
OPEN30
  9
$DIMBLK2
  1
OPEN30
  9
$DIMSTYLE
  2
NEWX10
  9
$DIMCLRD
 70
   256
  9
$DIMCLRE
 70
   256
  9
$DIMCLRT
 70
   201
  9
$DIMTFAC
 40
0.7
  9
$DIMGAP
 40
0.7
  9
$LUNITS
 70
     2
  9
$LUPREC
 70
     4
  9
$SKETCHINC
 40
1.0
  9
$FILLETRAD
 40
0.0
  9
$AUNITS
 70
     0
  9
$AUPREC
 70
     2
  9
$MENU
  1
acad
  9
$ELEVATION
 40
0.0
  9
$PELEVATION
 40
0.0
  9
$THICKNESS
 40
0.0
  9
$LIMCHECK
 70
     0
  9
$CHAMFERA
 40
10.0
  9
$CHAMFERB
 40
10.0
  9
$SKPOLY
 70
     0
  9
$TDCREATE
 40
2451318.57968625
  9
$TDUPDATE
 40
2459102.642346783
  9
$TDINDWG
 40
1.6568684028
  9
$TDUSRTIMER
 40
1.6568684028
  9
$USRTIMER
 70
     1
  9
$ANGBASE
 50
0.0
  9
$ANGDIR
 70
     0
  9
$PDMODE
 70
     0
  9
$PDSIZE
 40
0.0
  9
$PLINEWID
 40
0.0
  9
$COORDS
 70
     2
  9
$SPLFRAME
 70
     0
  9
$SPLINETYPE
 70
     6
  9
$SPLINESEGS
 70
     8
  9
$ATTDIA
 70
     0
  9
$ATTREQ
 70
     1
  9
$HANDLING
 70
     1
  9
$HANDSEED
  5
16698
  9
$SURFTAB1
 70
     6
  9
$SURFTAB2
 70
     6
  9
$SURFTYPE
 70
     6
  9
$SURFU
 70
     6
  9
$SURFV
 70
     6
  9
$UCSNAME
  2

  9
$UCSORG
 10
0.0
 20
0.0
 30
0.0
  9
$UCSXDIR
 10
1.0
 20
0.0
 30
0.0
  9
$UCSYDIR
 10
0.0
 20
1.0
 30
0.0
  9
$PUCSNAME
  2

  9
$PUCSORG
 10
0.0
 20
0.0
 30
0.0
  9
$PUCSXDIR
 10
1.0
 20
0.0
 30
0.0
  9
$PUCSYDIR
 10
0.0
 20
1.0
 30
0.0
  9
$USERI1
 70
     0
  9
$USERI2
 70
     0
  9
$USERI3
 70
     0
  9
$USERI4
 70
     0
  9
$USERI5
 70
     0
  9
$USERR1
 40
0.0
  9
$USERR2
 40
0.0
  9
$USERR3
 40
0.0
  9
$USERR4
 40
0.0
  9
$USERR5
 40
0.0
  9
$WORLDVIEW
 70
     1
  9
$SHADEDGE
 70
     3
  9
$SHADEDIF
 70
    70
  9
$TILEMODE
 70
     1
  9
$MAXACTVP
 70
    48
  9
$PLIMCHECK
 70
     0
  9
$PEXTMIN
 10
1.000000000000000E+20
 20
1.000000000000000E+20
 30
1.000000000000000E+20
  9
$PEXTMAX
 10
-1.000000000000000E+20
 20
-1.000000000000000E+20
 30
-1.000000000000000E+20
  9
$PLIMMIN
 10
0.0
 20
0.0
  9
$PLIMMAX
 10
420.0
 20
297.0
  9
$UNITMODE
 70
     0
  9
$VISRETAIN
 70
     1
  9
$PLINEGEN
 70
     0
  9
$PSLTSCALE
 70
     1
  0
ENDSEC
  0
SECTION
  2
TABLES
  0
TABLE
  2
VPORT
 70
     1
  0
VPORT
  2
*ACTIVE
 70
     0
 10
0.0
 20
0.0
 11
1.0
 21
1.0
 12
745.5532451583147
 22
-74.42628978638731
 13
0.0
 23
0.0
 14
10.0
 24
10.0
 15
10.0
 25
10.0
 16
0.0
 26
0.0
 36
1.0
 17
0.0
 27
0.0
 37
0.0
 40
583.9936331632199
 41
2.07168458781362
 42
50.0
 43
0.0
 44
0.0
 50
0.0
 51
0.0
 71
    16
 72
   100
 73
     1
 74
     1
 75
     0
 76
     0
 77
     0
 78
     0
  0
ENDTAB
  0
TABLE
  2
LTYPE
 70
    13
  0
LTYPE
  2
CONTINUOUS
 70
     0
  3
Solid line
 72
    65
 73
     0
 40
0.0
  0
LTYPE
  2
HIDDEN
 70
     0
  3
Hidden __ __ __ __ __ __ __ __ __ __ __ __ __ _
 72
    65
 73
     2
 40
9.524999999999999
 49
6.35
 49
-3.175
  0
LTYPE
  2
CENTER2
 70
     0
  3
Center (.5x) ___ _ ___ _ ___ _ ___ _ ___ _ ___
 72
    65
 73
     4
 40
28.575
 49
19.05
 49
-3.175
 49
3.175
 49
-3.175
  0
LTYPE
  2
PHANTOM2
 70
     0
  3
Phantom (0.5x) ___ _ _ ___ _ _ ___ _ _ ___ _ _
 72
    65
 73
     6
 40
31.75
 49
15.875
 49
-3.175
 49
3.175
 49
-3.175
 49
3.175
 49
-3.175
  0
LTYPE
  2
DASHED2
 70
     0
  3
Dashed (0.5x) _ _ _ _ _ _ _ _ _ _ _ _ _ _ _ _ _
 72
    65
 73
     2
 40
9.524999999999999
 49
6.35
 49
-3.175
  0
ENDTAB
  0
TABLE
  2
LAYER
 70
    52
  0
LAYER
  2
0
 70
     0
 62
     7
  6
CONTINUOUS
  0
LAYER
  2
1CENTER
 70
     0
 62
     7
  6
CENTER2
  0
LAYER
  2
1TEXT
 70
     0
 62
     7
  6
CONTINUOUS
  0
LAYER
  2
01
 70
     0
 62
     1
  6
CONTINUOUS
  0
LAYER
  2
1DIM
 70
     0
 62
     7
  6
CONTINUOUS
  0
LAYER
  2
1HATCH
 70
     0
 62
     7
  6
CONTINUOUS
  0
LAYER
  2
1PHANTOM
 70
     0
 62
     7
  6
PHANTOM2
  0
ENDTAB
  0
TABLE
  2
STYLE
 70
    19
  0
STYLE
  2
STANDARD
 70
     0
 40
0.0
 41
1.0
 50
0.0
 71
     0
 42
4.0
  3
txt.shx
  4
extfont.shx
  0
STYLE
  2
STANDARD06
 70
     0
 40
0.0
 41
0.6
 50
0.0
 71
     0
 42
2.0
  3
romans.shx
  4
extfont2.shx
  0
ENDTAB
  0
TABLE
  2
VIEW
 70
     0
  0
ENDTAB
  0
TABLE
  2
UCS
 70
     0
  0
ENDTAB
  0
TABLE
  2
APPID
 70
    24
  0
APPID
  2
ACAD
 70
     0
  0
APPID
  2
DRAWINGVARIABLESXDATA
 70
     0
  0
APPID
  2
CONTENTTABDATA
 70
     0
  0
APPID
  2
CONTENTCURRENTTAB
 70
     0
  0
APPID
  2
CONTENTBLOCKDESCRIPTION
 70
     0
  0
APPID
  2
CONTENTBLOCKICON
 70
     0
  0
APPID
  2
CONTENTLONGBLOCKNAME
 70
     0
  0
APPID
  2
ACAD_PSEXT
 70
     0
  0
APPID
  2
ACAD_MLEADERVER
 70
     0
  0
APPID
  2
ACAD_EXEMPT_FROM_CAD_STAND
 70
     0
  0
APPID
  2
ACAECLAYERSTANDARD
 70
     0
  0
APPID
  2
ACADANNOTATIVE
 70
     0
  0
APPID
  2
ACDBBLOCKREPETAG
 70
     0
  0
APPID
  2
ACAD_OBJECT_CHANGE_GUID
 70
     0
  0
APPID
  2
ACLAYERTOOLS
 70
     0
  0
APPID
  2
ACAD_NAV_VCDISPLAY
 70
     0
  0
APPID
  2
ACADSTRINGINFO
 70
     0
  0
APPID
  2
GRADIENTCOLOR1ACI
 70
     0
  0
APPID
  2
GRADIENTCOLOR2ACI
 70
     0
  0
APPID
  2
ACADANNOMONITORALERTICONDI
 70
     0
  0
APPID
  2
ACAD_DSTYLE_DIMJOGGED_JOGA
 70
     0
  0
APPID
  2
ACAD_DSTYLE_DIM_LINETYPE
 70
     0
  0
APPID
  2
ACAD_DSTYLE_DIM_EXT1_LINET
 70
     0
  0
APPID
  2
ACAD_DSTYLE_DIM_EXT2_LINET
 70
     0
  0
ENDTAB
  0
TABLE
  2
DIMSTYLE
 70
     3
  0
DIMSTYLE
  2
NEWX10
 70
     0
  3
 
  4

  5

  6
OPEN30
  7
OPEN30
 40
1.0
 41
2.0
 42
0.0
 43
7.0
 44
1.0
 45
0.0
 46
0.0
 47
0.0
 48
0.0
140
3.5
141
0.0
142
0.0
143
25.4
144
1.0
145
0.0
146
0.7
147
0.7
 71
     0
 72
     0
 73
     0
 74
     0
 75
     0
 76
     0
 77
     1
 78
     8
170
     0
171
     2
172
     1
173
     1
174
     0
175
     0
176
   256
177
   256
178
   201
  0
ENDTAB
  0
ENDSEC
  0
SECTION
  2
BLOCKS
  0
BLOCK
  8
0
  2
$MODEL_SPACE
 70
     0
 10
0.0
 20
0.0
 30
0.0
  3
$MODEL_SPACE
  1

  0
ENDBLK
  5
1A
  8
0
  0
BLOCK
 67
     1
  8
0
  2
$PAPER_SPACE
 70
     0
 10
0.0
 20
0.0
 30
0.0
  3
$PAPER_SPACE
  1

  0
ENDBLK
  5
17
 67
     1
  8
0
  0
BLOCK
  8
0
  2
_OPEN30
 70
     0
 10
0.0
 20
0.0
 30
0.0
  3
_OPEN30
  1

  0
LINE
  5
44
  8
0
  6
BYBLOCK
 62
     0
 10
-1.0
 20
0.26794919
 30
0.0
 11
0.0
 21
0.0
 31
0.0
  0
LINE
  5
45
  8
0
  6
BYBLOCK
 62
     0
 10
0.0
 20
0.0
 30
0.0
 11
-1.0
 21
-0.26794919
 31
0.0
  0
LINE
  5
46
  8
0
  6
BYBLOCK
 62
     0
 10
0.0
 20
0.0
 30
0.0
 11
-1.0
 21
0.0
 31
0.0
  0
ENDBLK
  5
47
  8
0
  0
BLOCK
  8
0
  2
A3WAKUKAWAJUN2017_HYOUDAI_
 70
     0
 10
0.0
 20
0.0
 30
0.0
  3
A3WAKUKAWAJUN2017_HYOUDAI_
  1

  0
LINE
  5
1057F
  8
0
 10
13.26299999998673
 20
-0.0001000000000317
 30
0.0
 11
9.236999999990758
 21
8.999899999990987
 31
0.0
1001
ACAD
1000
ASC_BOUNDS
1002
{
1070
    19
1005
105C0
1002
}
  0
LINE
  5
10580
  8
0
 10
5.657999999994331
 20
0.9999999999989768
 30
0.0
 11
9.236999999990758
 21
8.999999999991019
 31
0.0
1001
ACAD
1000
ASC_BOUNDS
1002
{
1070
    19
1005
105C0
1002
}
  0
LINE
  5
10581
  8
0
 10
18.59199999998134
 20
-0.2368999999997641
 30
0.0
 11
16.46099999998353
 21
5.432899999994561
 31
0.0
1001
ACAD
1000
ASC_BOUNDS
1002
{
1070
    19
1005
105C1
1002
}
  0
LINE
  5
10582
  8
0
 10
18.59199999998134
 20
-0.2368999999997641
 30
0.0
 11
22.38199999997767
 21
8.763099999991255
 31
0.0
1001
ACAD
1000
ASC_BOUNDS
1002
{
1070
    19
1005
105C1
1002
}
  0
LINE
  5
10583
  8
0
 10
14.32899999998563
 20
-0.2368999999997641
 30
0.0
 11
16.46099999998353
 21
5.432899999994561
 31
0.0
1001
ACAD
1000
ASC_BOUNDS
1002
{
1070
    19
1005
105C1
1002
}
  0
LINE
  5
10584
  8
0
 10
14.32899999998563
 20
-0.2368999999997641
 30
0.0
 11
10.53899999998941
 21
8.763099999991255
 31
0.0
1001
ACAD
1000
ASC_BOUNDS
1002
{
1070
    19
1005
105C1
1002
}
  0
LINE
  5
10585
  8
0
 10
19.53899999998043
 20
-0.0001000000000317
 30
0.0
 11
23.56599999997638
 21
8.999899999990987
 31
0.0
1001
ACAD
1000
ASC_BOUNDS
1002
{
1070
    19
1005
105C2
1002
}
  0
LINE
  5
10586
  8
0
 10
26.97358892824991
 20
1.383099999991202
 30
0.0
 11
23.56599999997638
 21
8.999899999990987
 31
0.0
1001
ACAD
1000
ASC_BOUNDS
1002
{
1070
    19
1005
105C2
1002
}
  0
LINE
  5
10587
  8
0
 10
5.657999999994331
 20
0.9999999999989768
 30
0.0
 11
3.181999999996833
 21
4.668599999995308
 31
0.0
1001
ACAD
1000
ASC_BOUNDS
1002
{
1070
    19
1005
105C0
1002
}
  0
LINE
  5
10588
  8
0
 10
4.617999999995391
 20
-0.0001000000000317
 30
0.0
 11
1.420999999998571
 21
4.736799999995242
 31
0.0
1001
ACAD
1000
ASC_BOUNDS
1002
{
1070
    19
1005
105C0
1002
}
  0
LINE
  5
10589
  8
0
 10
1.420999999998571
 20
8.763099999991255
 30
0.0
 11
1.420999999998571
 21
0.0
 31
0.0
1001
ACAD
1000
ASC_BOUNDS
1002
{
1070
    19
1005
105C5
1002
}
  0
LINE
  5
1058A
  8
0
 10
0.0
 20
8.763099999991255
 30
0.0
 11
0.0
 21
0.0
 31
0.0
1001
ACAD
1000
ASC_BOUNDS
1002
{
1070
    19
1005
105C5
1002
}
  0
LINE
  5
1058B
  8
0
 10
6.766999999993232
 20
-0.0001000000000317
 30
0.0
 11
7.826999999992154
 21
2.368399999997621
 31
0.0
1001
ACAD
1000
ASC_BOUNDS
1002
{
1070
    19
1005
105C0
1002
}
  0
LINE
  5
1058C
  8
0
 10
0.0
 20
0.0
 30
0.0
 11
1.420999999998571
 21
0.0
 31
0.0
1001
ACAD
1000
ASC_BOUNDS
1002
{
1070
    19
1005
105C5
1002
}
  0
LINE
  5
1058D
  8
0
 10
4.617999999995391
 20
0.0
 30
0.0
 11
6.766999999993232
 21
0.0
 31
0.0
1001
ACAD
1000
ASC_BOUNDS
1002
{
1070
    19
1005
105C0
1002
}
  0
LINE
  5
1058E
  8
0
 10
11.70599999998831
 20
-0.0001000000000317
 30
0.0
 11
10.64699999998936
 21
2.368399999997621
 31
0.0
1001
ACAD
1000
ASC_BOUNDS
1002
{
1070
    19
1005
105C0
1002
}
  0
LINE
  5
1058F
  8
0
 10
7.826999999992154
 20
2.368399999997621
 30
0.0
 11
10.64699999998936
 21
2.368399999997621
 31
0.0
1001
ACAD
1000
ASC_BOUNDS
1002
{
1070
    19
1005
105C0
1002
}
  0
LINE
  5
10590
  8
0
 10
11.70599999998831
 20
0.0
 30
0.0
 11
13.26299999998673
 21
0.0
 31
0.0
1001
ACAD
1000
ASC_BOUNDS
1002
{
1070
    19
1005
105C0
1002
}
  0
LINE
  5
10591
  8
0
 10
22.15599999997789
 20
2.368399999997621
 30
0.0
 11
24.97599999997499
 21
2.368399999997621
 31
0.0
1001
ACAD
1000
ASC_BOUNDS
1002
{
1070
    19
1005
105C2
1002
}
  0
LINE
  5
10592
  8
0
 10
19.53899999998043
 20
0.0
 30
0.0
 11
21.09599999997886
 21
0.0
 31
0.0
1001
ACAD
1000
ASC_BOUNDS
1002
{
1070
    19
1005
105C2
1002
}
  0
LINE
  5
10593
  8
0
 10
21.09599999997886
 20
-0.0001000000000317
 30
0.0
 11
22.15599999997789
 21
2.368399999997621
 31
0.0
1001
ACAD
1000
ASC_BOUNDS
1002
{
1070
    19
1005
105C2
1002
}
  0
LINE
  5
10594
  8
0
 10
26.02015566812236
 20
0.0330999999912365
 30
0.0
 11
24.97599999997499
 21
2.368399999997621
 31
0.0
1001
ACAD
1000
ASC_BOUNDS
1002
{
1070
    19
1005
105C2
1002
}
  0
LINE
  5
10595
  8
0
 10
14.32399999998563
 20
3.315799999996671
 30
0.0
 11
16.46099999998353
 21
8.999899999990987
 31
0.0
1001
ACAD
1000
ASC_BOUNDS
1002
{
1070
    19
1005
105C1
1002
}
  0
LINE
  5
10596
  8
0
 10
6.432999999993513
 20
8.763099999991255
 30
0.0
 11
3.181999999996833
 21
4.668599999995308
 31
0.0
1001
ACAD
1000
ASC_BOUNDS
1002
{
1070
    19
1005
105C0
1002
}
  0
LINE
  5
10597
  8
0
 10
4.617999999995391
 20
8.763099999991255
 30
0.0
 11
1.420999999998571
 21
4.736799999995242
 31
0.0
1001
ACAD
1000
ASC_BOUNDS
1002
{
1070
    19
1005
105C0
1002
}
  0
LINE
  5
10598
  8
0
 10
0.0
 20
8.763099999991255
 30
0.0
 11
1.420999999998571
 21
8.763099999991255
 31
0.0
1001
ACAD
1000
ASC_BOUNDS
1002
{
1070
    19
1005
105C5
1002
}
  0
LINE
  5
10599
  8
0
 10
4.617999999995391
 20
8.763099999991255
 30
0.0
 11
6.432999999993513
 21
8.763099999991255
 31
0.0
1001
ACAD
1000
ASC_BOUNDS
1002
{
1070
    19
1005
105C0
1002
}
  0
LINE
  5
1059A
  8
0
 10
14.32399999998563
 20
3.315799999996671
 30
0.0
 11
12.02999999998792
 21
8.763099999991255
 31
0.0
1001
ACAD
1000
ASC_BOUNDS
1002
{
1070
    19
1005
105C1
1002
}
  0
LINE
  5
1059B
  8
0
 10
10.06399999998996
 20
3.670999999996297
 30
0.0
 11
9.236999999990758
 21
5.5200999999945
 31
0.0
1001
ACAD
1000
ASC_BOUNDS
1002
{
1070
    19
1005
105C0
1002
}
  0
LINE
  5
1059C
  8
0
 10
8.409999999991555
 20
3.670999999996297
 30
0.0
 11
9.236999999990758
 21
5.5200999999945
 31
0.0
1001
ACAD
1000
ASC_BOUNDS
1002
{
1070
    19
1005
105C0
1002
}
  0
LINE
  5
1059D
  8
0
 10
8.409999999991555
 20
3.670999999996297
 30
0.0
 11
10.06399999998996
 21
3.670999999996297
 31
0.0
1001
ACAD
1000
ASC_BOUNDS
1002
{
1070
    19
1005
105C0
1002
}
  0
LINE
  5
1059E
  8
0
 10
10.53899999998941
 20
8.763099999991255
 30
0.0
 11
12.02999999998792
 21
8.763099999991255
 31
0.0
1001
ACAD
1000
ASC_BOUNDS
1002
{
1070
    19
1005
105C1
1002
}
  0
LINE
  5
1059F
  8
0
 10
22.7389999999773
 20
3.670999999996297
 30
0.0
 11
23.56599999997638
 21
5.5200999999945
 31
0.0
1001
ACAD
1000
ASC_BOUNDS
1002
{
1070
    19
1005
105C2
1002
}
  0
LINE
  5
105A0
  8
0
 10
22.7389999999773
 20
3.670999999996297
 30
0.0
 11
24.39299999997559
 21
3.670999999996297
 31
0.0
1001
ACAD
1000
ASC_BOUNDS
1002
{
1070
    19
1005
105C2
1002
}
  0
LINE
  5
105A1
  8
0
 10
18.59799999998143
 20
3.315799999996671
 30
0.0
 11
20.89099999997916
 21
8.763099999991255
 31
0.0
1001
ACAD
1000
ASC_BOUNDS
1002
{
1070
    19
1005
105C1
1002
}
  0
LINE
  5
105A2
  8
0
 10
18.59799999998143
 20
3.315799999996671
 30
0.0
 11
16.46099999998353
 21
8.999899999990987
 31
0.0
1001
ACAD
1000
ASC_BOUNDS
1002
{
1070
    19
1005
105C1
1002
}
  0
LINE
  5
105A3
  8
0
 10
20.89099999997916
 20
8.763099999991255
 30
0.0
 11
22.38199999997767
 21
8.763099999991255
 31
0.0
1001
ACAD
1000
ASC_BOUNDS
1002
{
1070
    19
1005
105C1
1002
}
  0
LINE
  5
105A4
  8
0
 10
24.39299999997559
 20
3.670999999996297
 30
0.0
 11
23.56599999997638
 21
5.5200999999945
 31
0.0
1001
ACAD
1000
ASC_BOUNDS
1002
{
1070
    19
1005
105C2
1002
}
  0
LINE
  5
105A5
  8
0
 10
44.99999999995498
 20
-0.2368999999997641
 30
0.0
 11
40.02599999995994
 21
5.341799999994635
 31
0.0
1001
ACAD
1000
ASC_BOUNDS
1002
{
1070
    19
1005
105C4
1002
}
  0
LINE
  5
105A6
  8
0
 10
40.02599999995994
 20
5.341799999994635
 30
0.0
 11
40.02599999995994
 21
0.0
 31
0.0
1001
ACAD
1000
ASC_BOUNDS
1002
{
1070
    19
1005
105C4
1002
}
  0
LINE
  5
105A7
  8
0
 10
38.60499999996136
 20
8.999999999991019
 30
0.0
 11
38.60499999996136
 21
0.0
 31
0.0
1001
ACAD
1000
ASC_BOUNDS
1002
{
1070
    19
1005
105C4
1002
}
  0
LINE
  5
105A8
  8
0
 10
44.99999999995498
 20
8.763099999991255
 30
0.0
 11
44.99999999995498
 21
-0.2368999999997641
 31
0.0
1001
ACAD
1000
ASC_BOUNDS
1002
{
1070
    19
1005
105C4
1002
}
  0
LINE
  5
105A9
  8
0
 10
38.60499999996136
 20
0.0
 30
0.0
 11
40.02599999995994
 21
0.0
 31
0.0
1001
ACAD
1000
ASC_BOUNDS
1002
{
1070
    19
1005
105C4
1002
}
  0
LINE
  5
105AA
  8
0
 10
43.57899999995641
 20
3.421199999996588
 30
0.0
 11
38.60499999996136
 21
8.999899999990987
 31
0.0
1001
ACAD
1000
ASC_BOUNDS
1002
{
1070
    19
1005
105C4
1002
}
  0
LINE
  5
105AB
  8
0
 10
43.57899999995641
 20
8.763099999991255
 30
0.0
 11
43.57899999995641
 21
3.421199999996588
 31
0.0
1001
ACAD
1000
ASC_BOUNDS
1002
{
1070
    19
1005
105C4
1002
}
  0
LINE
  5
105AC
  8
0
 10
43.57899999995641
 20
8.763099999991255
 30
0.0
 11
44.99999999995498
 21
8.763099999991255
 31
0.0
1001
ACAD
1000
ASC_BOUNDS
1002
{
1070
    19
1005
105C4
1002
}
  0
LINE
  5
105AD
  8
0
 10
37.67199999996831
 20
8.763099999991255
 30
0.0
 11
36.23199999996837
 21
8.763099999991255
 31
0.0
  0
LINE
  5
105AE
  8
0
 10
31.64199999996833
 20
8.763099999991255
 30
0.0
 11
31.64199999996833
 21
2.481619422925121
 31
0.0
  0
LINE
  5
105AF
  8
0
 10
37.67199999996831
 20
8.763099999991255
 30
0.0
 11
37.67199999996831
 21
2.481619422925121
 31
0.0
  0
LINE
  5
105B0
  8
0
 10
36.23199999996837
 20
8.763099999991255
 30
0.0
 11
36.23199999996837
 21
2.481619422925064
 31
0.0
  0
LINE
  5
105B1
  8
0
 10
33.08199999996839
 20
8.763099999991255
 30
0.0
 11
33.08199999996839
 21
2.481619422925121
 31
0.0
  0
ARC
  5
105B2
  8
0
 10
34.65699999996832
 20
3.183099999991214
 30
0.0
 40
3.420000000000007
 50
240.0000000000255
 51
299.9999999999766
  0
ARC
  5
105B3
  8
0
 10
34.65699999996832
 20
3.183099999991214
 30
0.0
 40
1.97999999999999
 50
240.000000000026
 51
299.9999999999703
  0
LINE
  5
105B4
  8
0
 10
33.08199999996828
 20
8.763099999991255
 30
0.0
 11
31.64199999996833
 21
8.763099999991255
 31
0.0
  0
ARC
  5
105B5
  8
0
 10
35.06199999996829
 20
2.481619422925064
 30
0.0
 40
1.17
 50
299.9999999999699
 51
0.0
  0
ARC
  5
105B6
  8
0
 10
34.25199999996835
 20
2.481619422925121
 30
0.0
 40
1.17
 50
180.0
 51
240.0000000000238
  0
ARC
  5
105B7
  8
0
 10
35.06199999996841
 20
2.481619422925121
 30
0.0
 40
2.61
 50
299.9999999999756
 51
0.0
  0
ARC
  5
105B8
  8
0
 10
34.25199999996835
 20
2.481619422925121
 30
0.0
 40
2.61
 50
180.0
 51
240.0000000000244
  0
LINE
  5
105B9
  8
0
 10
29.30199999996933
 20
8.763099999991255
 30
0.0
 11
30.74199999996927
 21
8.763099999991255
 31
0.0
1001
ACAD
1000
ASC_BOUNDS
1002
{
1070
    19
1005
105C2
1002
}
  0
LINE
  5
105BA
  8
0
 10
30.74199999996927
 20
8.763099999991255
 30
0.0
 11
30.74199999996927
 21
2.373099999991211
 31
0.0
1001
ACAD
1000
ASC_BOUNDS
1002
{
1070
    19
1005
105C2
1002
}
  0
LINE
  5
105BB
  8
0
 10
26.02015566812236
 20
0.0330999999912365
 30
0.0
 11
28.40199999996923
 21
0.0330999999912365
 31
0.0
1001
ACAD
1000
ASC_BOUNDS
1002
{
1070
    19
1005
105C2
1002
}
  0
LINE
  5
105BC
  8
0
 10
29.30199999996933
 20
8.763099999991255
 30
0.0
 11
29.30199999996933
 21
2.283099999991236
 31
0.0
1001
ACAD
1000
ASC_BOUNDS
1002
{
1070
    19
1005
105C2
1002
}
  0
LINE
  5
105BD
  8
0
 10
26.97358892824991
 20
1.383099999991202
 30
0.0
 11
28.40199999996923
 21
1.383099999991202
 31
0.0
1001
ACAD
1000
ASC_BOUNDS
1002
{
1070
    19
1005
105C2
1002
}
  0
ARC
  5
105BE
  8
0
 10
28.40199999996923
 20
2.283099999991236
 30
0.0
 40
0.9
 50
270.0
 51
0.0
1001
ACAD
1000
ASC_BOUNDS
1002
{
1070
    19
1005
105C2
1002
}
  0
ARC
  5
105BF
  8
0
 10
28.40199999996923
 20
2.373099999991211
 30
0.0
 40
2.34
 50
270.0
 51
0.0
1001
ACAD
1000
ASC_BOUNDS
1002
{
1070
    19
1005
105C2
1002
}
  0
INSERT
  5
105C0
  8
0
  2
*X56
 10
0.0
 20
0.0
 30
0.0
1001
ACAD
1000
HATCH
1002
{
1070
    19
1000
ANSI37
1040
0.15
1040
0.0
1000
ASC_BOUNDS
1070
     2
1070
     2
1070
    12
1005
1057F
1005
10580
1005
10587
1005
10596
1005
10599
1005
10597
1005
10588
1005
1058D
1005
1058B
1005
1058F
1005
1058E
1005
10590
1070
     2
1070
     3
1005
1059B
1005
1059D
1005
1059C
1000
ASC_SEEDPOINT
1011
3.614004224891801
1021
2.996669441146025
1031
0.0
1021
2.996669441146025
1031
0.0
1000
R14_HATCH_DATA
1000
105C0
1011
1.0
1021
0.0
1031
0.0
1021
0.0
1031
0.0
1011
0.0
1021
1.0
1031
0.0
1021
1.0
1031
0.0
1011
0.0
1021
0.0
1031
1.0
1021
0.0
1031
1.0
1040
0.0
1010
0.0
1020
0.0
1030
1.0
1000
ANSI37
1070
     0
1070
     1
1071
        2
1071
        7
1070
     0
1070
     1
1071
       17
1040
13.26299999998673
1040
-0.0001000000000317
1040
9.236999999990758
1040
8.999899999990987
1040
9.236999999990758
1040
8.999999999991019
1040
5.657999999994331
1040
0.9999999999989768
1040
3.181999999996833
1040
4.668599999995308
1040
6.432999999993513
1040
8.763099999991255
1040
4.617999999995391
1040
8.763099999991255
1040
1.420999999998571
1040
4.736799999995242
1040
4.617999999995391
1040
-0.0001000000000317
1040
4.617999999995391
1040
0.0
1040
6.766999999993232
1040
0.0
1040
6.766999999993232
1040
-0.0001000000000317
1040
7.826999999992154
1040
2.368399999997621
1040
10.64699999998936
1040
2.368399999997621
1040
11.70599999998831
1040
-0.0001000000000317
1040
11.70599999998831
1040
0.0
1040
13.26299999998673
1040
0.0
1071
       12
1005
1057F
1005
10580
1005
10587
1005
10596
1005
10599
1005
10597
1005
10588
1005
1058D
1005
1058B
1005
1058F
1005
1058E
1005
10590
1071
       22
1070
     0
1070
     1
1071
        3
1040
9.236999999990758
1040
5.5200999999945
1040
10.06399999998996
1040
3.670999999996297
1040
8.409999999991555
1040
3.670999999996297
1071
        3
1005
1059B
1005
1059D
1005
1059C
1070
     0
1070
     1
1040
0.0
1040
0.15
1070
     0
1070
     2
1040
0.7853981633974483
1040
49.29960901727088
1040
-10.17736998311392
1040
-0.3367596045400932
1040
0.3367596045400932
1070
     0
1040
2.356194490192345
1040
49.29960901727088
1040
-10.17736998311392
1040
-0.3367596045400932
1040
-0.3367596045400932
1070
     0
1040
0.0110235143455945
1071
        2
1040
3.614004224891801
1040
2.996669441146025
1040
0.0
1040
3.614004224891801
1040
2.996669441146025
1040
0.0
1002
}
  0
INSERT
  5
105C1
  8
0
  2
*X57
 10
0.0
 20
0.0
 30
0.0
1001
ACAD
1000
HATCH
1002
{
1070
    19
1000
ANSI37
1040
0.15
1040
0.0
1000
ASC_BOUNDS
1070
     1
1070
     2
1070
    10
1005
10581
1005
10582
1005
105A3
1005
105A1
1005
105A2
1005
10595
1005
1059A
1005
1059E
1005
10584
1005
10583
1000
ASC_SEEDPOINT
1011
14.73245321214324
1021
2.798246178283421
1031
0.0
1021
2.798246178283421
1031
0.0
1000
R14_HATCH_DATA
1000
105C1
1011
1.0
1021
0.0
1031
0.0
1021
0.0
1031
0.0
1011
0.0
1021
1.0
1031
0.0
1021
1.0
1031
0.0
1011
0.0
1021
0.0
1031
1.0
1021
0.0
1031
1.0
1040
0.0
1010
0.0
1020
0.0
1030
1.0
1000
ANSI37
1070
     0
1070
     1
1071
        1
1071
        7
1070
     0
1070
     1
1071
       10
1040
16.46099999998353
1040
5.432899999994561
1040
18.59199999998134
1040
-0.2368999999997641
1040
22.38199999997767
1040
8.763099999991255
1040
20.89099999997916
1040
8.763099999991255
1040
18.59799999998143
1040
3.315799999996671
1040
16.46099999998353
1040
8.999899999990987
1040
14.32399999998563
1040
3.315799999996671
1040
12.02999999998792
1040
8.763099999991255
1040
10.53899999998941
1040
8.763099999991255
1040
14.32899999998563
1040
-0.2368999999997641
1071
       10
1005
10581
1005
10582
1005
105A3
1005
105A1
1005
105A2
1005
10595
1005
1059A
1005
1059E
1005
10584
1005
10583
1070
     0
1070
     1
1040
0.0
1040
0.15
1070
     0
1070
     2
1040
0.7853981633974483
1040
49.29960901727088
1040
-10.17736998311392
1040
-0.3367596045400932
1040
0.3367596045400932
1070
     0
1040
2.356194490192345
1040
49.29960901727088
1040
-10.17736998311392
1040
-0.3367596045400932
1040
-0.3367596045400932
1070
     0
1040
0.0110235143455945
1071
        1
1040
14.73245321214324
1040
2.798246178283421
1040
0.0
1002
}
  0
INSERT
  5
105C2
  8
0
  2
*X58
 10
0.0
 20
0.0
 30
0.0
1001
ACAD
1000
HATCH
1002
{
1070
    19
1000
ANSI37
1040
0.15
1040
0.0
1000
ASC_BOUNDS
1070
     2
1070
     2
1070
    13
1005
10585
1005
10592
1005
10593
1005
10591
1005
10594
1005
105BB
1005
105BF
1005
105BA
1005
105B9
1005
105BC
1005
105BE
1005
105BD
1005
10586
1070
     2
1070
     3
1005
1059F
1005
105A4
1005
105A0
1000
ASC_SEEDPOINT
1011
21.97929957367762
1021
3.294304244259308
1031
0.0
1021
3.294304244259308
1031
0.0
1000
R14_HATCH_DATA
1000
105C2
1011
1.0
1021
0.0
1031
0.0
1021
0.0
1031
0.0
1011
0.0
1021
1.0
1031
0.0
1021
1.0
1031
0.0
1011
0.0
1021
0.0
1031
1.0
1021
0.0
1031
1.0
1040
0.0
1010
0.0
1020
0.0
1030
1.0
1000
ANSI37
1070
     0
1070
     1
1071
        2
1071
        7
1070
     1
1070
     1
1071
       15
1040
23.56599999997638
1040
8.999899999990987
1040
0.0
1040
19.53899999998043
1040
-0.0001000000000317
1040
0.0
1040
19.53899999998043
1040
0.0
1040
0.0
1040
21.09599999997886
1040
0.0
1040
0.0
1040
21.09599999997886
1040
-0.0001000000000317
1040
0.0
1040
22.15599999997789
1040
2.368399999997621
1040
0.0
1040
24.97599999997499
1040
2.368399999997621
1040
0.0
1040
26.02015566812236
1040
0.0330999999912365
1040
0.0
1040
28.40199999996923
1040
0.0330999999912365
1040
0.414213562373095
1040
30.74199999996923
1040
2.373099999991211
1040
0.0
1040
30.74199999996927
1040
8.763099999991255
1040
0.0
1040
29.30199999996933
1040
8.763099999991255
1040
0.0
1040
29.30199999996933
1040
2.283099999991236
1040
-0.414213562373095
1040
28.40199999996923
1040
1.383099999991237
1040
0.0
1040
26.97358892824991
1040
1.383099999991202
1040
0.0
1071
       13
1005
10585
1005
10592
1005
10593
1005
10591
1005
10594
1005
105BB
1005
105BF
1005
105BA
1005
105B9
1005
105BC
1005
105BE
1005
105BD
1005
10586
1071
       22
1070
     0
1070
     1
1071
        3
1040
22.7389999999773
1040
3.670999999996297
1040
23.56599999997638
1040
5.5200999999945
1040
24.39299999997559
1040
3.670999999996297
1071
        3
1005
1059F
1005
105A4
1005
105A0
1070
     0
1070
     1
1040
0.0
1040
0.15
1070
     0
1070
     2
1040
0.7853981633974483
1040
49.29960901727088
1040
-10.17736998311392
1040
-0.3367596045400932
1040
0.3367596045400932
1070
     0
1040
2.356194490192345
1040
49.29960901727088
1040
-10.17736998311392
1040
-0.3367596045400932
1040
-0.3367596045400932
1070
     0
1040
0.0110235143455945
1071
        2
1040
21.97929957367762
1040
3.294304244259308
1040
0.0
1040
21.97929957367762
1040
3.294304244259308
1040
0.0
1002
}
  0
INSERT
  5
105C3
  8
0
  2
*X59
 10
0.0
 20
0.0
 30
0.0
1001
ACAD
1000
HATCH
1002
{
1070
    19
1000
ANSI37
1040
0.15
1040
0.0
1000
R14_HATCH_DATA
1000
105C3
1011
1.0
1021
0.0
1031
0.0
1021
0.0
1031
0.0
1011
0.0
1021
1.0
1031
0.0
1021
1.0
1031
0.0
1011
0.0
1021
0.0
1031
1.0
1021
0.0
1031
1.0
1040
0.0
1010
0.0
1020
0.0
1030
1.0
1000
ANSI37
1070
     0
1070
     1
1071
        1
1071
        7
1070
     1
1070
     1
1071
       12
1040
31.64199999996833
1040
2.481619422925121
1040
0.2679491924310942
1040
32.94699999997067
1040
0.2212931190493919
1040
0.2679491924301353
1040
36.36699999995983
1040
0.2212931190459813
1040
0.2679491924321411
1040
37.67199999996831
1040
2.481619422928361
1040
0.0
1040
37.67199999996831
1040
8.763099999991255
1040
0.0
1040
36.23199999996837
1040
8.763099999991255
1040
0.0
1040
36.23199999996837
1040
2.481619422925064
1040
-0.2679491924310291
1040
35.64699999996708
1040
1.468369700498386
1040
-0.267949192430519
1040
33.66699999997093
1040
1.468369700497703
1040
-0.267949192431809
1040
33.08199999996839
1040
2.481619422926997
1040
0.0
1040
33.08199999996839
1040
8.763099999991255
1040
0.0
1040
31.64199999996833
1040
8.763099999991255
1040
0.0
1071
        0
1070
     0
1070
     1
1040
0.0
1040
0.15
1070
     0
1070
     2
1040
0.7853981633974483
1040
49.29960901727088
1040
-10.17736998311392
1040
-0.3367596045400932
1040
0.3367596045400932
1070
     0
1040
2.356194490192345
1040
49.29960901727088
1040
-10.17736998311392
1040
-0.3367596045400932
1040
-0.3367596045400932
1070
     0
1040
0.0110235143455945
1071
        1
1040
32.30357378967278
1040
3.988785755459219
1040
0.0
1002
}
  0
INSERT
  5
105C4
  8
0
  2
*X60
 10
0.0
 20
0.0
 30
0.0
1001
ACAD
1000
HATCH
1002
{
1070
    19
1000
ANSI37
1040
0.15
1040
0.0
1000
ASC_BOUNDS
1070
     1
1070
     2
1070
     8
1005
105A5
1005
105A8
1005
105AC
1005
105AB
1005
105AA
1005
105A7
1005
105A9
1005
105A6
1000
ASC_SEEDPOINT
1011
39.74896370716704
1021
4.484843821435049
1031
0.0
1021
4.484843821435049
1031
0.0
1000
R14_HATCH_DATA
1000
105C4
1011
1.0
1021
0.0
1031
0.0
1021
0.0
1031
0.0
1011
0.0
1021
1.0
1031
0.0
1021
1.0
1031
0.0
1011
0.0
1021
0.0
1031
1.0
1021
0.0
1031
1.0
1040
0.0
1010
0.0
1020
0.0
1030
1.0
1000
ANSI37
1070
     0
1070
     1
1071
        1
1071
        7
1070
     0
1070
     1
1071
        9
1040
40.02599999995994
1040
5.341799999994635
1040
44.99999999995498
1040
-0.2368999999997641
1040
44.99999999995498
1040
8.763099999991255
1040
43.57899999995641
1040
8.763099999991255
1040
43.57899999995641
1040
3.421199999996588
1040
38.60499999996136
1040
8.999899999990987
1040
38.60499999996136
1040
8.999999999991019
1040
38.60499999996136
1040
0.0
1040
40.02599999995994
1040
0.0
1071
        8
1005
105A5
1005
105A8
1005
105AC
1005
105AB
1005
105AA
1005
105A7
1005
105A9
1005
105A6
1070
     0
1070
     1
1040
0.0
1040
0.15
1070
     0
1070
     2
1040
0.7853981633974483
1040
49.29960901727088
1040
-10.17736998311392
1040
-0.3367596045400932
1040
0.3367596045400932
1070
     0
1040
2.356194490192345
1040
49.29960901727088
1040
-10.17736998311392
1040
-0.3367596045400932
1040
-0.3367596045400932
1070
     0
1040
0.0110235143455945
1071
        1
1040
39.74896370716704
1040
4.484843821435049
1040
0.0
1002
}
  0
INSERT
  5
105C5
  8
0
  2
*X61
 10
0.0
 20
0.0
 30
0.0
1001
ACAD
1000
HATCH
1002
{
1070
    19
1000
ANSI37
1040
0.15
1040
0.0
1000
ASC_BOUNDS
1070
     1
1070
     2
1070
     4
1005
10589
1005
10598
1005
1058A
1005
1058C
1000
ASC_SEEDPOINT
1011
1.079051535452663
1021
4.148538732891836
1031
0.0
1021
4.148538732891836
1031
0.0
1000
R14_HATCH_DATA
1000
105C5
1011
1.0
1021
0.0
1031
0.0
1021
0.0
1031
0.0
1011
0.0
1021
1.0
1031
0.0
1021
1.0
1031
0.0
1011
0.0
1021
0.0
1031
1.0
1021
0.0
1031
1.0
1040
0.0
1010
0.0
1020
0.0
1030
1.0
1000
ANSI37
1070
     0
1070
     1
1071
        1
1071
        7
1070
     0
1070
     1
1071
        4
1040
1.420999999998571
1040
0.0
1040
1.420999999998571
1040
8.763099999991255
1040
0.0
1040
8.763099999991255
1040
0.0
1040
0.0
1071
        4
1005
10589
1005
10598
1005
1058A
1005
1058C
1070
     0
1070
     1
1040
0.0
1040
0.15
1070
     0
1070
     2
1040
0.7853981633974483
1040
49.29960901727088
1040
-10.17736998311392
1040
-0.3367596045400932
1040
0.3367596045400932
1070
     0
1040
2.356194490192345
1040
49.29960901727088
1040
-10.17736998311392
1040
-0.3367596045400932
1040
-0.3367596045400932
1070
     0
1040
0.0053004257112761
1071
        1
1040
1.079051535452663
1040
4.148538732891836
1040
0.0
1002
}
  0
ENDBLK
  5
10C7D
  8
0
  0
BLOCK
  8
0
  2
NO3CIRCLE
 70
     2
 10
0.0
 20
0.0
 30
0.0
  3
NO3CIRCLE
  1

  0
CIRCLE
  5
13C6E
  8
0
  6
BYBLOCK
 62
     0
 10
0.0
 20
0.0
 30
0.0
 40
4.2
  0
ATTDEF
  5
13C6F
  8
1TEXT
 10
-3.428571428571427
 20
-2.0
 30
0.0
 40
4.0
  1
000
 41
0.6
  7
STANDARD06
 72
     4
 11
0.0
 21
0.0
 31
0.0
  3
NO3
  2
NO3
 70
     0
  0
ENDBLK
  5
13C70
  8
0
  0
BLOCK
  8
0
  2
*X56
 70
     1
 10
0.0
 20
0.0
 30
0.0
  3
*X56
  1

  0
LINE
  5
164FF
  8
0
  6
CONTINUOUS
 10
3.418023043697893
 20
7.251849696850613
 30
0.0
 11
4.929273346838536
 21
8.763099999991255
 31
0.0
  0
LINE
  5
16500
  8
0
  6
CONTINUOUS
 10
1.483656411257782
 20
4.643963855330318
 30
0.0
 11
5.60279255591872
 21
8.763099999991255
 31
0.0
  0
LINE
  5
16501
  8
0
  6
CONTINUOUS
 10
1.755053947328235
 20
4.241842182320584
 30
0.0
 11
6.276311764998907
 21
8.763099999991255
 31
0.0
  0
LINE
  5
16502
  8
0
  6
CONTINUOUS
 10
2.026451483398688
 20
3.839720509310849
 30
0.0
 11
4.441040904851878
 21
6.254309930764039
 31
0.0
  0
LINE
  5
16503
  8
0
  6
CONTINUOUS
 10
2.297849019469139
 20
3.437598836301114
 30
0.0
 11
3.321765168359338
 21
4.461514985191313
 31
0.0
  0
LINE
  5
16504
  8
0
  6
CONTINUOUS
 10
2.569246555539591
 20
3.03547716329138
 30
0.0
 11
3.593163397972743
 21
4.059394005724531
 31
0.0
  0
LINE
  5
16505
  8
0
  6
CONTINUOUS
 10
2.840644091610043
 20
2.633355490281646
 30
0.0
 11
3.864561627586149
 21
3.657273026257751
 31
0.0
  0
LINE
  5
16506
  8
0
  6
CONTINUOUS
 10
3.112041627680496
 20
2.231233817271911
 30
0.0
 11
4.135959857199554
 21
3.25515204679097
 31
0.0
  0
LINE
  5
16507
  8
0
  6
CONTINUOUS
 10
3.383439163750948
 20
1.829112144262177
 30
0.0
 11
4.40735808681296
 21
2.853031067324189
 31
0.0
  0
LINE
  5
16508
  8
0
  6
CONTINUOUS
 10
3.654836699821399
 20
1.426990471252442
 30
0.0
 11
4.678756316426365
 21
2.450910087857407
 31
0.0
  0
LINE
  5
16509
  8
0
  6
CONTINUOUS
 10
3.926234235891853
 20
1.024868798242709
 30
0.0
 11
4.95015454603977
 21
2.048789108390626
 31
0.0
  0
LINE
  5
1650A
  8
0
  6
CONTINUOUS
 10
4.197631771962304
 20
0.6227471252329737
 30
0.0
 11
5.221552775653176
 21
1.646668128923846
 31
0.0
  0
LINE
  5
1650B
  8
0
  6
CONTINUOUS
 10
8.715877546767851
 20
7.835069736359266
 30
0.0
 11
9.435953450375058
 21
8.555145639966472
 31
0.0
  0
LINE
  5
1650C
  8
0
  6
CONTINUOUS
 10
8.170620868422267
 20
6.616293848933497
 30
0.0
 11
9.644120833743461
 21
8.08979381425469
 31
0.0
  0
LINE
  5
1650D
  8
0
  6
CONTINUOUS
 10
7.625364190076684
 20
5.397517961507727
 30
0.0
 11
9.852288217111864
 21
7.624441988542907
 31
0.0
  0
LINE
  5
1650E
  8
0
  6
CONTINUOUS
 10
7.080107511731101
 20
4.178742074081957
 30
0.0
 11
10.06045560048027
 21
7.159090162831124
 31
0.0
  0
LINE
  5
1650F
  8
0
  6
CONTINUOUS
 10
6.534850833385518
 20
2.959966186656187
 30
0.0
 11
10.26862298384867
 21
6.693738337119342
 31
0.0
  0
LINE
  5
16510
  8
0
  6
CONTINUOUS
 10
4.469029308032756
 20
0.2206254522232385
 30
0.0
 11
5.492951005266582
 21
1.244547149457064
 31
0.0
  0
LINE
  5
16511
  8
0
  6
CONTINUOUS
 10
5.989594155039935
 20
1.741190299230417
 30
0.0
 11
8.806950407233131
 21
4.558546551423613
 31
0.0
  0
LINE
  5
16512
  8
0
  6
CONTINUOUS
 10
9.401251593263643
 20
5.152847737454126
 30
0.0
 11
10.47679036721708
 21
6.228386511407559
 31
0.0
  0
LINE
  5
16513
  8
0
  6
CONTINUOUS
 10
4.921837203428691
 20
-0.0000858614610131
 30
0.0
 11
8.592923064886001
 21
3.670999999996297
 31
0.0
  0
LINE
  5
16514
  8
0
  6
CONTINUOUS
 10
9.609390446785305
 20
4.6874673818956
 30
0.0
 11
10.68495775058548
 21
5.763034685695775
 31
0.0
  0
LINE
  5
16515
  8
0
  6
CONTINUOUS
 10
5.595387755019432
 20
-0.0000545189504582
 30
0.0
 11
7.716137258923768
 21
2.120694984953879
 31
0.0
  0
LINE
  5
16516
  8
0
  6
CONTINUOUS
 10
6.268938306610172
 20
-0.000023176439905
 30
0.0
 11
7.170485805526503
 21
0.9015243224764267
 31
0.0
  0
LINE
  5
16517
  8
0
  6
CONTINUOUS
 10
7.963842273967511
 20
2.368399999997621
 30
0.0
 11
9.266442273966188
 21
3.670999999996297
 31
0.0
  0
LINE
  5
16518
  8
0
  6
CONTINUOUS
 10
8.637361483047696
 20
2.368399999997621
 30
0.0
 11
9.939961483046375
 21
3.670999999996297
 31
0.0
  0
LINE
  5
16519
  8
0
  6
CONTINUOUS
 10
9.817529300306965
 20
4.222087026337075
 30
0.0
 11
10.89312513395388
 21
5.297682859983993
 31
0.0
  0
LINE
  5
1651A
  8
0
  6
CONTINUOUS
 10
10.02566815382863
 20
3.756706670778549
 30
0.0
 11
11.10129251732229
 21
4.832331034272211
 31
0.0
  0
LINE
  5
1651B
  8
0
  6
CONTINUOUS
 10
9.310880692127883
 20
2.368399999997621
 30
0.0
 11
11.30945990069069
 21
4.366979208560428
 31
0.0
  0
LINE
  5
1651C
  8
0
  6
CONTINUOUS
 10
9.98439990120807
 20
2.36839999999762
 30
0.0
 11
11.5176272840591
 21
3.901627382848645
 31
0.0
  0
LINE
  5
1651D
  8
0
  6
CONTINUOUS
 10
10.65037369446246
 20
2.36085458417182
 30
0.0
 11
11.7257946674275
 21
3.436275557136862
 31
0.0
  0
LINE
  5
1651E
  8
0
  6
CONTINUOUS
 10
10.85847197087848
 20
1.895433651507656
 30
0.0
 11
11.9339620507959
 21
2.97092373142508
 31
0.0
  0
LINE
  5
1651F
  8
0
  6
CONTINUOUS
 10
11.0665702472945
 20
1.430012718843491
 30
0.0
 11
12.14212943416431
 21
2.505571905713296
 31
0.0
  0
LINE
  5
16520
  8
0
  6
CONTINUOUS
 10
11.27466852371052
 20
0.9645917861793256
 30
0.0
 11
12.35029681753271
 21
2.040220080001513
 31
0.0
  0
LINE
  5
16521
  8
0
  6
CONTINUOUS
 10
11.48276680012654
 20
0.4991708535151611
 30
0.0
 11
12.55846420090111
 21
1.57486825428973
 31
0.0
  0
LINE
  5
16522
  8
0
  6
CONTINUOUS
 10
11.69086507654257
 20
0.0337499208509957
 30
0.0
 11
12.76663158426952
 21
1.109516428577947
 31
0.0
  0
LINE
  5
16523
  8
0
  6
CONTINUOUS
 10
12.33057447873954
 20
-0.0000598860322123
 30
0.0
 11
12.97479896763792
 21
0.6441646028661663
 31
0.0
  0
LINE
  5
16524
  8
0
  6
CONTINUOUS
 10
13.00413694809395
 20
-0.0000166257579952
 30
0.0
 11
13.18296635100632
 21
0.1788127771543824
 31
0.0
  0
LINE
  5
16525
  8
0
  6
CONTINUOUS
 10
4.772852165289667
 20
-0.000092794222212
 30
0.0
 11
4.296495091028902
 21
0.4762642800385528
 31
0.0
  0
LINE
  5
16526
  8
0
  6
CONTINUOUS
 10
5.446340034776103
 20
-0.0000614546284616
 30
0.0
 11
2.898195908335625
 21
2.548082671812017
 31
0.0
  0
LINE
  5
16527
  8
0
  6
CONTINUOUS
 10
6.119827904262539
 20
-0.0000301150347113
 30
0.0
 11
1.499896725642348
 21
4.61990106358548
 31
0.0
  0
LINE
  5
16528
  8
0
  6
CONTINUOUS
 10
6.775136745476159
 20
0.0181802528318542
 30
0.0
 11
5.699826040202669
 21
1.093490958105344
 31
0.0
  0
LINE
  5
16529
  8
0
  6
CONTINUOUS
 10
6.983376846288489
 20
0.4834593610997118
 30
0.0
 11
5.908008617934405
 21
1.558827589453796
 31
0.0
  0
LINE
  5
1652A
  8
0
  6
CONTINUOUS
 10
5.377063484962296
 20
1.416253513345719
 30
0.0
 11
1.702276957014131
 21
5.091040041293883
 31
0.0
  0
LINE
  5
1652B
  8
0
  6
CONTINUOUS
 10
3.978745891735324
 20
3.488090315652877
 30
0.0
 11
2.000373521109399
 21
5.466462686278803
 31
0.0
  0
LINE
  5
1652C
  8
0
  6
CONTINUOUS
 10
7.191616947100819
 20
0.948738469367568
 30
0.0
 11
6.11619119566614
 21
2.024164220802247
 31
0.0
  0
LINE
  5
1652D
  8
0
  6
CONTINUOUS
 10
7.399857047913149
 20
1.414017577635424
 30
0.0
 11
6.324373773397875
 21
2.489500852150698
 31
0.0
  0
LINE
  5
1652E
  8
0
  6
CONTINUOUS
 10
7.608097148725479
 20
1.879296685903281
 30
0.0
 11
6.53255635112961
 21
2.95483748349915
 31
0.0
  0
LINE
  5
1652F
  8
0
  6
CONTINUOUS
 10
7.816337249537808
 20
2.344575794171138
 30
0.0
 11
6.740738928861345
 21
3.420174114847601
 31
0.0
  0
LINE
  5
16530
  8
0
  6
CONTINUOUS
 10
3.310241080789734
 20
4.830114335678653
 30
0.0
 11
2.298470085204666
 21
5.84188533126372
 31
0.0
  0
LINE
  5
16531
  8
0
  6
CONTINUOUS
 10
3.60832983563551
 20
5.205544789913063
 30
0.0
 11
2.596566649299935
 21
6.217307976248638
 31
0.0
  0
LINE
  5
16532
  8
0
  6
CONTINUOUS
 10
3.906418590481286
 20
5.580975244147473
 30
0.0
 11
2.894663213395203
 21
6.592730621233557
 31
0.0
  0
LINE
  5
16533
  8
0
  6
CONTINUOUS
 10
4.204507345327062
 20
5.956405698381884
 30
0.0
 11
3.192759777490472
 21
6.968153266218474
 31
0.0
  0
LINE
  5
16534
  8
0
  6
CONTINUOUS
 10
8.466032252791512
 20
2.368399999997621
 30
0.0
 11
6.948921506593081
 21
3.885510746196053
 31
0.0
  0
LINE
  5
16535
  8
0
  6
CONTINUOUS
 10
9.139551461871699
 20
2.36839999999762
 30
0.0
 11
7.157104084324816
 21
4.350847377544504
 31
0.0
  0
LINE
  5
16536
  8
0
  6
CONTINUOUS
 10
4.502596100172839
 20
6.331836152616295
 30
0.0
 11
3.49085634158574
 21
7.343575911203393
 31
0.0
  0
LINE
  5
16537
  8
0
  6
CONTINUOUS
 10
4.800684855018615
 20
6.707266606850705
 30
0.0
 11
3.788952905681008
 21
7.718998556188312
 31
0.0
  0
LINE
  5
16538
  8
0
  6
CONTINUOUS
 10
12.18154012887317
 20
-0.0000694579236642
 30
0.0
 11
11.32140332908496
 21
0.8600673418645499
 31
0.0
  0
LINE
  5
16539
  8
0
  6
CONTINUOUS
 10
12.85501608323566
 20
-0.0000262032059659
 30
0.0
 11
10.77672456435345
 21
2.078265315676246
 31
0.0
  0
LINE
  5
1653A
  8
0
  6
CONTINUOUS
 10
9.813070670951886
 20
2.36839999999762
 30
0.0
 11
8.51047067095321
 21
3.670999999996297
 31
0.0
  0
LINE
  5
1653B
  8
0
  6
CONTINUOUS
 10
10.48658988003207
 20
2.36839999999762
 30
0.0
 11
9.183989880033396
 21
3.670999999996297
 31
0.0
  0
LINE
  5
1653C
  8
0
  6
CONTINUOUS
 10
8.441048632286794
 20
3.740422038662712
 30
0.0
 11
7.365286662056551
 21
4.816184008892956
 31
0.0
  0
LINE
  5
1653D
  8
0
  6
CONTINUOUS
 10
8.649187485808454
 20
4.205802394221237
 30
0.0
 11
7.573469239788285
 21
5.281520640241407
 31
0.0
  0
LINE
  5
1653E
  8
0
  6
CONTINUOUS
 10
5.098773609864391
 20
7.082697061085115
 30
0.0
 11
4.087049469776277
 21
8.09442120117323
 31
0.0
  0
LINE
  5
1653F
  8
0
  6
CONTINUOUS
 10
5.396862364710167
 20
7.458127515319526
 30
0.0
 11
4.385146033871544
 21
8.469843846158149
 31
0.0
  0
LINE
  5
16540
  8
0
  6
CONTINUOUS
 10
13.04801363231285
 20
0.4804954567970334
 30
0.0
 11
9.85750908911358
 21
3.670999999996297
 31
0.0
  0
LINE
  5
16541
  8
0
  6
CONTINUOUS
 10
8.857326339330116
 20
4.671182749779763
 30
0.0
 11
7.781651817520021
 21
5.746857271589858
 31
0.0
  0
LINE
  5
16542
  8
0
  6
CONTINUOUS
 10
5.694951119555943
 20
7.833557969553937
 30
0.0
 11
4.765409089118624
 21
8.763099999991255
 31
0.0
  0
LINE
  5
16543
  8
0
  6
CONTINUOUS
 10
12.50286117236978
 20
1.699167125820288
 30
0.0
 11
9.68611877250287
 21
4.515909525687196
 31
0.0
  0
LINE
  5
16544
  8
0
  6
CONTINUOUS
 10
9.065465192851777
 20
5.136563105338288
 30
0.0
 11
7.989834395251757
 21
6.21219390293831
 31
0.0
  0
LINE
  5
16545
  8
0
  6
CONTINUOUS
 10
5.993039874401719
 20
8.208988423788346
 30
0.0
 11
5.43892829819881
 21
8.763099999991255
 31
0.0
  0
LINE
  5
16546
  8
0
  6
CONTINUOUS
 10
11.95770871242671
 20
2.917838794843543
 30
0.0
 11
8.19801697298349
 21
6.677530534286761
 31
0.0
  0
LINE
  5
16547
  8
0
  6
CONTINUOUS
 10
6.291128629247495
 20
8.584418878022756
 30
0.0
 11
6.112447507278997
 21
8.763099999991255
 31
0.0
  0
LINE
  5
16548
  8
0
  6
CONTINUOUS
 10
11.41255625248364
 20
4.136510463866797
 30
0.0
 11
8.406199550715227
 21
7.142867165635211
 31
0.0
  0
LINE
  5
16549
  8
0
  6
CONTINUOUS
 10
10.86740379254057
 20
5.355182132890051
 30
0.0
 11
8.614382128446962
 21
7.608203796983664
 31
0.0
  0
LINE
  5
1654A
  8
0
  6
CONTINUOUS
 10
10.3222513325975
 20
6.573853801913305
 30
0.0
 11
8.822564706178696
 21
8.073540428332114
 31
0.0
  0
LINE
  5
1654B
  8
0
  6
CONTINUOUS
 10
9.777098872654436
 20
7.792525470936562
 30
0.0
 11
9.030747283910433
 21
8.538877059680566
 31
0.0
  0
ENDBLK
  5
1668D
  8
0
  0
BLOCK
  8
0
  2
*X57
 70
     1
 10
0.0
 20
0.0
 30
0.0
  3
*X57
  1

  0
LINE
  5
1654D
  8
0
  6
CONTINUOUS
 10
10.67292308101235
 20
8.445076852443387
 30
0.0
 11
10.99094622856022
 21
8.763099999991255
 31
0.0
  0
LINE
  5
1654E
  8
0
  6
CONTINUOUS
 10
10.87250383178748
 20
7.971138394138331
 30
0.0
 11
11.6644654376404
 21
8.763099999991255
 31
0.0
  0
LINE
  5
1654F
  8
0
  6
CONTINUOUS
 10
11.07208458256261
 20
7.497199935833273
 30
0.0
 11
12.12126590876355
 21
8.546381262034211
 31
0.0
  0
LINE
  5
16550
  8
0
  6
CONTINUOUS
 10
11.27166533333774
 20
7.023261477528216
 30
0.0
 11
12.32085164573666
 21
8.072447789927136
 31
0.0
  0
LINE
  5
16551
  8
0
  6
CONTINUOUS
 10
11.47124608411287
 20
6.549323019223158
 30
0.0
 11
12.52043738270977
 21
7.59851431782006
 31
0.0
  0
LINE
  5
16552
  8
0
  6
CONTINUOUS
 10
11.670826834888
 20
6.075384560918101
 30
0.0
 11
12.72002311968288
 21
7.124580845712984
 31
0.0
  0
LINE
  5
16553
  8
0
  6
CONTINUOUS
 10
11.87040758566313
 20
5.601446102613043
 30
0.0
 11
12.91960885665599
 21
6.650647373605907
 31
0.0
  0
LINE
  5
16554
  8
0
  6
CONTINUOUS
 10
12.06998833643825
 20
5.127507644307986
 30
0.0
 11
13.1191945936291
 21
6.176713901498832
 31
0.0
  0
LINE
  5
16555
  8
0
  6
CONTINUOUS
 10
12.26956908721338
 20
4.65356918600293
 30
0.0
 11
13.31878033060221
 21
5.702780429391757
 31
0.0
  0
LINE
  5
16556
  8
0
  6
CONTINUOUS
 10
12.46914983798851
 20
4.179630727697873
 30
0.0
 11
13.51836606757532
 21
5.228846957284683
 31
0.0
  0
LINE
  5
16557
  8
0
  6
CONTINUOUS
 10
12.66873058876364
 20
3.705692269392816
 30
0.0
 11
13.71795180454843
 21
4.754913485177607
 31
0.0
  0
LINE
  5
16558
  8
0
  6
CONTINUOUS
 10
12.86831133953877
 20
3.231753811087759
 30
0.0
 11
13.91753754152154
 21
4.280980013070531
 31
0.0
  0
LINE
  5
16559
  8
0
  6
CONTINUOUS
 10
13.0678920903139
 20
2.757815352782702
 30
0.0
 11
14.11712327849465
 21
3.807046540963456
 31
0.0
  0
LINE
  5
1655A
  8
0
  6
CONTINUOUS
 10
13.26747284108903
 20
2.283876894477644
 30
0.0
 11
14.31670901546777
 21
3.333113068856379
 31
0.0
  0
LINE
  5
1655B
  8
0
  6
CONTINUOUS
 10
16.36767838827179
 20
8.751678487061342
 30
0.0
 11
16.50332410898388
 21
8.887324207773432
 31
0.0
  0
LINE
  5
1655C
  8
0
  6
CONTINUOUS
 10
15.96190732182191
 20
7.67238821153127
 30
0.0
 11
16.68735328004734
 21
8.397834169756699
 31
0.0
  0
LINE
  5
1655D
  8
0
  6
CONTINUOUS
 10
15.55613625537202
 20
6.593097936001196
 30
0.0
 11
16.87138245111079
 21
7.908344131739965
 31
0.0
  0
LINE
  5
1655E
  8
0
  6
CONTINUOUS
 10
15.15036518892213
 20
5.513807660471122
 30
0.0
 11
17.05541162217424
 21
7.418854093723231
 31
0.0
  0
LINE
  5
1655F
  8
0
  6
CONTINUOUS
 10
14.74459412247225
 20
4.434517384941048
 30
0.0
 11
17.2394407932377
 21
6.929364055706499
 31
0.0
  0
LINE
  5
16560
  8
0
  6
CONTINUOUS
 10
14.33882305602236
 20
3.355227109410975
 30
0.0
 11
17.42346996430115
 21
6.439874017689766
 31
0.0
  0
LINE
  5
16561
  8
0
  6
CONTINUOUS
 10
13.46705359186416
 20
1.809938436172586
 30
0.0
 11
16.0819338255367
 21
4.424818669845129
 31
0.0
  0
LINE
  5
16562
  8
0
  6
CONTINUOUS
 10
16.63283254238972
 20
4.975717386698149
 30
0.0
 11
17.60749913536461
 21
5.950383979673033
 31
0.0
  0
LINE
  5
16563
  8
0
  6
CONTINUOUS
 10
13.66663434263929
 20
1.335999977867529
 30
0.0
 11
15.67604797733754
 21
3.345413612565779
 31
0.0
  0
LINE
  5
16564
  8
0
  6
CONTINUOUS
 10
13.86621509341442
 20
0.8620615195624723
 30
0.0
 11
15.27016212913838
 21
2.26600855528643
 31
0.0
  0
LINE
  5
16565
  8
0
  6
CONTINUOUS
 10
16.81682257348267
 20
4.486188208710908
 30
0.0
 11
17.79152830642806
 21
5.460893941656299
 31
0.0
  0
LINE
  5
16566
  8
0
  6
CONTINUOUS
 10
17.00081260457561
 20
3.996659030723667
 30
0.0
 11
17.97555747749151
 21
4.971403903639565
 31
0.0
  0
LINE
  5
16567
  8
0
  6
CONTINUOUS
 10
20.74362343514722
 20
8.412989070375462
 30
0.0
 11
21.09373436476302
 21
8.763099999991256
 31
0.0
  0
LINE
  5
16568
  8
0
  6
CONTINUOUS
 10
20.25401257174777
 20
7.249858997895826
 30
0.0
 11
21.7672535738432
 21
8.763099999991255
 31
0.0
  0
LINE
  5
16569
  8
0
  6
CONTINUOUS
 10
14.06579584418955
 20
0.3881230612574149
 30
0.0
 11
14.86427628093921
 21
1.186603498007082
 31
0.0
  0
LINE
  5
1656A
  8
0
  6
CONTINUOUS
 10
14.26537659496467
 20
-0.0858153970476412
 30
0.0
 11
14.45839043274005
 21
0.1071984407277329
 31
0.0
  0
LINE
  5
1656B
  8
0
  6
CONTINUOUS
 10
17.18480263566856
 20
3.507129852736426
 30
0.0
 11
18.15958664855496
 21
4.481913865622833
 31
0.0
  0
LINE
  5
1656C
  8
0
  6
CONTINUOUS
 10
17.3687926667615
 20
3.017600674749186
 30
0.0
 11
18.34361581961842
 21
3.9924238276061
 31
0.0
  0
LINE
  5
1656D
  8
0
  6
CONTINUOUS
 10
19.76440170834832
 20
6.086728925416191
 30
0.0
 11
22.33924590259489
 21
8.661573119662755
 31
0.0
  0
LINE
  5
1656E
  8
0
  6
CONTINUOUS
 10
19.27479084494887
 20
4.923598852936555
 30
0.0
 11
21.84929622842713
 21
7.498104236414807
 31
0.0
  0
LINE
  5
1656F
  8
0
  6
CONTINUOUS
 10
17.55278269785445
 20
2.528071496761945
 30
0.0
 11
18.52764499068187
 21
3.502933789589366
 31
0.0
  0
LINE
  5
16570
  8
0
  6
CONTINUOUS
 10
18.78517998154942
 20
3.760468780456919
 30
0.0
 11
21.35934655425936
 21
6.33463535316686
 31
0.0
  0
LINE
  5
16571
  8
0
  6
CONTINUOUS
 10
17.73677272894739
 20
2.038542318774704
 30
0.0
 11
20.8693968800916
 21
5.171166469918914
 31
0.0
  0
LINE
  5
16572
  8
0
  6
CONTINUOUS
 10
17.92076276004034
 20
1.549013140787464
 30
0.0
 11
20.37944720592384
 21
4.007697586670968
 31
0.0
  0
LINE
  5
16573
  8
0
  6
CONTINUOUS
 10
18.10475279113329
 20
1.059483962800223
 30
0.0
 11
19.88949753175608
 21
2.84422870342302
 31
0.0
  0
LINE
  5
16574
  8
0
  6
CONTINUOUS
 10
18.28874282222623
 20
0.5699547848129822
 30
0.0
 11
19.39954785758832
 21
1.680759820175074
 31
0.0
  0
LINE
  5
16575
  8
0
  6
CONTINUOUS
 10
18.47273285331918
 20
0.0804256068257416
 30
0.0
 11
18.90959818342056
 21
0.517290936927127
 31
0.0
  0
LINE
  5
16576
  8
0
  6
CONTINUOUS
 10
14.3590401358224
 20
-0.1570118376323384
 30
0.0
 11
14.24903296539946
 21
-0.0470046672093929
 31
0.0
  0
LINE
  5
16577
  8
0
  6
CONTINUOUS
 10
14.54309291258661
 20
0.332454594683643
 30
0.0
 11
13.75908329123172
 21
1.116464216038529
 31
0.0
  0
LINE
  5
16578
  8
0
  6
CONTINUOUS
 10
14.72714568935081
 20
0.8219210269996244
 30
0.0
 11
13.26913361706399
 21
2.27993309928645
 31
0.0
  0
LINE
  5
16579
  8
0
  6
CONTINUOUS
 10
14.91119846611502
 20
1.311387459315606
 30
0.0
 11
12.77918394289625
 21
3.443401982534371
 31
0.0
  0
LINE
  5
1657A
  8
0
  6
CONTINUOUS
 10
15.09525124287922
 20
1.800853891631587
 30
0.0
 11
12.28923426872852
 21
4.606870865782293
 31
0.0
  0
LINE
  5
1657B
  8
0
  6
CONTINUOUS
 10
15.27930401964343
 20
2.290320323947569
 30
0.0
 11
11.79928459456078
 21
5.770339749030213
 31
0.0
  0
LINE
  5
1657C
  8
0
  6
CONTINUOUS
 10
15.46335679640763
 20
2.77978675626355
 30
0.0
 11
14.48885470994921
 21
3.754288842721972
 31
0.0
  0
LINE
  5
1657D
  8
0
  6
CONTINUOUS
 10
13.88507249233704
 20
4.358071060334137
 30
0.0
 11
11.30933492039305
 21
6.933808632278135
 31
0.0
  0
LINE
  5
1657E
  8
0
  6
CONTINUOUS
 10
18.75840522805855
 20
0.1582575336928151
 30
0.0
 11
18.25383727664818
 21
0.6628254851031863
 31
0.0
  0
LINE
  5
1657F
  8
0
  6
CONTINUOUS
 10
15.64740957317184
 20
3.269253188579531
 30
0.0
 11
14.67288388101266
 21
4.243778880738705
 31
0.0
  0
LINE
  5
16580
  8
0
  6
CONTINUOUS
 10
13.39509276772158
 20
5.521569994029786
 30
0.0
 11
10.81938524622531
 21
8.097277515526056
 31
0.0
  0
LINE
  5
16581
  8
0
  6
CONTINUOUS
 10
18.95798597883369
 20
0.6321959919978686
 30
0.0
 11
17.84825644852853
 21
1.741925522303024
 31
0.0
  0
LINE
  5
16582
  8
0
  6
CONTINUOUS
 10
19.15756672960882
 20
1.106134450302922
 30
0.0
 11
17.44267562040888
 21
2.821025559502861
 31
0.0
  0
LINE
  5
16583
  8
0
  6
CONTINUOUS
 10
15.83146234993604
 20
3.758719620895513
 30
0.0
 11
14.85691305207612
 21
4.733268918755439
 31
0.0
  0
LINE
  5
16584
  8
0
  6
CONTINUOUS
 10
16.01551512670025
 20
4.248186053211494
 30
0.0
 11
15.04094222313957
 21
5.222758956772172
 31
0.0
  0
LINE
  5
16585
  8
0
  6
CONTINUOUS
 10
12.90511304310612
 20
6.685068927725435
 30
0.0
 11
10.8270819708403
 21
8.763099999991255
 31
0.0
  0
LINE
  5
16586
  8
0
  6
CONTINUOUS
 10
12.41513331849066
 20
7.848567861421083
 30
0.0
 11
11.50060117992049
 21
8.763099999991255
 31
0.0
  0
LINE
  5
16587
  8
0
  6
CONTINUOUS
 10
19.35714748038395
 20
1.580072908607975
 30
0.0
 11
17.03709479228923
 21
3.900125596702697
 31
0.0
  0
LINE
  5
16588
  8
0
  6
CONTINUOUS
 10
19.55672823115909
 20
2.054011366913028
 30
0.0
 11
16.63151396416958
 21
4.979225633902534
 31
0.0
  0
LINE
  5
16589
  8
0
  6
CONTINUOUS
 10
16.19956790346445
 20
4.737652485527476
 30
0.0
 11
15.22497139420302
 21
5.712248994788904
 31
0.0
  0
LINE
  5
1658A
  8
0
  6
CONTINUOUS
 10
16.38362068022866
 20
5.227118917843457
 30
0.0
 11
15.40900056526648
 21
6.201739032805637
 31
0.0
  0
LINE
  5
1658B
  8
0
  6
CONTINUOUS
 10
19.75630898193422
 20
2.527949825218081
 30
0.0
 11
18.70774536448286
 21
3.576513442669441
 31
0.0
  0
LINE
  5
1658C
  8
0
  6
CONTINUOUS
 10
19.95588973270936
 20
3.001888283523134
 30
0.0
 11
18.90726987211446
 21
4.050508144118028
 31
0.0
  0
LINE
  5
1658D
  8
0
  6
CONTINUOUS
 10
20.15547048348449
 20
3.475826741828186
 30
0.0
 11
19.10679437974606
 21
4.524502845566614
 31
0.0
  0
LINE
  5
1658E
  8
0
  6
CONTINUOUS
 10
20.35505123425962
 20
3.94976520013324
 30
0.0
 11
19.30631888737766
 21
4.998497547015201
 31
0.0
  0
LINE
  5
1658F
  8
0
  6
CONTINUOUS
 10
20.55463198503475
 20
4.423703658438292
 30
0.0
 11
19.50584339500926
 21
5.472492248463787
 31
0.0
  0
LINE
  5
16590
  8
0
  6
CONTINUOUS
 10
18.37481191085755
 20
3.909446896294752
 30
0.0
 11
15.59302973632993
 21
6.691229070822371
 31
0.0
  0
LINE
  5
16591
  8
0
  6
CONTINUOUS
 10
17.96904084440766
 20
4.988737171824825
 30
0.0
 11
15.77705890739338
 21
7.180719108839104
 31
0.0
  0
LINE
  5
16592
  8
0
  6
CONTINUOUS
 10
17.56326977795777
 20
6.068027447354899
 30
0.0
 11
15.96108807845684
 21
7.670209146855838
 31
0.0
  0
LINE
  5
16593
  8
0
  6
CONTINUOUS
 10
17.15749871150789
 20
7.147317722884972
 30
0.0
 11
16.14511724952029
 21
8.15969918487257
 31
0.0
  0
LINE
  5
16594
  8
0
  6
CONTINUOUS
 10
16.751727645058
 20
8.226607998415046
 30
0.0
 11
16.32914642058374
 21
8.649189222889303
 31
0.0
  0
LINE
  5
16595
  8
0
  6
CONTINUOUS
 10
20.75421273580989
 20
4.897642116743345
 30
0.0
 11
19.70536790264086
 21
5.946486949912374
 31
0.0
  0
LINE
  5
16596
  8
0
  6
CONTINUOUS
 10
20.95379348658502
 20
5.371580575048398
 30
0.0
 11
19.90489241027246
 21
6.42048165136096
 31
0.0
  0
LINE
  5
16597
  8
0
  6
CONTINUOUS
 10
21.15337423736015
 20
5.845519033353452
 30
0.0
 11
20.10441691790406
 21
6.894476352809547
 31
0.0
  0
LINE
  5
16598
  8
0
  6
CONTINUOUS
 10
21.35295498813529
 20
6.319457491658505
 30
0.0
 11
20.30394142553566
 21
7.368471054258134
 31
0.0
  0
LINE
  5
16599
  8
0
  6
CONTINUOUS
 10
21.55253573891042
 20
6.793395949963558
 30
0.0
 11
20.50346593316726
 21
7.842465755706721
 31
0.0
  0
LINE
  5
1659A
  8
0
  6
CONTINUOUS
 10
21.75211648968556
 20
7.267334408268612
 30
0.0
 11
20.70299044079886
 21
8.316460457155308
 31
0.0
  0
LINE
  5
1659B
  8
0
  6
CONTINUOUS
 10
21.95169724046069
 20
7.741272866573663
 30
0.0
 11
20.9298701070431
 21
8.763099999991256
 31
0.0
  0
LINE
  5
1659C
  8
0
  6
CONTINUOUS
 10
22.15127799123582
 20
8.215211324878716
 30
0.0
 11
21.60338931612328
 21
8.763099999991256
 31
0.0
  0
LINE
  5
1659D
  8
0
  6
CONTINUOUS
 10
22.35085874201096
 20
8.689149783183769
 30
0.0
 11
22.27690852520347
 21
8.763099999991255
 31
0.0
  0
ENDBLK
  5
1668F
  8
0
  0
BLOCK
  8
0
  2
*X58
 70
     1
 10
0.0
 20
0.0
 30
0.0
  3
*X58
  1

  0
LINE
  5
1659F
  8
0
  6
CONTINUOUS
 10
23.19462913593892
 20
8.169917934846424
 30
0.0
 11
23.70775465517246
 21
8.683043454079957
 31
0.0
  0
LINE
  5
165A0
  8
0
  6
CONTINUOUS
 10
22.64923161835078
 20
6.951001208178088
 30
0.0
 11
23.9159364069932
 21
8.217705996820516
 31
0.0
  0
LINE
  5
165A1
  8
0
  6
CONTINUOUS
 10
22.10383410076263
 20
5.732084481509751
 30
0.0
 11
24.12411815881395
 21
7.752368539561078
 31
0.0
  0
LINE
  5
165A2
  8
0
  6
CONTINUOUS
 10
21.55843658317447
 20
4.513167754841414
 30
0.0
 11
24.3322999106347
 21
7.287031082301639
 31
0.0
  0
LINE
  5
165A3
  8
0
  6
CONTINUOUS
 10
21.01303906558632
 20
3.294251028173077
 30
0.0
 11
24.54048166245544
 21
6.821693625042199
 31
0.0
  0
LINE
  5
165A4
  8
0
  6
CONTINUOUS
 10
20.46764154799817
 20
2.075334301504738
 30
0.0
 11
23.28571549467848
 21
4.89340824818505
 31
0.0
  0
LINE
  5
165A5
  8
0
  6
CONTINUOUS
 10
19.92224403041002
 20
0.8564175748364002
 30
0.0
 11
22.74075865492779
 21
3.674932199354171
 31
0.0
  0
LINE
  5
165A6
  8
0
  6
CONTINUOUS
 10
23.67305085490148
 20
5.280743608408048
 30
0.0
 11
24.74866341427619
 21
6.356356167782759
 31
0.0
  0
LINE
  5
165A7
  8
0
  6
CONTINUOUS
 10
23.88118970842314
 20
4.815363252849522
 30
0.0
 11
24.95684516609694
 21
5.89101871052332
 31
0.0
  0
LINE
  5
165A8
  8
0
  6
CONTINUOUS
 10
19.73925852647308
 20
-0.0000871381807288
 30
0.0
 11
23.4103456646501
 21
3.670999999996297
 31
0.0
  0
LINE
  5
165A9
  8
0
  6
CONTINUOUS
 10
24.0893285619448
 20
4.349982897290997
 30
0.0
 11
25.16502691791769
 21
5.42568125326388
 31
0.0
  0
LINE
  5
165AA
  8
0
  6
CONTINUOUS
 10
20.41282099582748
 20
-0.0000438779065108
 30
0.0
 11
21.64944178675636
 21
1.236576913022366
 31
0.0
  0
LINE
  5
165AB
  8
0
  6
CONTINUOUS
 10
22.78126487373161
 20
2.36839999999762
 30
0.0
 11
24.08386487373029
 21
3.670999999996297
 31
0.0
  0
LINE
  5
165AC
  8
0
  6
CONTINUOUS
 10
24.29746741546646
 20
3.884602541732471
 30
0.0
 11
25.37320866973843
 21
4.960343796004441
 31
0.0
  0
LINE
  5
165AD
  8
0
  6
CONTINUOUS
 10
21.08638346518189
 20
-0.0000006176322938
 30
0.0
 11
21.10379033335899
 21
0.0174062505448083
 31
0.0
  0
LINE
  5
165AE
  8
0
  6
CONTINUOUS
 10
23.4547840828118
 20
2.36839999999762
 30
0.0
 11
25.58139042155918
 21
4.495006338745002
 31
0.0
  0
LINE
  5
165AF
  8
0
  6
CONTINUOUS
 10
29.30199999996933
 20
8.215615917155148
 30
0.0
 11
29.84948408280543
 21
8.763099999991255
 31
0.0
  0
LINE
  5
165B0
  8
0
  6
CONTINUOUS
 10
24.12830329189199
 20
2.36839999999762
 30
0.0
 11
25.78957217337993
 21
4.029668881485562
 31
0.0
  0
LINE
  5
165B1
  8
0
  6
CONTINUOUS
 10
29.30199999996933
 20
7.54209670807496
 30
0.0
 11
30.52300329188562
 21
8.763099999991255
 31
0.0
  0
LINE
  5
165B2
  8
0
  6
CONTINUOUS
 10
24.80182250097217
 20
2.36839999999762
 30
0.0
 11
25.99775392520067
 21
3.564331424226122
 31
0.0
  0
LINE
  5
165B3
  8
0
  6
CONTINUOUS
 10
29.30199999996933
 20
6.868577498994774
 30
0.0
 11
30.74199999996926
 21
8.308577498994712
 31
0.0
  0
LINE
  5
165B4
  8
0
  6
CONTINUOUS
 10
25.13028238392013
 20
2.023340673865392
 30
0.0
 11
26.20593567702142
 21
3.098993966966683
 31
0.0
  0
LINE
  5
165B5
  8
0
  6
CONTINUOUS
 10
25.33838066033617
 20
1.557919741201244
 30
0.0
 11
26.41411742884217
 21
2.633656509707244
 31
0.0
  0
LINE
  5
165B6
  8
0
  6
CONTINUOUS
 10
25.54647893675221
 20
1.092498808537098
 30
0.0
 11
26.62229918066291
 21
2.168319052447804
 31
0.0
  0
LINE
  5
165B7
  8
0
  6
CONTINUOUS
 10
25.75457721316825
 20
0.62707787587295
 30
0.0
 11
26.83048093248366
 21
1.702981595188365
 31
0.0
  0
LINE
  5
165B8
  8
0
  6
CONTINUOUS
 10
29.30199999996933
 20
6.195058289914587
 30
0.0
 11
30.74199999996926
 21
7.635058289914522
 31
0.0
  0
LINE
  5
165B9
  8
0
  6
CONTINUOUS
 10
29.30199999996933
 20
5.521539080834401
 30
0.0
 11
30.74199999996926
 21
6.961539080834331
 31
0.0
  0
LINE
  5
165BA
  8
0
  6
CONTINUOUS
 10
29.30199999996933
 20
4.848019871754214
 30
0.0
 11
30.74199999996925
 21
6.288019871754143
 31
0.0
  0
LINE
  5
165BB
  8
0
  6
CONTINUOUS
 10
29.30199999996933
 20
4.174500662674028
 30
0.0
 11
30.74199999996925
 21
5.614500662673953
 31
0.0
  0
LINE
  5
165BC
  8
0
  6
CONTINUOUS
 10
25.96267548958429
 20
0.1616569432088024
 30
0.0
 11
27.18411854636669
 21
1.383099999991207
 31
0.0
  0
LINE
  5
165BD
  8
0
  6
CONTINUOUS
 10
29.30199999996933
 20
3.500981453593841
 30
0.0
 11
30.74199999996925
 21
4.940981453593762
 31
0.0
  0
LINE
  5
165BE
  8
0
  6
CONTINUOUS
 10
26.50763775544691
 20
0.0330999999912356
 30
0.0
 11
27.85763775544689
 21
1.383099999991223
 31
0.0
  0
LINE
  5
165BF
  8
0
  6
CONTINUOUS
 10
29.30199999996933
 20
2.827462244513656
 30
0.0
 11
30.74199999996925
 21
4.267462244513574
 31
0.0
  0
LINE
  5
165C0
  8
0
  6
CONTINUOUS
 10
27.18115696452709
 20
0.0330999999912356
 30
0.0
 11
28.55073879889363
 21
1.402681834357775
 31
0.0
  0
LINE
  5
165C1
  8
0
  6
CONTINUOUS
 10
29.28241816560272
 20
2.134361201066866
 30
0.0
 11
30.74199999996924
 21
3.593943035433383
 31
0.0
  0
LINE
  5
165C2
  8
0
  6
CONTINUOUS
 10
27.85467617360728
 20
0.0330999999912356
 30
0.0
 11
30.74199999996924
 21
2.920423826353195
 31
0.0
  0
LINE
  5
165C3
  8
0
  6
CONTINUOUS
 10
28.53897559587887
 20
0.0438802131826428
 30
0.0
 11
30.73121978677781
 21
2.236124404081585
 31
0.0
  0
LINE
  5
165C4
  8
0
  6
CONTINUOUS
 10
29.45140055588722
 20
0.2827859641107988
 30
0.0
 11
30.49231403584965
 21
1.323699444073236
 31
0.0
  0
LINE
  5
165C5
  8
0
  6
CONTINUOUS
 10
19.59027867740337
 20
-0.0000967065718083
 30
0.0
 11
19.55485265190471
 21
0.035329318926844
 31
0.0
  0
LINE
  5
165C6
  8
0
  6
CONTINUOUS
 10
20.26375463176586
 20
-0.0000534518541091
 30
0.0
 11
19.76305575737534
 21
0.5006454225364014
 31
0.0
  0
LINE
  5
165C7
  8
0
  6
CONTINUOUS
 10
20.93723058612834
 20
-0.0000101971364099
 30
0.0
 11
19.97125886284597
 21
0.965961526145958
 31
0.0
  0
LINE
  5
165C8
  8
0
  6
CONTINUOUS
 10
21.25514828313686
 20
0.355591314935257
 30
0.0
 11
20.1794619683166
 21
1.431277629755512
 31
0.0
  0
LINE
  5
165C9
  8
0
  6
CONTINUOUS
 10
21.46338838394921
 20
0.8208704232030986
 30
0.0
 11
20.38766507378723
 21
1.896593733365069
 31
0.0
  0
LINE
  5
165CA
  8
0
  6
CONTINUOUS
 10
21.67162848476155
 20
1.28614953147094
 30
0.0
 11
20.59586817925786
 21
2.361909836974626
 31
0.0
  0
LINE
  5
165CB
  8
0
  6
CONTINUOUS
 10
21.8798685855739
 20
1.751428639738782
 30
0.0
 11
20.80407128472849
 21
2.827225940584183
 31
0.0
  0
LINE
  5
165CC
  8
0
  6
CONTINUOUS
 10
22.08810868638624
 20
2.216707748006623
 30
0.0
 11
21.01227439019912
 21
3.292542044193739
 31
0.0
  0
LINE
  5
165CD
  8
0
  6
CONTINUOUS
 10
22.60993564347543
 20
2.36839999999762
 30
0.0
 11
21.22047749566975
 21
3.757858147803296
 31
0.0
  0
LINE
  5
165CE
  8
0
  6
CONTINUOUS
 10
23.28345485255561
 20
2.36839999999762
 30
0.0
 11
21.42868060114038
 21
4.223174251412853
 31
0.0
  0
LINE
  5
165CF
  8
0
  6
CONTINUOUS
 10
26.29227406164219
 20
0.0330999999912356
 30
0.0
 11
25.80009199592872
 21
0.5252820657046957
 31
0.0
  0
LINE
  5
165D0
  8
0
  6
CONTINUOUS
 10
23.9569740616358
 20
2.36839999999762
 30
0.0
 11
21.63688370661101
 21
4.688490355022409
 31
0.0
  0
LINE
  5
165D1
  8
0
  6
CONTINUOUS
 10
26.96579327072237
 20
0.0330999999912356
 30
0.0
 11
25.2554132311971
 21
1.743480039516508
 31
0.0
  0
LINE
  5
165D2
  8
0
  6
CONTINUOUS
 10
24.63049327071599
 20
2.36839999999762
 30
0.0
 11
23.32789327071731
 21
3.670999999996297
 31
0.0
  0
LINE
  5
165D3
  8
0
  6
CONTINUOUS
 10
22.92098674744635
 20
4.077906523267254
 30
0.0
 11
21.84508681208164
 21
5.153806458631966
 31
0.0
  0
LINE
  5
165D4
  8
0
  6
CONTINUOUS
 10
27.63931247980256
 20
0.0330999999912356
 30
0.0
 11
24.0014124797975
 21
3.670999999996297
 31
0.0
  0
LINE
  5
165D5
  8
0
  6
CONTINUOUS
 10
23.129125600968
 20
4.5432868788258
 30
0.0
 11
22.05328991755227
 21
5.619122562241522
 31
0.0
  0
LINE
  5
165D6
  8
0
  6
CONTINUOUS
 10
28.31283168888275
 20
0.0330999999912356
 30
0.0
 11
24.16488385994816
 21
4.181047828925828
 31
0.0
  0
LINE
  5
165D7
  8
0
  6
CONTINUOUS
 10
23.33726445448964
 20
5.008667234384345
 30
0.0
 11
22.2614930230229
 21
6.084438665851079
 31
0.0
  0
LINE
  5
165D8
  8
0
  6
CONTINUOUS
 10
28.92085740005492
 20
0.0985934978992438
 30
0.0
 11
27.63635089796295
 21
1.383099999991217
 31
0.0
  0
LINE
  5
165D9
  8
0
  6
CONTINUOUS
 10
26.43704649509776
 20
2.582404402856405
 30
0.0
 11
23.61992702019732
 21
5.399523877756844
 31
0.0
  0
LINE
  5
165DA
  8
0
  6
CONTINUOUS
 10
23.54540330801128
 20
5.47404758994289
 30
0.0
 11
22.46969612849353
 21
6.549754769460635
 31
0.0
  0
LINE
  5
165DB
  8
0
  6
CONTINUOUS
 10
29.42225615078443
 20
0.2707139562499279
 30
0.0
 11
28.30987010704312
 21
1.383099999991234
 31
0.0
  0
LINE
  5
165DC
  8
0
  6
CONTINUOUS
 10
25.89179548232307
 20
3.801174624711282
 30
0.0
 11
22.67789923396416
 21
7.015070873070191
 31
0.0
  0
LINE
  5
165DD
  8
0
  6
CONTINUOUS
 10
29.83624534690007
 20
0.5302439692144705
 30
0.0
 11
28.85811781497101
 21
1.508371501143527
 31
0.0
  0
LINE
  5
165DE
  8
0
  6
CONTINUOUS
 10
25.34654446954838
 20
5.01994484656616
 30
0.0
 11
22.88610233943479
 21
7.480386976679748
 31
0.0
  0
LINE
  5
165DF
  8
0
  6
CONTINUOUS
 10
30.17865975401872
 20
0.8613487711760022
 30
0.0
 11
29.18888744090175
 21
1.851121084292977
 31
0.0
  0
LINE
  5
165E0
  8
0
  6
CONTINUOUS
 10
24.80129345677369
 20
6.238715068421037
 30
0.0
 11
23.09430544490542
 21
7.945703080289305
 31
0.0
  0
LINE
  5
165E1
  8
0
  6
CONTINUOUS
 10
30.45496647202376
 20
1.258561262251155
 30
0.0
 11
29.30199999996933
 21
2.411527734305588
 31
0.0
  0
LINE
  5
165E2
  8
0
  6
CONTINUOUS
 10
24.256042443999
 20
7.457485290275915
 30
0.0
 11
23.30250855037605
 21
8.411019183898862
 31
0.0
  0
LINE
  5
165E3
  8
0
  6
CONTINUOUS
 10
30.64868582078271
 20
1.738361122572387
 30
0.0
 11
29.30199999996933
 21
3.085046943385775
 31
0.0
  0
LINE
  5
165E4
  8
0
  6
CONTINUOUS
 10
23.71079143122431
 20
8.676255512130794
 30
0.0
 11
23.51071165584668
 21
8.876335287508416
 31
0.0
  0
LINE
  5
165E5
  8
0
  6
CONTINUOUS
 10
30.73802122914428
 20
2.322544923291007
 30
0.0
 11
29.30199999996933
 21
3.758566152465961
 31
0.0
  0
LINE
  5
165E6
  8
0
  6
CONTINUOUS
 10
30.74199999996924
 20
2.992085361546236
 30
0.0
 11
29.30199999996933
 21
4.432085361546148
 31
0.0
  0
LINE
  5
165E7
  8
0
  6
CONTINUOUS
 10
30.74199999996924
 20
3.665604570626419
 30
0.0
 11
29.30199999996933
 21
5.105604570626333
 31
0.0
  0
LINE
  5
165E8
  8
0
  6
CONTINUOUS
 10
30.74199999996925
 20
4.339123779706602
 30
0.0
 11
29.30199999996933
 21
5.77912377970652
 31
0.0
  0
LINE
  5
165E9
  8
0
  6
CONTINUOUS
 10
30.74199999996925
 20
5.012642988786785
 30
0.0
 11
29.30199999996933
 21
6.452642988786707
 31
0.0
  0
LINE
  5
165EA
  8
0
  6
CONTINUOUS
 10
30.74199999996925
 20
5.68616219786697
 30
0.0
 11
29.30199999996933
 21
7.126162197866894
 31
0.0
  0
LINE
  5
165EB
  8
0
  6
CONTINUOUS
 10
30.74199999996925
 20
6.359681406947153
 30
0.0
 11
29.30199999996933
 21
7.799681406947081
 31
0.0
  0
LINE
  5
165EC
  8
0
  6
CONTINUOUS
 10
30.74199999996926
 20
7.033200616027337
 30
0.0
 11
29.30199999996933
 21
8.473200616027269
 31
0.0
  0
LINE
  5
165ED
  8
0
  6
CONTINUOUS
 10
30.74199999996926
 20
7.706719825107518
 30
0.0
 11
29.68561982508552
 21
8.763099999991255
 31
0.0
  0
LINE
  5
165EE
  8
0
  6
CONTINUOUS
 10
30.74199999996926
 20
8.380239034187703
 30
0.0
 11
30.35913903416571
 21
8.763099999991255
 31
0.0
  0
ENDBLK
  5
16691
  8
0
  0
BLOCK
  8
0
  2
*X59
 70
     1
 10
0.0
 20
0.0
 30
0.0
  3
*X59
  1

  0
LINE
  5
165F0
  8
0
  6
CONTINUOUS
 10
31.64199999996833
 20
8.535058289913598
 30
0.0
 11
31.87004171004599
 21
8.763099999991255
 31
0.0
  0
LINE
  5
165F1
  8
0
  6
CONTINUOUS
 10
31.64199999996833
 20
7.861539080833412
 30
0.0
 11
32.54356091912618
 21
8.763099999991255
 31
0.0
  0
LINE
  5
165F2
  8
0
  6
CONTINUOUS
 10
31.64199999996833
 20
7.188019871753226
 30
0.0
 11
33.08199999996839
 21
8.628019871753281
 31
0.0
  0
LINE
  5
165F3
  8
0
  6
CONTINUOUS
 10
31.64199999996833
 20
6.51450066267304
 30
0.0
 11
33.08199999996839
 21
7.954500662673095
 31
0.0
  0
LINE
  5
165F4
  8
0
  6
CONTINUOUS
 10
31.64199999996833
 20
5.840981453592853
 30
0.0
 11
33.08199999996839
 21
7.280981453592908
 31
0.0
  0
LINE
  5
165F5
  8
0
  6
CONTINUOUS
 10
31.64199999996833
 20
5.167462244512667
 30
0.0
 11
33.08199999996839
 21
6.607462244512721
 31
0.0
  0
LINE
  5
165F6
  8
0
  6
CONTINUOUS
 10
31.64199999996833
 20
4.493943035432481
 30
0.0
 11
33.08199999996839
 21
5.933943035432535
 31
0.0
  0
LINE
  5
165F7
  8
0
  6
CONTINUOUS
 10
31.64199999996833
 20
3.820423826352293
 30
0.0
 11
33.08199999996839
 21
5.260423826352348
 31
0.0
  0
LINE
  5
165F8
  8
0
  6
CONTINUOUS
 10
31.64199999996833
 20
3.146904617272106
 30
0.0
 11
33.08199999996839
 21
4.586904617272161
 31
0.0
  0
LINE
  5
165F9
  8
0
  6
CONTINUOUS
 10
36.23199999996837
 20
8.410423826352325
 30
0.0
 11
36.5846761736073
 21
8.763099999991255
 31
0.0
  0
LINE
  5
165FA
  8
0
  6
CONTINUOUS
 10
36.23199999996837
 20
7.73690461727214
 30
0.0
 11
37.25819538268748
 21
8.763099999991255
 31
0.0
  0
LINE
  5
165FB
  8
0
  6
CONTINUOUS
 10
31.64257403601376
 20
2.473959444237348
 30
0.0
 11
33.08199999996839
 21
3.913385408191974
 31
0.0
  0
LINE
  5
165FC
  8
0
  6
CONTINUOUS
 10
36.23199999996837
 20
7.063385408191953
 30
0.0
 11
37.67199999996831
 21
8.503385408191894
 31
0.0
  0
LINE
  5
165FD
  8
0
  6
CONTINUOUS
 10
31.72013636841932
 20
1.87800256756272
 30
0.0
 11
33.08199999996839
 21
3.239866199111788
 31
0.0
  0
LINE
  5
165FE
  8
0
  6
CONTINUOUS
 10
36.23199999996837
 20
6.389866199111767
 30
0.0
 11
37.67199999996831
 21
7.829866199111708
 31
0.0
  0
LINE
  5
165FF
  8
0
  6
CONTINUOUS
 10
31.89042734314753
 20
1.374774333210744
 30
0.0
 11
33.08199999996839
 21
2.566346990031601
 31
0.0
  0
LINE
  5
16600
  8
0
  6
CONTINUOUS
 10
36.23199999996837
 20
5.71634699003158
 30
0.0
 11
37.67199999996831
 21
7.156346990031521
 31
0.0
  0
LINE
  5
16601
  8
0
  6
CONTINUOUS
 10
32.14210568064475
 20
0.952933461627778
 30
0.0
 11
33.18745552475986
 21
1.998283305742888
 31
0.0
  0
LINE
  5
16602
  8
0
  6
CONTINUOUS
 10
36.23199999996837
 20
5.042827780951393
 30
0.0
 11
37.67199999996831
 21
6.482827780951334
 31
0.0
  0
LINE
  5
16603
  8
0
  6
CONTINUOUS
 10
32.45820639400955
 20
0.5955149659123915
 30
0.0
 11
33.47242681921943
 21
1.60973539112227
 31
0.0
  0
LINE
  5
16604
  8
0
  6
CONTINUOUS
 10
36.23199999996837
 20
4.369308571871207
 30
0.0
 11
37.67199999996831
 21
5.809308571871147
 31
0.0
  0
LINE
  5
16605
  8
0
  6
CONTINUOUS
 10
32.83432456621412
 20
0.2981139290367771
 30
0.0
 11
33.89722476612215
 21
1.361014128944803
 31
0.0
  0
LINE
  5
16606
  8
0
  6
CONTINUOUS
 10
36.23199999996837
 20
3.69578936279102
 30
0.0
 11
37.67199999996831
 21
5.135789362790962
 31
0.0
  0
LINE
  5
16607
  8
0
  6
CONTINUOUS
 10
33.2711633111245
 20
0.0614334648669672
 30
0.0
 11
34.43247338014423
 21
1.222743533886696
 31
0.0
  0
LINE
  5
16608
  8
0
  6
CONTINUOUS
 10
36.23199999996837
 20
3.022270153710834
 30
0.0
 11
37.67199999996831
 21
4.462270153710775
 31
0.0
  0
LINE
  5
16609
  8
0
  6
CONTINUOUS
 10
33.76515245874577
 20
-0.1180965965919523
 30
0.0
 11
35.1587445516215
 21
1.27549549628378
 31
0.0
  0
LINE
  5
1660A
  8
0
  6
CONTINUOUS
 10
36.21639478609585
 20
2.333145730758136
 30
0.0
 11
37.67199999996831
 21
3.788750944630588
 31
0.0
  0
LINE
  5
1660B
  8
0
  6
CONTINUOUS
 10
34.34060583368432
 20
-0.2161624307335863
 30
0.0
 11
37.67199999996831
 21
3.115231735550401
 31
0.0
  0
LINE
  5
1660C
  8
0
  6
CONTINUOUS
 10
35.01698193613905
 20
-0.2133055373590427
 30
0.0
 11
37.66876712070525
 21
2.438479647207154
 31
0.0
  0
LINE
  5
1660D
  8
0
  6
CONTINUOUS
 10
35.90743367693304
 20
0.0036269943547609
 30
0.0
 11
37.51723902192366
 21
1.613432339345381
 31
0.0
  0
LINE
  5
1660E
  8
0
  6
CONTINUOUS
 10
32.55309425579761
 20
0.5074718966376706
 30
0.0
 11
32.27784730925847
 21
0.7827188431768102
 31
0.0
  0
LINE
  5
1660F
  8
0
  6
CONTINUOUS
 10
33.87496468909684
 20
-0.1408793275813673
 30
0.0
 11
31.67993083278052
 21
2.054154528734943
 31
0.0
  0
LINE
  5
16610
  8
0
  6
CONTINUOUS
 10
34.64362813207632
 20
-0.2360235614806649
 30
0.0
 11
31.64199999996833
 21
2.765604570627322
 31
0.0
  0
LINE
  5
16611
  8
0
  6
CONTINUOUS
 10
35.25801106796118
 20
-0.1768872882853429
 30
0.0
 11
31.64199999996833
 21
3.439123779707508
 31
0.0
  0
LINE
  5
16612
  8
0
  6
CONTINUOUS
 10
35.79065650332146
 20
-0.0360135145654361
 30
0.0
 11
34.54143210838231
 21
1.213210880373721
 31
0.0
  0
LINE
  5
16613
  8
0
  6
CONTINUOUS
 10
33.08199999996839
 20
2.67264298878764
 30
0.0
 11
31.64199999996833
 21
4.112642988787695
 31
0.0
  0
LINE
  5
16614
  8
0
  6
CONTINUOUS
 10
36.25975597779143
 20
0.1684062200447833
 30
0.0
 11
35.15395110240023
 21
1.274211095435983
 31
0.0
  0
LINE
  5
16615
  8
0
  6
CONTINUOUS
 10
33.08199999996839
 20
3.346162197867826
 30
0.0
 11
31.64199999996833
 21
4.786162197867881
 31
0.0
  0
LINE
  5
16616
  8
0
  6
CONTINUOUS
 10
36.67226329638774
 20
0.4294181105286579
 30
0.0
 11
35.63766478748767
 21
1.464016619428737
 31
0.0
  0
LINE
  5
16617
  8
0
  6
CONTINUOUS
 10
33.08199999996839
 20
4.019681406948012
 30
0.0
 11
31.64199999996833
 21
5.459681406948068
 31
0.0
  0
LINE
  5
16618
  8
0
  6
CONTINUOUS
 10
37.01677749710036
 20
0.7584231188962329
 30
0.0
 11
35.99563422741351
 21
1.779566388583076
 31
0.0
  0
LINE
  5
16619
  8
0
  6
CONTINUOUS
 10
33.08199999996839
 20
4.693200616028199
 30
0.0
 11
31.64199999996833
 21
6.133200616028255
 31
0.0
  0
LINE
  5
1661A
  8
0
  6
CONTINUOUS
 10
37.29859977568887
 20
1.1501200493879
 30
0.0
 11
36.20680593341555
 21
2.241913891661226
 31
0.0
  0
LINE
  5
1661B
  8
0
  6
CONTINUOUS
 10
33.08199999996839
 20
5.366719825108386
 30
0.0
 11
31.64199999996833
 21
6.80671982510844
 31
0.0
  0
LINE
  5
1661C
  8
0
  6
CONTINUOUS
 10
37.5148623517228
 20
1.607376682434161
 30
0.0
 11
36.23199999996837
 21
2.890239034188594
 31
0.0
  0
LINE
  5
1661D
  8
0
  6
CONTINUOUS
 10
33.08199999996839
 20
6.040239034188573
 30
0.0
 11
31.64199999996833
 21
7.480239034188627
 31
0.0
  0
LINE
  5
1661E
  8
0
  6
CONTINUOUS
 10
37.64705163358367
 20
2.148706609653477
 30
0.0
 11
36.23199999996837
 21
3.56375824326878
 31
0.0
  0
LINE
  5
1661F
  8
0
  6
CONTINUOUS
 10
33.08199999996839
 20
6.713758243268758
 30
0.0
 11
31.64199999996833
 21
8.153758243268815
 31
0.0
  0
LINE
  5
16620
  8
0
  6
CONTINUOUS
 10
37.67199999996831
 20
2.797277452349026
 30
0.0
 11
36.23199999996837
 21
4.237277452348967
 31
0.0
  0
LINE
  5
16621
  8
0
  6
CONTINUOUS
 10
37.67199999996831
 20
3.470796661429213
 30
0.0
 11
36.23199999996837
 21
4.910796661429154
 31
0.0
  0
LINE
  5
16622
  8
0
  6
CONTINUOUS
 10
37.67199999996831
 20
4.144315870509399
 30
0.0
 11
36.23199999996837
 21
5.58431587050934
 31
0.0
  0
LINE
  5
16623
  8
0
  6
CONTINUOUS
 10
33.08199999996839
 20
7.387277452348945
 30
0.0
 11
31.70617745232608
 21
8.763099999991255
 31
0.0
  0
LINE
  5
16624
  8
0
  6
CONTINUOUS
 10
33.08199999996839
 20
8.060796661429132
 30
0.0
 11
32.37969666140626
 21
8.763099999991255
 31
0.0
  0
LINE
  5
16625
  8
0
  6
CONTINUOUS
 10
33.08199999996839
 20
8.734315870509318
 30
0.0
 11
33.05321587048645
 21
8.763099999991255
 31
0.0
  0
LINE
  5
16626
  8
0
  6
CONTINUOUS
 10
37.67199999996831
 20
4.817835079589585
 30
0.0
 11
36.23199999996837
 21
6.257835079589526
 31
0.0
  0
LINE
  5
16627
  8
0
  6
CONTINUOUS
 10
37.67199999996831
 20
5.491354288669771
 30
0.0
 11
36.23199999996837
 21
6.931354288669713
 31
0.0
  0
LINE
  5
16628
  8
0
  6
CONTINUOUS
 10
37.67199999996831
 20
6.164873497749958
 30
0.0
 11
36.23199999996837
 21
7.6048734977499
 31
0.0
  0
LINE
  5
16629
  8
0
  6
CONTINUOUS
 10
37.67199999996831
 20
6.838392706830144
 30
0.0
 11
36.23199999996837
 21
8.278392706830086
 31
0.0
  0
LINE
  5
1662A
  8
0
  6
CONTINUOUS
 10
37.67199999996831
 20
7.511911915910332
 30
0.0
 11
36.42081191588738
 21
8.763099999991255
 31
0.0
  0
LINE
  5
1662B
  8
0
  6
CONTINUOUS
 10
37.67199999996831
 20
8.185431124990519
 30
0.0
 11
37.09433112496757
 21
8.763099999991255
 31
0.0
  0
ENDBLK
  5
16693
  8
0
  0
BLOCK
  8
0
  2
*X60
 70
     1
 10
0.0
 20
0.0
 30
0.0
  3
*X60
  1

  0
LINE
  5
1662D
  8
0
  6
CONTINUOUS
 10
38.60499999996136
 20
8.762866199104765
 30
0.0
 11
38.71672554182345
 21
8.874591740966855
 31
0.0
  0
LINE
  5
1662E
  8
0
  6
CONTINUOUS
 10
38.60499999996136
 20
8.089346990024577
 30
0.0
 11
39.03418785440363
 21
8.518534844466847
 31
0.0
  0
LINE
  5
1662F
  8
0
  6
CONTINUOUS
 10
38.60499999996136
 20
7.41582778094439
 30
0.0
 11
39.35165016698382
 21
8.16247794796684
 31
0.0
  0
LINE
  5
16630
  8
0
  6
CONTINUOUS
 10
38.60499999996136
 20
6.742308571864204
 30
0.0
 11
39.66911247956399
 21
7.806421051466834
 31
0.0
  0
LINE
  5
16631
  8
0
  6
CONTINUOUS
 10
38.60499999996136
 20
6.068789362784018
 30
0.0
 11
39.98657479214418
 21
7.450364154966827
 31
0.0
  0
LINE
  5
16632
  8
0
  6
CONTINUOUS
 10
38.60499999996136
 20
5.395270153703832
 30
0.0
 11
40.30403710472435
 21
7.09430725846682
 31
0.0
  0
LINE
  5
16633
  8
0
  6
CONTINUOUS
 10
38.60499999996136
 20
4.721750944623645
 30
0.0
 11
40.62149941730453
 21
6.738250361966813
 31
0.0
  0
LINE
  5
16634
  8
0
  6
CONTINUOUS
 10
38.60499999996136
 20
4.048231735543458
 30
0.0
 11
40.93896172988471
 21
6.382193465466806
 31
0.0
  0
LINE
  5
16635
  8
0
  6
CONTINUOUS
 10
38.60499999996136
 20
3.374712526463272
 30
0.0
 11
40.02599999995994
 21
4.795712526461843
 31
0.0
  0
LINE
  5
16636
  8
0
  6
CONTINUOUS
 10
38.60499999996136
 20
2.701193317383085
 30
0.0
 11
40.02599999995994
 21
4.122193317381657
 31
0.0
  0
LINE
  5
16637
  8
0
  6
CONTINUOUS
 10
40.28339754687704
 20
5.053110073378947
 30
0.0
 11
41.25642404246489
 21
6.026136568966799
 31
0.0
  0
LINE
  5
16638
  8
0
  6
CONTINUOUS
 10
40.60085985945722
 20
4.697053176878939
 30
0.0
 11
41.57388635504507
 21
5.670079672466793
 31
0.0
  0
LINE
  5
16639
  8
0
  6
CONTINUOUS
 10
43.57899999995641
 20
8.348712526458318
 30
0.0
 11
43.99338747348935
 21
8.763099999991255
 31
0.0
  0
LINE
  5
1663A
  8
0
  6
CONTINUOUS
 10
43.57899999995641
 20
7.675193317378131
 30
0.0
 11
44.66690668256953
 21
8.763099999991255
 31
0.0
  0
LINE
  5
1663B
  8
0
  6
CONTINUOUS
 10
38.60499999996136
 20
2.027674108302898
 30
0.0
 11
40.02599999995994
 21
3.44867410830147
 31
0.0
  0
LINE
  5
1663C
  8
0
  6
CONTINUOUS
 10
38.60499999996136
 20
1.354154899222712
 30
0.0
 11
40.02599999995994
 21
2.775154899221284
 31
0.0
  0
LINE
  5
1663D
  8
0
  6
CONTINUOUS
 10
38.60499999996136
 20
0.6806356901425255
 30
0.0
 11
40.02599999995994
 21
2.101635690141098
 31
0.0
  0
LINE
  5
1663E
  8
0
  6
CONTINUOUS
 10
38.60499999996136
 20
0.0071164810623383
 30
0.0
 11
40.02599999995994
 21
1.428116481060911
 31
0.0
  0
LINE
  5
1663F
  8
0
  6
CONTINUOUS
 10
40.9183221720374
 20
4.340996280378933
 30
0.0
 11
41.89134866762525
 21
5.314022775966786
 31
0.0
  0
LINE
  5
16640
  8
0
  6
CONTINUOUS
 10
41.23578448461758
 20
3.984939383878926
 30
0.0
 11
42.20881098020543
 21
4.957965879466778
 31
0.0
  0
LINE
  5
16641
  8
0
  6
CONTINUOUS
 10
41.55324679719776
 20
3.628882487378919
 30
0.0
 11
42.52627329278561
 21
4.601908982966772
 31
0.0
  0
LINE
  5
16642
  8
0
  6
CONTINUOUS
 10
41.87070910977793
 20
3.272825590878912
 30
0.0
 11
42.84373560536579
 21
4.245852086466765
 31
0.0
  0
LINE
  5
16643
  8
0
  6
CONTINUOUS
 10
43.57899999995641
 20
7.001674108297943
 30
0.0
 11
44.99999999995498
 21
8.422674108296516
 31
0.0
  0
LINE
  5
16644
  8
0
  6
CONTINUOUS
 10
43.57899999995641
 20
6.328154899217758
 30
0.0
 11
44.99999999995498
 21
7.749154899216329
 31
0.0
  0
LINE
  5
16645
  8
0
  6
CONTINUOUS
 10
43.57899999995641
 20
5.654635690137571
 30
0.0
 11
44.99999999995498
 21
7.075635690136142
 31
0.0
  0
LINE
  5
16646
  8
0
  6
CONTINUOUS
 10
43.57899999995641
 20
4.981116481057384
 30
0.0
 11
44.99999999995498
 21
6.402116481055955
 31
0.0
  0
LINE
  5
16647
  8
0
  6
CONTINUOUS
 10
39.27140272797921
 20
-0.0000000000000009
 30
0.0
 11
40.02599999995994
 21
0.7545972719807246
 31
0.0
  0
LINE
  5
16648
  8
0
  6
CONTINUOUS
 10
39.9449219370594
 20
-0.0000000000000009
 30
0.0
 11
40.02599999995994
 21
0.0810780629005379
 31
0.0
  0
LINE
  5
16649
  8
0
  6
CONTINUOUS
 10
42.18817142235812
 20
2.916768694378905
 30
0.0
 11
43.16119791794597
 21
3.889795189966758
 31
0.0
  0
LINE
  5
1664A
  8
0
  6
CONTINUOUS
 10
42.50563373493829
 20
2.560711797878898
 30
0.0
 11
43.47866023052615
 21
3.533738293466751
 31
0.0
  0
LINE
  5
1664B
  8
0
  6
CONTINUOUS
 10
43.57899999995641
 20
4.307597271977198
 30
0.0
 11
44.99999999995498
 21
5.728597271975769
 31
0.0
  0
LINE
  5
1664C
  8
0
  6
CONTINUOUS
 10
43.57899999995641
 20
3.634078062897011
 30
0.0
 11
44.99999999995498
 21
5.055078062895582
 31
0.0
  0
LINE
  5
1664D
  8
0
  6
CONTINUOUS
 10
42.82309604751848
 20
2.204654901378891
 30
0.0
 11
44.99999999995498
 21
4.381558853815395
 31
0.0
  0
LINE
  5
1664E
  8
0
  6
CONTINUOUS
 10
43.14055836009865
 20
1.848598004878885
 30
0.0
 11
44.99999999995498
 21
3.70803964473521
 31
0.0
  0
LINE
  5
1664F
  8
0
  6
CONTINUOUS
 10
43.45802067267883
 20
1.492541108378878
 30
0.0
 11
44.99999999995498
 21
3.034520435655023
 31
0.0
  0
LINE
  5
16650
  8
0
  6
CONTINUOUS
 10
43.77548298525902
 20
1.136484211878871
 30
0.0
 11
44.99999999995498
 21
2.361001226574837
 31
0.0
  0
LINE
  5
16651
  8
0
  6
CONTINUOUS
 10
44.09294529783919
 20
0.7804273153788639
 30
0.0
 11
44.99999999995498
 21
1.687482017494649
 31
0.0
  0
LINE
  5
16652
  8
0
  6
CONTINUOUS
 10
44.41040761041938
 20
0.4243704188788566
 30
0.0
 11
44.99999999995498
 21
1.013962808414463
 31
0.0
  0
LINE
  5
16653
  8
0
  6
CONTINUOUS
 10
44.72786992299955
 20
0.0683135223788494
 30
0.0
 11
44.99999999995498
 21
0.340443599334276
 31
0.0
  0
LINE
  5
16654
  8
0
  6
CONTINUOUS
 10
39.12223903415696
 20
-0.0000000000000009
 30
0.0
 11
38.60499999996136
 21
0.5172390341955961
 31
0.0
  0
LINE
  5
16655
  8
0
  6
CONTINUOUS
 10
39.79575824323715
 20
-0.0000000000000009
 30
0.0
 11
38.60499999996136
 21
1.190758243275783
 31
0.0
  0
LINE
  5
16656
  8
0
  6
CONTINUOUS
 10
40.02599999995994
 20
0.443277452357397
 30
0.0
 11
38.60499999996136
 21
1.864277452355969
 31
0.0
  0
LINE
  5
16657
  8
0
  6
CONTINUOUS
 10
40.02599999995994
 20
1.116796661437583
 30
0.0
 11
38.60499999996136
 21
2.537796661436155
 31
0.0
  0
LINE
  5
16658
  8
0
  6
CONTINUOUS
 10
40.02599999995994
 20
1.79031587051777
 30
0.0
 11
38.60499999996136
 21
3.211315870516341
 31
0.0
  0
LINE
  5
16659
  8
0
  6
CONTINUOUS
 10
40.02599999995994
 20
2.463835079597956
 30
0.0
 11
38.60499999996136
 21
3.884835079596527
 31
0.0
  0
LINE
  5
1665A
  8
0
  6
CONTINUOUS
 10
40.02599999995994
 20
3.137354288678143
 30
0.0
 11
38.60499999996136
 21
4.558354288676714
 31
0.0
  0
LINE
  5
1665B
  8
0
  6
CONTINUOUS
 10
40.02599999995994
 20
3.810873497758329
 30
0.0
 11
38.60499999996136
 21
5.2318734977569
 31
0.0
  0
LINE
  5
1665C
  8
0
  6
CONTINUOUS
 10
40.02599999995994
 20
4.484392706838515
 30
0.0
 11
38.60499999996136
 21
5.905392706837086
 31
0.0
  0
LINE
  5
1665D
  8
0
  6
CONTINUOUS
 10
44.99999999995498
 20
0.183911915923658
 30
0.0
 11
41.53858364506288
 21
3.64532827081576
 31
0.0
  0
LINE
  5
1665E
  8
0
  6
CONTINUOUS
 10
40.02599999995994
 20
5.157911915918703
 30
0.0
 11
38.60499999996136
 21
6.578911915917274
 31
0.0
  0
LINE
  5
1665F
  8
0
  6
CONTINUOUS
 10
44.99999999995498
 20
0.8574311250038447
 30
0.0
 11
38.60499999996136
 21
7.25243112499746
 31
0.0
  0
LINE
  5
16660
  8
0
  6
CONTINUOUS
 10
44.99999999995498
 20
1.530950334084031
 30
0.0
 11
38.60499999996136
 21
7.925950334077647
 31
0.0
  0
LINE
  5
16661
  8
0
  6
CONTINUOUS
 10
44.99999999995498
 20
2.204469543164218
 30
0.0
 11
43.57899999995641
 21
3.625469543162789
 31
0.0
  0
LINE
  5
16662
  8
0
  6
CONTINUOUS
 10
41.89876730984767
 20
5.305702233271528
 30
0.0
 11
38.60499999996136
 21
8.599469543157834
 31
0.0
  0
LINE
  5
16663
  8
0
  6
CONTINUOUS
 10
44.99999999995498
 20
2.877988752244405
 30
0.0
 11
43.57899999995641
 21
4.298988752242975
 31
0.0
  0
LINE
  5
16664
  8
0
  6
CONTINUOUS
 10
44.99999999995498
 20
3.551507961324591
 30
0.0
 11
43.57899999995641
 21
4.972507961323163
 31
0.0
  0
LINE
  5
16665
  8
0
  6
CONTINUOUS
 10
44.99999999995498
 20
4.225027170404777
 30
0.0
 11
43.57899999995641
 21
5.646027170403348
 31
0.0
  0
LINE
  5
16666
  8
0
  6
CONTINUOUS
 10
44.99999999995498
 20
4.898546379484964
 30
0.0
 11
43.57899999995641
 21
6.319546379483535
 31
0.0
  0
LINE
  5
16667
  8
0
  6
CONTINUOUS
 10
44.99999999995498
 20
5.572065588565151
 30
0.0
 11
43.57899999995641
 21
6.993065588563722
 31
0.0
  0
LINE
  5
16668
  8
0
  6
CONTINUOUS
 10
44.99999999995498
 20
6.245584797645336
 30
0.0
 11
43.57899999995641
 21
7.666584797643908
 31
0.0
  0
LINE
  5
16669
  8
0
  6
CONTINUOUS
 10
44.99999999995498
 20
6.919104006725522
 30
0.0
 11
43.57899999995641
 21
8.340104006724093
 31
0.0
  0
LINE
  5
1666A
  8
0
  6
CONTINUOUS
 10
44.99999999995498
 20
7.592623215805709
 30
0.0
 11
43.82952321576943
 21
8.763099999991255
 31
0.0
  0
LINE
  5
1666B
  8
0
  6
CONTINUOUS
 10
44.99999999995498
 20
8.266142424885896
 30
0.0
 11
44.50304242484962
 21
8.763099999991255
 31
0.0
  0
ENDBLK
  5
16695
  8
0
  0
BLOCK
  8
0
  2
*X61
 70
     1
 10
0.0
 20
0.0
 30
0.0
  3
*X61
  1

  0
LINE
  5
1666D
  8
0
  6
CONTINUOUS
 10
0.0
 20
8.548461116714023
 30
0.0
 11
0.2146388832772324
 21
8.763099999991255
 31
0.0
  0
LINE
  5
1666E
  8
0
  6
CONTINUOUS
 10
-0.0000000000000002
 20
7.874941907633837
 30
0.0
 11
0.8881580923574184
 21
8.763099999991255
 31
0.0
  0
LINE
  5
1666F
  8
0
  6
CONTINUOUS
 10
0.0
 20
7.20142269855365
 30
0.0
 11
1.420999999998572
 21
8.622422698552223
 31
0.0
  0
LINE
  5
16670
  8
0
  6
CONTINUOUS
 10
-0.0000000000000001
 20
6.527903489473465
 30
0.0
 11
1.420999999998571
 21
7.948903489472036
 31
0.0
  0
LINE
  5
16671
  8
0
  6
CONTINUOUS
 10
-0.0000000000000002
 20
5.854384280393278
 30
0.0
 11
1.420999999998571
 21
7.275384280391849
 31
0.0
  0
LINE
  5
16672
  8
0
  6
CONTINUOUS
 10
-0.0000000000000002
 20
5.180865071313091
 30
0.0
 11
1.420999999998571
 21
6.601865071311663
 31
0.0
  0
LINE
  5
16673
  8
0
  6
CONTINUOUS
 10
0.0
 20
4.507345862232905
 30
0.0
 11
1.420999999998571
 21
5.928345862231477
 31
0.0
  0
LINE
  5
16674
  8
0
  6
CONTINUOUS
 10
-0.0000000000000003
 20
3.833826653152718
 30
0.0
 11
1.420999999998571
 21
5.25482665315129
 31
0.0
  0
LINE
  5
16675
  8
0
  6
CONTINUOUS
 10
-0.0000000000000002
 20
3.160307444072532
 30
0.0
 11
1.420999999998571
 21
4.581307444071103
 31
0.0
  0
LINE
  5
16676
  8
0
  6
CONTINUOUS
 10
-0.0000000000000001
 20
2.486788234992345
 30
0.0
 11
1.420999999998571
 21
3.907788234990917
 31
0.0
  0
LINE
  5
16677
  8
0
  6
CONTINUOUS
 10
-0.0000000000000006
 20
1.813269025912159
 30
0.0
 11
1.420999999998571
 21
3.234269025910731
 31
0.0
  0
LINE
  5
16678
  8
0
  6
CONTINUOUS
 10
0.0
 20
1.139749816831973
 30
0.0
 11
1.420999999998571
 21
2.560749816830544
 31
0.0
  0
LINE
  5
16679
  8
0
  6
CONTINUOUS
 10
0.0000000000000002
 20
0.466230607751787
 30
0.0
 11
1.420999999998571
 21
1.887230607750358
 31
0.0
  0
LINE
  5
1667A
  8
0
  6
CONTINUOUS
 10
0.2072886013284003
 20
-0.0000000000000009
 30
0.0
 11
1.420999999998571
 21
1.213711398670171
 31
0.0
  0
LINE
  5
1667B
  8
0
  6
CONTINUOUS
 10
0.8808078104085864
 20
-0.0000000000000009
 30
0.0
 11
1.420999999998571
 21
0.5401921895899839
 31
0.0
  0
LINE
  5
1667C
  8
0
  6
CONTINUOUS
 10
0.0581249075061505
 20
-0.0000000000000009
 30
0.0
 11
-0.0000000000000002
 21
0.0581249075061496
 31
0.0
  0
LINE
  5
1667D
  8
0
  6
CONTINUOUS
 10
0.7316441165863372
 20
-0.0000000000000009
 30
0.0
 11
-0.0000000000000002
 21
0.7316441165863363
 31
0.0
  0
LINE
  5
1667E
  8
0
  6
CONTINUOUS
 10
1.405163325666523
 20
-0.0000000000000009
 30
0.0
 11
-0.0000000000000002
 21
1.405163325666523
 31
0.0
  0
LINE
  5
1667F
  8
0
  6
CONTINUOUS
 10
1.420999999998572
 20
0.6576825347481381
 30
0.0
 11
-0.0000000000000001
 21
2.07868253474671
 31
0.0
  0
LINE
  5
16680
  8
0
  6
CONTINUOUS
 10
1.420999999998571
 20
1.331201743828324
 30
0.0
 11
-0.0000000000000001
 21
2.752201743826896
 31
0.0
  0
LINE
  5
16681
  8
0
  6
CONTINUOUS
 10
1.420999999998571
 20
2.004720952908511
 30
0.0
 11
-0.0000000000000002
 21
3.425720952907082
 31
0.0
  0
LINE
  5
16682
  8
0
  6
CONTINUOUS
 10
1.420999999998571
 20
2.678240161988697
 30
0.0
 11
-0.0000000000000001
 21
4.099240161987269
 31
0.0
  0
LINE
  5
16683
  8
0
  6
CONTINUOUS
 10
1.420999999998572
 20
3.351759371068884
 30
0.0
 11
0.0
 21
4.772759371067455
 31
0.0
  0
LINE
  5
16684
  8
0
  6
CONTINUOUS
 10
1.420999999998571
 20
4.02527858014907
 30
0.0
 11
-0.0000000000000003
 21
5.446278580147642
 31
0.0
  0
LINE
  5
16685
  8
0
  6
CONTINUOUS
 10
1.420999999998571
 20
4.698797789229257
 30
0.0
 11
0.0
 21
6.119797789227828
 31
0.0
  0
LINE
  5
16686
  8
0
  6
CONTINUOUS
 10
1.420999999998571
 20
5.372316998309444
 30
0.0
 11
-0.0000000000000001
 21
6.793316998308015
 31
0.0
  0
LINE
  5
16687
  8
0
  6
CONTINUOUS
 10
1.420999999998572
 20
6.045836207389629
 30
0.0
 11
-0.0000000000000004
 21
7.466836207388202
 31
0.0
  0
LINE
  5
16688
  8
0
  6
CONTINUOUS
 10
1.420999999998571
 20
6.719355416469816
 30
0.0
 11
0.0
 21
8.140355416468388
 31
0.0
  0
LINE
  5
16689
  8
0
  6
CONTINUOUS
 10
1.420999999998571
 20
7.392874625550003
 30
0.0
 11
0.0507746255573185
 21
8.763099999991255
 31
0.0
  0
LINE
  5
1668A
  8
0
  6
CONTINUOUS
 10
1.420999999998571
 20
8.06639383463019
 30
0.0
 11
0.7242938346375052
 21
8.763099999991255
 31
0.0
  0
LINE
  5
1668B
  8
0
  6
CONTINUOUS
 10
1.420999999998571
 20
8.739913043710375
 30
0.0
 11
1.397813043717691
 21
8.763099999991255
 31
0.0
  0
ENDBLK
  5
16697
  8
0
  0
ENDSEC
  0
SECTION
  2
ENTITIES
  0
ARC
  5
144A1
  8
01
 10
457.4554583376122
 20
-87.67422381221604
 30
0.0
 40
6.553616379806404
 50
304.4627366806718
 51
331.9385348096873
  0
ARC
  5
144F5
  8
01
 10
457.6549706418189
 20
-87.64406833482462
 30
0.0
 40
6.468130206359673
 50
269.6425919693569
 51
302.8542287536337
  0
ARC
  5
144F6
  8
01
 10
454.0155914099396
 20
-85.75425650787565
 30
0.0
 40
10.49256773714089
 50
331.5230579800997
 51
345.5530803423492
  0
LINE
  5
144F7
  8
01
 10
182.1763755892272
 20
-88.3719735629511
 30
0.0
 11
182.2669568379338
 21
-88.69396517893529
 31
0.0
  0
LINE
  5
144F8
  8
01
 10
182.2669568379338
 20
-88.69396517893529
 30
0.0
 11
182.3644258736338
 21
-89.00833355042778
 31
0.0
  0
LINE
  5
144F9
  8
01
 10
182.3644258736338
 20
-89.00833355042778
 30
0.0
 11
182.4688324564544
 21
-89.31492091466407
 31
0.0
  0
LINE
  5
144FA
  8
01
 10
182.4688324564544
 20
-89.31492091466407
 30
0.0
 11
182.580226346523
 21
-89.61356950888057
 31
0.0
  0
LINE
  5
144FB
  8
01
 10
182.580226346523
 20
-89.61356950888057
 30
0.0
 11
182.6986573039669
 21
-89.90412157031369
 31
0.0
  0
LINE
  5
144FC
  8
01
 10
182.6986573039669
 20
-89.90412157031369
 30
0.0
 11
182.8241750889134
 21
-90.18641933619892
 31
0.0
  0
LINE
  5
144FD
  8
01
 10
182.8241750889134
 20
-90.18641933619892
 30
0.0
 11
182.9568294614897
 21
-90.46030504377268
 31
0.0
  0
LINE
  5
144FE
  8
01
 10
182.9568294614897
 20
-90.46030504377268
 30
0.0
 11
183.0966701818234
 21
-90.72562093027136
 31
0.0
  0
LINE
  5
144FF
  8
01
 10
183.0966701818234
 20
-90.72562093027136
 30
0.0
 11
183.1693009724388
 21
-90.85501588975421
 31
0.0
  0
LINE
  5
14500
  8
01
 10
183.1693009724388
 20
-90.85501588975421
 30
0.0
 11
183.2437470100414
 21
-90.98220923293138
 31
0.0
  0
LINE
  5
14501
  8
01
 10
183.2437470100414
 20
-90.98220923293138
 30
0.0
 11
183.3200145146468
 21
-91.10718123945753
 31
0.0
  0
LINE
  5
14502
  8
01
 10
183.3200145146468
 20
-91.10718123945753
 30
0.0
 11
183.3981097062712
 21
-91.22991218898824
 31
0.0
  0
LINE
  5
14503
  8
01
 10
183.3981097062712
 20
-91.22991218898824
 30
0.0
 11
183.4780388049302
 21
-91.35038236117725
 31
0.0
  0
LINE
  5
14504
  8
01
 10
183.4780388049302
 20
-91.35038236117725
 30
0.0
 11
183.5598080306399
 21
-91.46857203567833
 31
0.0
  0
LINE
  5
14505
  8
01
 10
183.5598080306399
 20
-91.46857203567833
 30
0.0
 11
183.6434236034163
 21
-91.58446149214706
 31
0.0
  0
LINE
  5
14506
  8
01
 10
183.6434236034163
 20
-91.58446149214706
 30
0.0
 11
183.7288917432752
 21
-91.69803101023808
 31
0.0
  0
LINE
  5
14507
  8
01
 10
183.7288917432752
 20
-91.69803101023808
 30
0.0
 11
183.8162186702325
 21
-91.80926086960517
 31
0.0
  0
LINE
  5
14508
  8
01
 10
183.8162186702325
 20
-91.80926086960517
 30
0.0
 11
183.9054106043041
 21
-91.91813134990298
 31
0.0
  0
LINE
  5
14509
  8
01
 10
183.9054106043041
 20
-91.91813134990298
 30
0.0
 11
183.9964737655059
 21
-92.02462273078709
 31
0.0
  0
LINE
  5
1450A
  8
01
 10
183.9964737655059
 20
-92.02462273078709
 30
0.0
 11
184.089414373854
 21
-92.12871529191034
 31
0.0
  0
LINE
  5
1450B
  8
01
 10
184.089414373854
 20
-92.12871529191034
 30
0.0
 11
184.184238649364
 21
-92.23038931292831
 31
0.0
  0
LINE
  5
1450C
  8
01
 10
184.184238649364
 20
-92.23038931292831
 30
0.0
 11
184.2809528120521
 21
-92.32962507349566
 31
0.0
  0
LINE
  5
1450D
  8
01
 10
184.2809528120521
 20
-92.32962507349566
 30
0.0
 11
184.379563081934
 21
-92.42640285326615
 31
0.0
  0
LINE
  5
1450E
  8
01
 10
184.379563081934
 20
-92.42640285326615
 30
0.0
 11
184.4800756790257
 21
-92.52070293189445
 31
0.0
  0
LINE
  5
1450F
  8
01
 10
184.4800756790257
 20
-92.52070293189445
 30
0.0
 11
184.5824968233431
 21
-92.61250558903521
 31
0.0
  0
LINE
  5
14510
  8
01
 10
184.5824968233431
 20
-92.61250558903521
 30
0.0
 11
184.6868327349022
 21
-92.70179110434401
 31
0.0
  0
LINE
  5
14511
  8
01
 10
184.6868327349022
 20
-92.70179110434401
 30
0.0
 11
184.7930896337189
 21
-92.7885397574737
 31
0.0
  0
LINE
  5
14512
  8
01
 10
184.7930896337189
 20
-92.7885397574737
 30
0.0
 11
184.9012737398089
 21
-92.87273182807985
 31
0.0
  0
LINE
  5
14513
  8
01
 10
184.9012737398089
 20
-92.87273182807985
 30
0.0
 11
185.0113912731883
 21
-92.95434759581622
 31
0.0
  0
LINE
  5
14514
  8
01
 10
185.0113912731883
 20
-92.95434759581622
 30
0.0
 11
185.123448453873
 21
-93.03336734033837
 31
0.0
  0
LINE
  5
14515
  8
01
 10
185.123448453873
 20
-93.03336734033837
 30
0.0
 11
185.2374515018789
 21
-93.10977134130007
 31
0.0
  0
LINE
  5
14516
  8
01
 10
185.2374515018789
 20
-93.10977134130007
 30
0.0
 11
185.3534066372218
 21
-93.18353987835599
 31
0.0
  0
LINE
  5
14517
  8
01
 10
185.3534066372218
 20
-93.18353987835599
 30
0.0
 11
185.4713200799179
 21
-93.25465323115986
 31
0.0
  0
LINE
  5
14518
  8
01
 10
185.4713200799179
 20
-93.25465323115986
 30
0.0
 11
185.5911980499827
 21
-93.32309167936819
 31
0.0
  0
LINE
  5
14519
  8
01
 10
185.5911980499827
 20
-93.32309167936819
 30
0.0
 11
185.7130467674325
 21
-93.38883550263381
 31
0.0
  0
LINE
  5
1451A
  8
01
 10
185.7130467674325
 20
-93.38883550263381
 30
0.0
 11
185.836872452283
 21
-93.45186498061139
 31
0.0
  0
LINE
  5
1451B
  8
01
 10
185.836872452283
 20
-93.45186498061139
 30
0.0
 11
185.9626813245502
 21
-93.5121603929556
 31
0.0
  0
LINE
  5
1451C
  8
01
 10
185.9626813245502
 20
-93.5121603929556
 30
0.0
 11
186.0904796042499
 21
-93.569702019322
 31
0.0
  0
LINE
  5
1451D
  8
01
 10
186.0904796042499
 20
-93.569702019322
 30
0.0
 11
186.2202735113981
 21
-93.62447013936435
 31
0.0
  0
LINE
  5
1451E
  8
01
 10
186.2202735113981
 20
-93.62447013936435
 30
0.0
 11
186.3520692660107
 21
-93.67644503273641
 31
0.0
  0
LINE
  5
1451F
  8
01
 10
186.3520692660107
 20
-93.67644503273641
 30
0.0
 11
186.4858730881036
 21
-93.72560697909375
 31
0.0
  0
LINE
  5
14520
  8
01
 10
186.4858730881036
 20
-93.72560697909375
 30
0.0
 11
186.6216911976928
 21
-93.77193625809014
 31
0.0
  0
LINE
  5
14521
  8
01
 10
186.6216911976928
 20
-93.77193625809014
 30
0.0
 11
186.7595298147941
 21
-93.81541314938022
 31
0.0
  0
LINE
  5
14522
  8
01
 10
186.7595298147941
 20
-93.81541314938022
 30
0.0
 11
186.8993951594234
 21
-93.85601793261958
 31
0.0
  0
LINE
  5
14523
  8
01
 10
186.8993951594234
 20
-93.85601793261958
 30
0.0
 11
187.0412934515967
 21
-93.89373088746106
 31
0.0
  0
LINE
  5
14524
  8
01
 10
187.0412934515967
 20
-93.89373088746106
 30
0.0
 11
187.1852309113299
 21
-93.92853229356115
 31
0.0
  0
LINE
  5
14525
  8
01
 10
187.1852309113299
 20
-93.92853229356115
 30
0.0
 11
187.3312137586388
 21
-93.96040243057269
 31
0.0
  0
LINE
  5
14526
  8
01
 10
187.3312137586388
 20
-93.96040243057269
 30
0.0
 11
187.4792482135394
 21
-93.98932157815034
 31
0.0
  0
LINE
  5
14527
  8
01
 10
187.4792482135394
 20
-93.98932157815034
 30
0.0
 11
187.6293404960477
 21
-94.01527001594968
 31
0.0
  0
LINE
  5
14528
  8
01
 10
187.6293404960477
 20
-94.01527001594968
 30
0.0
 11
187.7814968261794
 21
-94.03822802362447
 31
0.0
  0
LINE
  5
14529
  8
01
 10
187.7814968261794
 20
-94.03822802362447
 30
0.0
 11
187.9357234239505
 21
-94.05817588082937
 31
0.0
  0
LINE
  5
1452A
  8
01
 10
187.9357234239505
 20
-94.05817588082937
 30
0.0
 11
188.0920265093771
 21
-94.07509386721904
 31
0.0
  0
LINE
  5
1452B
  8
01
 10
188.0920265093771
 20
-94.07509386721904
 30
0.0
 11
188.2504123024748
 21
-94.08896226244724
 31
0.0
  0
LINE
  5
1452C
  8
01
 10
188.2504123024748
 20
-94.08896226244724
 30
0.0
 11
188.4108870232599
 21
-94.09976134616954
 31
0.0
  0
LINE
  5
1452F
  8
01
 10
196.9086256006823
 20
-87.11354704971382
 30
0.0
 11
183.1425061798817
 21
-87.11354704971382
 31
0.0
  0
LINE
  5
14530
  8
01
 10
449.4451125802643
 20
-87.11354704971382
 30
0.0
 11
463.2102466957032
 21
-87.11354704971382
 31
0.0
  0
LINE
  5
14532
  8
01
 10
449.4441223023219
 20
-87.11354704971382
 30
0.0
 11
196.9086290445255
 21
-87.11354704971382
 31
0.0
  0
ARC
  5
14534
  8
01
 10
463.2102554816412
 20
-88.1136155515378
 30
0.0
 40
1.000068459828323
 50
345.0283943066531
 51
89.99189205654591
  0
ARC
  5
14535
  8
01
 10
183.1424970594769
 20
-88.11361659909562
 30
0.0
 40
1.00006950560951
 50
90.00844326677002
 51
194.9715275456866
  0
LINE
  5
14539
  8
01
 10
188.9599569167295
 20
-94.11354704971382
 30
0.0
 11
457.4462630676592
 21
-94.11354704971382
 31
0.0
  0
LINE
  5
1453A
  8
01
 10
352.8763956429036
 20
40.84842729425054
 30
0.0
 11
331.0857957093995
 21
40.84842953237148
 31
0.0
  0
ARC
  5
1453B
  8
01
 10
352.8763956054459
 20
40.54842729333632
 30
0.0
 40
0.3000000000013642
 50
33.17579766518575
 51
56.82419525857796
  0
ARC
  5
1453C
  8
01
 10
293.476395605447
 20
40.54843339455238
 30
0.0
 40
0.3000000000003456
 50
123.1757956143849
 51
146.8241973091737
  0
ARC
  5
1453D
  8
01
 10
449.1232775307207
 20
-46.82890496781238
 30
0.0
 40
15.09069935667995
 50
271.2547530293219
 51
358.7452469854028
  0
ARC
  5
1453E
  8
01
 10
449.12327753072
 20
23.06485895685546
 30
0.0
 40
15.0906993566806
 50
1.254753014597253
 51
88.74524697067802
  0
ARC
  5
1453F
  8
01
 10
197.230975804594
 20
23.06339675849631
 30
0.0
 40
15.09219328857916
 50
91.26018120222228
 51
178.7398188042801
  0
ARC
  5
14540
  8
01
 10
197.2295136083859
 20
-46.82890496781238
 30
0.0
 40
15.09069935667979
 50
181.2547530145972
 51
268.745246970678
  0
LINE
  5
14541
  8
01
 10
449.4534653247372
 20
-61.91598071917451
 30
0.0
 11
196.8992914503101
 21
-61.9159834523025
 31
0.0
  0
LINE
  5
14542
  8
01
 10
464.2103697158219
 20
23.39507979837981
 30
0.0
 11
464.2103505515322
 21
-47.1591294092359
 31
0.0
  0
LINE
  5
14543
  8
01
 10
182.1424408172178
 20
-47.15912938259135
 30
0.0
 11
182.1424222439778
 21
23.39507959181992
 31
0.0
  0
LINE
  5
14544
  8
01
 10
196.8993256611665
 20
38.1519419791257
 30
0.0
 11
449.4534650353655
 21
38.15193888055455
 31
0.0
  0
LINE
  5
14545
  8
01
 10
353.1763949682315
 20
38.11797699408999
 30
0.0
 11
353.1763948992685
 21
38.45178333349759
 31
0.0
  0
LINE
  5
14546
  8
01
 10
293.176396311625
 20
38.45178333349759
 30
0.0
 11
293.1763962426621
 21
38.11797699382532
 31
0.0
  0
LINE
  5
14547
  8
01
 10
293.4763956054468
 20
38.21233284871414
 30
0.0
 11
293.4763956054469
 21
38.11797699383533
 31
0.0
  0
LINE
  5
14548
  8
01
 10
352.8763956054468
 20
38.21233284871687
 30
0.0
 11
293.4763956054468
 21
38.21233284871414
 31
0.0
  0
LINE
  5
14549
  8
01
 10
352.8763956054468
 20
38.11797699409635
 30
0.0
 11
352.8763956054468
 21
38.21233284871687
 31
0.0
  0
LINE
  5
1454A
  8
01
 10
293.476395640183
 20
40.84843339455256
 30
0.0
 11
331.0857957093995
 21
40.84842953153839
 31
0.0
  0
LINE
  5
1454C
  8
01
 10
293.1763956054468
 20
40.54843339455329
 30
0.0
 11
293.1763963252361
 21
38.50514281320557
 31
0.0
  0
LINE
  5
1454F
  8
01
 10
353.1763948856575
 20
38.50514281320557
 30
0.0
 11
353.1763956054468
 21
40.54842729333723
 31
0.0
  0
ARC
  5
14552
  8
01
 10
293.4763956030863
 20
40.54843339746367
 30
0.0
 40
0.2999999970887758
 50
89.99999291505705
 51
123.1757957799301
  0
ARC
  5
14553
  8
01
 10
293.4763956053739
 20
40.54843339583294
 30
0.0
 40
0.2999999999270386
 50
146.8241975922536
 51
180.0000002443969
  0
ARC
  5
14556
  8
01
 10
293.4731375204069
 20
38.50908230770256
 30
0.0
 40
0.2967673441069294
 50
180.7606060514878
 51
270.6290391309844
  0
ARC
  5
14559
  8
01
 10
352.8796517024484
 20
38.50908568091018
 30
0.0
 40
0.2967706952895708
 50
269.3713518145217
 51
359.2195379588763
  0
ARC
  5
1455C
  8
01
 10
352.8763956054463
 20
40.54842729333723
 30
0.0
 40
0.30000000000044
 50
0.0
 51
33.17579766488225
  0
ARC
  5
1455D
  8
01
 10
352.8763956054465
 20
40.54842729333723
 30
0.0
 40
0.3000000000005821
 50
56.82419525854286
 51
89.99999292356404
  0
LINE
  5
1457F
  8
01
 10
449.4344530028375
 20
-59.94980235457024
 30
0.0
 11
196.9183382697399
 21
-59.94980193965057
 31
0.0
  0
ARC
  5
14581
  8
01
 10
197.158567211364
 20
-46.89984937010558
 30
0.0
 40
13.05216349927345
 50
181.0546955118028
 51
268.9453946312511
  0
LINE
  5
14583
  8
01
 10
184.1083736990828
 20
23.37603245538867
 30
0.0
 11
184.1086150197858
 21
-47.14009884312873
 31
0.0
  0
ARC
  5
14585
  8
01
 10
197.1595905813125
 20
23.13461756844663
 30
0.0
 40
13.05344947723145
 50
91.05898701280708
 51
178.9402921580716
  0
LINE
  5
14588
  8
01
 10
449.4344509819932
 20
36.18583248997857
 30
0.0
 11
196.9183398896795
 21
36.18583748684523
 31
0.0
  0
ARC
  5
1458B
  8
01
 10
449.1941927565101
 20
23.13560911400418
 30
0.0
 40
13.0524347988314
 50
1.055435883203584
 51
88.94528798604583
  0
LINE
  5
1458E
  8
01
 10
462.2444130960444
 20
23.37603221470999
 30
0.0
 11
462.2441826563291
 21
-47.14009967648508
 31
0.0
  0
ARC
  5
14590
  8
01
 10
449.1932362314494
 20
-46.89885542169395
 30
0.0
 40
13.0531759114612
 50
271.0588602939759
 51
358.9410190494142
  0
LINE
  5
1459F
  8
01
 10
188.4108870232599
 20
-94.09976134616954
 30
0.0
 11
188.9599569167295
 21
-94.11354704971382
 31
0.0
  0
LINE
  5
145A0
  8
01
 10
457.6146230506672
 20
-94.11207269771057
 30
0.0
 11
457.4462630676592
 21
-94.11354704971382
 31
0.0
  0
LINE
  5
14823
  8
1CENTER
 10
342.9182449532589
 20
-100.3854581120231
 30
0.0
 11
349.434444953259
 21
-100.3854581120231
 31
0.0
  0
LINE
  5
14824
  8
1CENTER
 10
346.1763756734238
 20
-103.643578774143
 30
0.0
 11
346.1763756734238
 21
-97.12737877414384
 31
0.0
  0
LINE
  5
14825
  8
1CENTER
 10
303.4345063935885
 20
-100.3854581120231
 30
0.0
 11
296.9183063935884
 21
-100.3854581120231
 31
0.0
  0
LINE
  5
14826
  8
1CENTER
 10
300.1763756734238
 20
-103.643578774143
 30
0.0
 11
300.1763756734238
 21
-97.12737877414384
 31
0.0
  0
ARC
  5
148F4
  8
01
 10
299.6763756734238
 20
-54.382023005478
 30
0.0
 40
1.5
 50
90.0
 51
270.0
  0
ARC
  5
148F5
  8
01
 10
346.6763756734238
 20
-54.382023005478
 30
0.0
 40
1.499999999999999
 50
270.0
 51
90.0
  0
LINE
  5
148F6
  8
01
 10
346.6763756734238
 20
-52.882023005478
 30
0.0
 11
299.6763756734238
 21
-52.882023005478
 31
0.0
  0
LINE
  5
148F7
  8
01
 10
346.6763756734238
 20
-55.882023005478
 30
0.0
 11
299.6763756734238
 21
-55.882023005478
 31
0.0
  0
LINE
  5
148FD
  8
01
 10
325.2315712046229
 20
31.19824193806107
 30
0.0
 11
326.1273315161627
 21
29.19579712836003
 31
0.0
  0
LINE
  5
148FE
  8
01
 10
327.1550306912748
 20
31.19821968867473
 30
0.0
 11
326.6768913694915
 21
31.19821968867473
 31
0.0
  0
LINE
  5
148FF
  8
01
 10
325.5779941567013
 20
31.19821968867473
 30
0.0
 11
325.2315712046229
 21
31.19821968867473
 31
0.0
  0
LINE
  5
14900
  8
01
 10
323.8351996906576
 20
31.19821968867473
 30
0.0
 11
323.4887767385795
 21
31.19821968867473
 31
0.0
  0
LINE
  5
149DD
  8
01
 10
342.3763756734239
 20
36.84842798241218
 30
0.0
 11
342.3763756734239
 21
37.84842798241218
 31
0.0
  0
LINE
  5
149DE
  8
01
 10
342.3763756734239
 20
37.84842798241218
 30
0.0
 11
349.9763756734238
 21
37.84842798241218
 31
0.0
  0
LINE
  5
149DF
  8
01
 10
342.3763756734239
 20
36.84842798241218
 30
0.0
 11
349.9763756734238
 21
36.84842798241218
 31
0.0
  0
LINE
  5
149E0
  8
01
 10
346.1763291406302
 20
71.84842798224983
 30
0.0
 11
347.6763291406302
 21
66.54843147238816
 31
0.0
  0
LINE
  5
149E1
  8
01
 10
347.6763291406302
 20
66.54843147238816
 30
0.0
 11
347.67632914063
 21
37.84843147238045
 31
0.0
  0
LINE
  5
149E2
  8
01
 10
346.1763291406302
 20
71.84842798224983
 30
0.0
 11
344.6763291406301
 21
66.5484244920045
 31
0.0
  0
LINE
  5
149E3
  8
01
 10
349.676375676528
 20
36.84843612619435
 30
0.0
 11
342.6763756765282
 21
36.84841983863002
 31
0.0
  0
LINE
  5
149E4
  8
01
 10
344.6763291406301
 20
66.5484244920045
 30
0.0
 11
344.67632914063
 21
37.84842798241218
 31
0.0
  0
LINE
  5
149E5
  8
01
 10
349.676375676528
 20
36.84843612619435
 30
0.0
 11
349.6763756765282
 21
35.74843263599903
 31
0.0
  0
ARC
  5
149E6
  8
01
 10
348.1763756765282
 20
35.74843263599903
 30
0.0
 40
1.5
 50
270.0001333155316
 51
0.0
  0
LINE
  5
149E7
  8
01
 10
342.6763756765282
 20
36.84841983863002
 30
0.0
 11
342.6763756765282
 21
35.74842332881943
 31
0.0
  0
LINE
  5
149E8
  8
01
 10
348.1763791667206
 20
34.24843263600312
 30
0.0
 11
344.1763791667206
 21
34.24842332882347
 31
0.0
  0
ARC
  5
149E9
  8
01
 10
344.1763756765282
 20
35.74842332881943
 30
0.0
 40
1.5
 50
180.0
 51
270.0001333155316
  0
LINE
  5
149EA
  8
1CENTER
 10
346.1763756765282
 20
73.27922289971522
 30
0.0
 11
346.1763756765282
 21
33.17815157310336
 31
0.0
  0
LINE
  5
149EB
  8
01
 10
347.2706994905232
 20
69.74843052857202
 30
0.0
 11
345.3083644016478
 21
70.54842596262299
 31
0.0
  0
LINE
  5
149EC
  8
01
 10
345.3083644016478
 20
70.54842596262299
 30
0.0
 11
345.8966409766902
 21
70.8601958188751
 31
0.0
  0
LINE
  5
149ED
  8
01
 10
348.1763291406302
 20
47.34843263578202
 30
0.0
 11
344.1763291406302
 21
48.14842332860027
 31
0.0
  0
LINE
  5
149EE
  8
01
 10
348.1763291406302
 20
58.54843263578638
 30
0.0
 11
344.1763291406302
 21
59.34842332860896
 31
0.0
  0
LINE
  5
149EF
  8
01
 10
348.1763291406302
 20
61.74843263578643
 30
0.0
 11
344.1763291406302
 21
62.548423328609
 31
0.0
  0
LINE
  5
149F0
  8
01
 10
344.1763291406302
 20
62.548423328609
 30
0.0
 11
344.6763291406302
 21
62.64842449200623
 31
0.0
  0
LINE
  5
149F1
  8
01
 10
347.6763291406302
 20
63.24843147238923
 30
0.0
 11
348.1763291406302
 21
63.34843263578645
 31
0.0
  0
LINE
  5
149F2
  8
01
 10
344.1763291406302
 20
59.34842332860896
 30
0.0
 11
344.6763291406302
 21
59.44842449200618
 31
0.0
  0
LINE
  5
149F3
  8
01
 10
344.1763291406302
 20
60.9484233286091
 30
0.0
 11
344.6763291406302
 21
61.04842449200621
 31
0.0
  0
LINE
  5
149F4
  8
01
 10
347.6763291406302
 20
61.64843147238932
 30
0.0
 11
348.1763291406302
 21
61.74843263578643
 31
0.0
  0
LINE
  5
149F5
  8
01
 10
347.6763291406302
 20
60.04843147238941
 30
0.0
 11
348.1763291406302
 21
60.14843263578652
 31
0.0
  0
LINE
  5
149F6
  8
01
 10
348.1763291406302
 20
60.14843263578652
 30
0.0
 11
344.1763291406302
 21
60.9484233286091
 31
0.0
  0
LINE
  5
149F7
  8
01
 10
344.855550297241
 20
68.94842490901735
 30
0.0
 11
345.4072997610443
 21
69.13118905164535
 31
0.0
  0
LINE
  5
149F8
  8
01
 10
344.1763291406302
 20
65.74842332860905
 30
0.0
 11
344.6763291406302
 21
65.84842449200616
 31
0.0
  0
LINE
  5
149F9
  8
01
 10
344.1763291406302
 20
64.14842332860903
 30
0.0
 11
344.6763291406302
 21
64.24842449200602
 31
0.0
  0
LINE
  5
149FA
  8
01
 10
344.4027361928342
 20
67.34842385541171
 30
0.0
 11
344.9393299281053
 21
67.47769455304157
 31
0.0
  0
LINE
  5
149FB
  8
01
 10
347.2554145434215
 20
68.0356620698262
 30
0.0
 11
347.7235129985715
 21
68.14843158217624
 31
0.0
  0
LINE
  5
149FC
  8
01
 10
347.6763291406302
 20
64.84843147238936
 30
0.0
 11
348.1763291406302
 21
64.94843263578647
 31
0.0
  0
LINE
  5
149FD
  8
01
 10
347.6763291406302
 20
66.44843147238927
 30
0.0
 11
348.1763291406302
 21
66.54843263578638
 31
0.0
  0
LINE
  5
149FE
  8
01
 10
346.8135276498921
 20
69.5969947321316
 30
0.0
 11
347.2706994905232
 21
69.74843052857202
 31
0.0
  0
LINE
  5
149FF
  8
01
 10
347.7235129985715
 20
68.14843158217624
 30
0.0
 11
344.855550297241
 21
68.94842490901735
 31
0.0
  0
LINE
  5
14A00
  8
01
 10
348.1763291406302
 20
64.94843263578647
 30
0.0
 11
344.1763291406302
 21
65.74842332860905
 31
0.0
  0
LINE
  5
14A01
  8
01
 10
348.1763291406302
 20
66.54843263578638
 30
0.0
 11
344.4027361928342
 21
67.34842385541171
 31
0.0
  0
LINE
  5
14A02
  8
01
 10
348.1763291406302
 20
63.34843263578645
 30
0.0
 11
344.1763291406302
 21
64.14842332860903
 31
0.0
  0
LINE
  5
14A03
  8
01
 10
348.1763291406302
 20
50.54843263578206
 30
0.0
 11
344.1763291406302
 21
51.34842332860032
 31
0.0
  0
LINE
  5
14A04
  8
01
 10
344.1763291406302
 20
51.34842332860032
 30
0.0
 11
344.6763291406302
 21
51.448424491998
 31
0.0
  0
LINE
  5
14A05
  8
01
 10
347.6763291406302
 20
52.04843147238873
 30
0.0
 11
348.1763291406302
 21
52.14843263578641
 31
0.0
  0
LINE
  5
14A06
  8
01
 10
344.1763291406302
 20
49.74842332860018
 30
0.0
 11
344.6763291406302
 21
49.84842449199786
 31
0.0
  0
LINE
  5
14A07
  8
01
 10
344.1763291406302
 20
48.14842332860027
 30
0.0
 11
344.6763291406302
 21
48.24842449199795
 31
0.0
  0
LINE
  5
14A08
  8
01
 10
347.6763291406302
 20
50.44843147238439
 30
0.0
 11
348.1763291406302
 21
50.54843263578206
 31
0.0
  0
LINE
  5
14A09
  8
01
 10
347.6763291406302
 20
48.84843147238425
 30
0.0
 11
348.1763291406302
 21
48.94843263578193
 31
0.0
  0
LINE
  5
14A0A
  8
01
 10
348.1763291406302
 20
48.94843263578193
 30
0.0
 11
344.1763291406302
 21
49.74842332860018
 31
0.0
  0
LINE
  5
14A0B
  8
01
 10
344.1763291406302
 20
56.14842332860471
 30
0.0
 11
344.6763291406302
 21
56.24842449200239
 31
0.0
  0
LINE
  5
14A0C
  8
01
 10
344.1763291406302
 20
57.74842332860905
 30
0.0
 11
344.6763291406302
 21
57.84842449200616
 31
0.0
  0
LINE
  5
14A0D
  8
01
 10
344.1763291406302
 20
52.94842332860466
 30
0.0
 11
344.6763291406302
 21
53.04842449200234
 31
0.0
  0
LINE
  5
14A0E
  8
01
 10
344.1763291406302
 20
54.54842332860457
 30
0.0
 11
344.6763291406302
 21
54.64842449200225
 31
0.0
  0
LINE
  5
14A0F
  8
01
 10
347.6763291406302
 20
58.44843147238927
 30
0.0
 11
348.1763291406302
 21
58.54843263578638
 31
0.0
  0
LINE
  5
14A10
  8
01
 10
347.6763291406302
 20
56.84843147238868
 30
0.0
 11
348.1763291406302
 21
56.94843263578647
 31
0.0
  0
LINE
  5
14A11
  8
01
 10
347.6763291406302
 20
53.64843147238864
 30
0.0
 11
348.1763291406302
 21
53.74843263578632
 31
0.0
  0
LINE
  5
14A12
  8
01
 10
347.6763291406302
 20
55.24843147238877
 30
0.0
 11
348.1763291406302
 21
55.34843263578645
 31
0.0
  0
LINE
  5
14A13
  8
01
 10
348.1763291406302
 20
55.34843263578645
 30
0.0
 11
344.1763291406302
 21
56.14842332860471
 31
0.0
  0
LINE
  5
14A14
  8
01
 10
348.1763291406302
 20
56.94843263578647
 30
0.0
 11
344.1763291406302
 21
57.74842332860905
 31
0.0
  0
LINE
  5
14A15
  8
01
 10
348.1763291406302
 20
53.74843263578632
 30
0.0
 11
344.1763291406302
 21
54.54842332860457
 31
0.0
  0
LINE
  5
14A16
  8
01
 10
348.1763291406302
 20
52.14843263578641
 30
0.0
 11
344.1763291406302
 21
52.94842332860466
 31
0.0
  0
LINE
  5
14A17
  8
01
 10
347.6763291406302
 20
42.44843147238018
 30
0.0
 11
348.1763291406302
 21
42.54843263577786
 31
0.0
  0
LINE
  5
14A18
  8
01
 10
348.1763291406302
 20
42.54843263577786
 30
0.0
 11
344.1763291406302
 21
43.34842332859611
 31
0.0
  0
LINE
  5
14A19
  8
01
 10
344.1763291406302
 20
43.34842332859611
 30
0.0
 11
344.6763291406302
 21
43.44842449199379
 31
0.0
  0
LINE
  5
14A1A
  8
01
 10
347.6763291406302
 20
44.04843147238009
 30
0.0
 11
348.1763291406302
 21
44.14843263577777
 31
0.0
  0
LINE
  5
14A1B
  8
01
 10
347.6763291406302
 20
45.64843147238
 30
0.0
 11
348.1763291406302
 21
45.74843263577768
 31
0.0
  0
LINE
  5
14A1C
  8
01
 10
348.1763291406302
 20
45.74843263577768
 30
0.0
 11
344.1763291406302
 21
46.54842332859593
 31
0.0
  0
LINE
  5
14A1D
  8
01
 10
344.1763291406302
 20
44.94842332859602
 30
0.0
 11
344.6763291406302
 21
45.0484244919937
 31
0.0
  0
LINE
  5
14A1E
  8
01
 10
344.1763291406302
 20
46.54842332859593
 30
0.0
 11
344.6763291406302
 21
46.64842449199361
 31
0.0
  0
LINE
  5
14A1F
  8
01
 10
348.1763291406302
 20
44.14843263577777
 30
0.0
 11
344.1763291406302
 21
44.94842332859602
 31
0.0
  0
LINE
  5
14A20
  8
01
 10
347.6763291406302
 20
47.24843147238434
 30
0.0
 11
348.1763291406302
 21
47.34843263578202
 31
0.0
  0
LINE
  5
14A21
  8
01
 10
347.6763291406302
 20
40.84843147238028
 30
0.0
 11
348.1763291406302
 21
40.94843263577796
 31
0.0
  0
LINE
  5
14A22
  8
01
 10
348.1763291406302
 20
40.94843263577796
 30
0.0
 11
344.1763291406302
 21
41.7484233285962
 31
0.0
  0
LINE
  5
14A23
  8
01
 10
344.1763291406302
 20
41.7484233285962
 30
0.0
 11
344.6763291406302
 21
41.84842449199388
 31
0.0
  0
LINE
  5
14A24
  8
01
 10
347.6763291406302
 20
39.24843147238037
 30
0.0
 11
348.1763291406302
 21
39.34843263577805
 31
0.0
  0
LINE
  5
14A25
  8
01
 10
348.1763291406302
 20
39.34843263577805
 30
0.0
 11
344.1763291406302
 21
40.14842332859624
 31
0.0
  0
LINE
  5
14A26
  8
01
 10
344.1763291406302
 20
40.14842332859624
 30
0.0
 11
344.6763291406302
 21
40.24842449199392
 31
0.0
  0
LINE
  5
14A27
  8
01
 10
347.6763465906744
 20
37.84842798241218
 30
0.0
 11
344.1763291406302
 21
38.54842332859634
 31
0.0
  0
LINE
  5
14A28
  8
01
 10
344.1763291406302
 20
38.54842332859634
 30
0.0
 11
344.6763291406302
 21
38.64842449199401
 31
0.0
  0
LINE
  5
14A29
  8
01
 10
349.9763756796324
 20
36.84842798241218
 30
0.0
 11
349.9763756796324
 21
37.84842798241218
 31
0.0
  0
LINE
  5
14A2B
  8
01
 10
303.9764150231081
 20
36.84842798241218
 30
0.0
 11
303.9764150231081
 21
37.84842798241218
 31
0.0
  0
LINE
  5
14A2C
  8
01
 10
303.9764150231081
 20
37.84842798241218
 30
0.0
 11
296.3764150231082
 21
37.84842798241218
 31
0.0
  0
LINE
  5
14A2D
  8
01
 10
303.9764150231081
 20
36.84842798241218
 30
0.0
 11
296.3764150231082
 21
36.84842798241218
 31
0.0
  0
LINE
  5
14A2E
  8
01
 10
300.1764615559018
 20
71.84842798224983
 30
0.0
 11
298.6764615559018
 21
66.54843147238816
 31
0.0
  0
LINE
  5
14A2F
  8
01
 10
298.6764615559018
 20
66.54843147238816
 30
0.0
 11
298.676461555902
 21
37.84843147238045
 31
0.0
  0
LINE
  5
14A30
  8
01
 10
300.1764615559018
 20
71.84842798224983
 30
0.0
 11
301.6764615559019
 21
66.5484244920045
 31
0.0
  0
LINE
  5
14A31
  8
01
 10
296.676415020004
 20
36.84843612619435
 30
0.0
 11
303.6764150200038
 21
36.84841983863002
 31
0.0
  0
LINE
  5
14A32
  8
01
 10
301.6764615559019
 20
66.5484244920045
 30
0.0
 11
301.676461555902
 21
37.84842798241218
 31
0.0
  0
LINE
  5
14A33
  8
01
 10
296.676415020004
 20
36.84843612619435
 30
0.0
 11
296.6764150200038
 21
35.74843263599903
 31
0.0
  0
ARC
  5
14A34
  8
01
 10
298.1764150200038
 20
35.74843263599903
 30
0.0
 40
1.5
 50
180.0
 51
269.9998666844684
  0
LINE
  5
14A35
  8
01
 10
303.6764150200038
 20
36.84841983863002
 30
0.0
 11
303.6764150200038
 21
35.74842332881943
 31
0.0
  0
LINE
  5
14A36
  8
01
 10
298.1764115298114
 20
34.24843263600312
 30
0.0
 11
302.1764115298114
 21
34.24842332882347
 31
0.0
  0
ARC
  5
14A37
  8
01
 10
302.1764150200038
 20
35.74842332881943
 30
0.0
 40
1.5
 50
269.9998666844684
 51
0.0
  0
LINE
  5
14A38
  8
1CENTER
 10
300.1764150200038
 20
73.27922289971522
 30
0.0
 11
300.1764150200038
 21
33.17815157310336
 31
0.0
  0
LINE
  5
14A39
  8
01
 10
299.0820912060088
 20
69.74843052857202
 30
0.0
 11
301.0444262948842
 21
70.54842596262299
 31
0.0
  0
LINE
  5
14A3A
  8
01
 10
301.0444262948842
 20
70.54842596262299
 30
0.0
 11
300.4561497198418
 21
70.8601958188751
 31
0.0
  0
LINE
  5
14A3B
  8
01
 10
298.1764615559018
 20
47.34843263578202
 30
0.0
 11
302.1764615559018
 21
48.14842332860027
 31
0.0
  0
LINE
  5
14A3C
  8
01
 10
298.1764615559018
 20
58.54843263578638
 30
0.0
 11
302.1764615559018
 21
59.34842332860896
 31
0.0
  0
LINE
  5
14A3D
  8
01
 10
298.1764615559018
 20
61.74843263578643
 30
0.0
 11
302.1764615559018
 21
62.548423328609
 31
0.0
  0
LINE
  5
14A3E
  8
01
 10
302.1764615559018
 20
62.548423328609
 30
0.0
 11
301.6764615559018
 21
62.64842449200623
 31
0.0
  0
LINE
  5
14A3F
  8
01
 10
298.6764615559018
 20
63.24843147238923
 30
0.0
 11
298.1764615559018
 21
63.34843263578645
 31
0.0
  0
LINE
  5
14A40
  8
01
 10
302.1764615559018
 20
59.34842332860896
 30
0.0
 11
301.6764615559018
 21
59.44842449200618
 31
0.0
  0
LINE
  5
14A41
  8
01
 10
302.1764615559018
 20
60.9484233286091
 30
0.0
 11
301.6764615559018
 21
61.04842449200621
 31
0.0
  0
LINE
  5
14A42
  8
01
 10
298.6764615559018
 20
61.64843147238932
 30
0.0
 11
298.1764615559018
 21
61.74843263578643
 31
0.0
  0
LINE
  5
14A43
  8
01
 10
298.6764615559018
 20
60.04843147238941
 30
0.0
 11
298.1764615559018
 21
60.14843263578652
 31
0.0
  0
LINE
  5
14A44
  8
01
 10
298.1764615559018
 20
60.14843263578652
 30
0.0
 11
302.1764615559018
 21
60.9484233286091
 31
0.0
  0
LINE
  5
14A45
  8
01
 10
301.497240399291
 20
68.94842490901735
 30
0.0
 11
300.9454909354877
 21
69.13118905164535
 31
0.0
  0
LINE
  5
14A46
  8
01
 10
302.1764615559018
 20
65.74842332860905
 30
0.0
 11
301.6764615559018
 21
65.84842449200616
 31
0.0
  0
LINE
  5
14A47
  8
01
 10
302.1764615559018
 20
64.14842332860903
 30
0.0
 11
301.6764615559018
 21
64.24842449200602
 31
0.0
  0
LINE
  5
14A48
  8
01
 10
301.9500545036978
 20
67.34842385541171
 30
0.0
 11
301.4134607684267
 21
67.47769455304157
 31
0.0
  0
LINE
  5
14A49
  8
01
 10
299.0973761531105
 20
68.0356620698262
 30
0.0
 11
298.6292776979605
 21
68.14843158217624
 31
0.0
  0
LINE
  5
14A4A
  8
01
 10
298.6764615559018
 20
64.84843147238936
 30
0.0
 11
298.1764615559018
 21
64.94843263578647
 31
0.0
  0
LINE
  5
14A4B
  8
01
 10
298.6764615559018
 20
66.44843147238927
 30
0.0
 11
298.1764615559018
 21
66.54843263578638
 31
0.0
  0
LINE
  5
14A4C
  8
01
 10
299.5392630466399
 20
69.5969947321316
 30
0.0
 11
299.0820912060088
 21
69.74843052857202
 31
0.0
  0
LINE
  5
14A4D
  8
01
 10
298.6292776979605
 20
68.14843158217624
 30
0.0
 11
301.497240399291
 21
68.94842490901735
 31
0.0
  0
LINE
  5
14A4E
  8
01
 10
298.1764615559018
 20
64.94843263578647
 30
0.0
 11
302.1764615559018
 21
65.74842332860905
 31
0.0
  0
LINE
  5
14A4F
  8
01
 10
298.1764615559018
 20
66.54843263578638
 30
0.0
 11
301.9500545036978
 21
67.34842385541171
 31
0.0
  0
LINE
  5
14A50
  8
01
 10
298.1764615559018
 20
63.34843263578645
 30
0.0
 11
302.1764615559018
 21
64.14842332860903
 31
0.0
  0
LINE
  5
14A51
  8
01
 10
298.1764615559018
 20
50.54843263578206
 30
0.0
 11
302.1764615559018
 21
51.34842332860032
 31
0.0
  0
LINE
  5
14A52
  8
01
 10
302.1764615559018
 20
51.34842332860032
 30
0.0
 11
301.6764615559018
 21
51.448424491998
 31
0.0
  0
LINE
  5
14A53
  8
01
 10
298.6764615559018
 20
52.04843147238873
 30
0.0
 11
298.1764615559018
 21
52.14843263578641
 31
0.0
  0
LINE
  5
14A54
  8
01
 10
302.1764615559018
 20
49.74842332860018
 30
0.0
 11
301.6764615559018
 21
49.84842449199786
 31
0.0
  0
LINE
  5
14A55
  8
01
 10
302.1764615559018
 20
48.14842332860027
 30
0.0
 11
301.6764615559018
 21
48.24842449199795
 31
0.0
  0
LINE
  5
14A56
  8
01
 10
298.6764615559018
 20
50.44843147238439
 30
0.0
 11
298.1764615559018
 21
50.54843263578206
 31
0.0
  0
LINE
  5
14A57
  8
01
 10
298.6764615559018
 20
48.84843147238425
 30
0.0
 11
298.1764615559018
 21
48.94843263578193
 31
0.0
  0
LINE
  5
14A58
  8
01
 10
298.1764615559018
 20
48.94843263578193
 30
0.0
 11
302.1764615559018
 21
49.74842332860018
 31
0.0
  0
LINE
  5
14A59
  8
01
 10
302.1764615559018
 20
56.14842332860471
 30
0.0
 11
301.6764615559018
 21
56.24842449200239
 31
0.0
  0
LINE
  5
14A5A
  8
01
 10
302.1764615559018
 20
57.74842332860905
 30
0.0
 11
301.6764615559018
 21
57.84842449200616
 31
0.0
  0
LINE
  5
14A5B
  8
01
 10
302.1764615559018
 20
52.94842332860466
 30
0.0
 11
301.6764615559018
 21
53.04842449200234
 31
0.0
  0
LINE
  5
14A5C
  8
01
 10
302.1764615559018
 20
54.54842332860457
 30
0.0
 11
301.6764615559018
 21
54.64842449200225
 31
0.0
  0
LINE
  5
14A5D
  8
01
 10
298.6764615559018
 20
58.44843147238927
 30
0.0
 11
298.1764615559018
 21
58.54843263578638
 31
0.0
  0
LINE
  5
14A5E
  8
01
 10
298.6764615559018
 20
56.84843147238868
 30
0.0
 11
298.1764615559018
 21
56.94843263578647
 31
0.0
  0
LINE
  5
14A5F
  8
01
 10
298.6764615559018
 20
53.64843147238864
 30
0.0
 11
298.1764615559018
 21
53.74843263578632
 31
0.0
  0
LINE
  5
14A60
  8
01
 10
298.6764615559018
 20
55.24843147238877
 30
0.0
 11
298.1764615559018
 21
55.34843263578645
 31
0.0
  0
LINE
  5
14A61
  8
01
 10
298.1764615559018
 20
55.34843263578645
 30
0.0
 11
302.1764615559018
 21
56.14842332860471
 31
0.0
  0
LINE
  5
14A62
  8
01
 10
298.1764615559018
 20
56.94843263578647
 30
0.0
 11
302.1764615559018
 21
57.74842332860905
 31
0.0
  0
LINE
  5
14A63
  8
01
 10
298.1764615559018
 20
53.74843263578632
 30
0.0
 11
302.1764615559018
 21
54.54842332860457
 31
0.0
  0
LINE
  5
14A64
  8
01
 10
298.1764615559018
 20
52.14843263578641
 30
0.0
 11
302.1764615559018
 21
52.94842332860466
 31
0.0
  0
LINE
  5
14A65
  8
01
 10
298.6764615559018
 20
42.44843147238018
 30
0.0
 11
298.1764615559018
 21
42.54843263577786
 31
0.0
  0
LINE
  5
14A66
  8
01
 10
298.1764615559018
 20
42.54843263577786
 30
0.0
 11
302.1764615559018
 21
43.34842332859611
 31
0.0
  0
LINE
  5
14A67
  8
01
 10
302.1764615559018
 20
43.34842332859611
 30
0.0
 11
301.6764615559018
 21
43.44842449199379
 31
0.0
  0
LINE
  5
14A68
  8
01
 10
298.6764615559018
 20
44.04843147238009
 30
0.0
 11
298.1764615559018
 21
44.14843263577777
 31
0.0
  0
LINE
  5
14A69
  8
01
 10
298.6764615559018
 20
45.64843147238
 30
0.0
 11
298.1764615559018
 21
45.74843263577768
 31
0.0
  0
LINE
  5
14A6A
  8
01
 10
298.1764615559018
 20
45.74843263577768
 30
0.0
 11
302.1764615559018
 21
46.54842332859593
 31
0.0
  0
LINE
  5
14A6B
  8
01
 10
302.1764615559018
 20
44.94842332859602
 30
0.0
 11
301.6764615559018
 21
45.0484244919937
 31
0.0
  0
LINE
  5
14A6C
  8
01
 10
302.1764615559018
 20
46.54842332859593
 30
0.0
 11
301.6764615559018
 21
46.64842449199361
 31
0.0
  0
LINE
  5
14A6D
  8
01
 10
298.1764615559018
 20
44.14843263577777
 30
0.0
 11
302.1764615559018
 21
44.94842332859602
 31
0.0
  0
LINE
  5
14A6E
  8
01
 10
298.6764615559018
 20
47.24843147238434
 30
0.0
 11
298.1764615559018
 21
47.34843263578202
 31
0.0
  0
LINE
  5
14A6F
  8
01
 10
298.6764615559018
 20
40.84843147238028
 30
0.0
 11
298.1764615559018
 21
40.94843263577796
 31
0.0
  0
LINE
  5
14A70
  8
01
 10
298.1764615559018
 20
40.94843263577796
 30
0.0
 11
302.1764615559018
 21
41.7484233285962
 31
0.0
  0
LINE
  5
14A71
  8
01
 10
302.1764615559018
 20
41.7484233285962
 30
0.0
 11
301.6764615559018
 21
41.84842449199388
 31
0.0
  0
LINE
  5
14A72
  8
01
 10
298.6764615559018
 20
39.24843147238037
 30
0.0
 11
298.1764615559018
 21
39.34843263577805
 31
0.0
  0
LINE
  5
14A73
  8
01
 10
298.1764615559018
 20
39.34843263577805
 30
0.0
 11
302.1764615559018
 21
40.14842332859624
 31
0.0
  0
LINE
  5
14A74
  8
01
 10
302.1764615559018
 20
40.14842332859624
 30
0.0
 11
301.6764615559018
 21
40.24842449199392
 31
0.0
  0
LINE
  5
14A75
  8
01
 10
298.6764441058576
 20
37.84842798241218
 30
0.0
 11
302.1764615559018
 21
38.54842332859634
 31
0.0
  0
LINE
  5
14A76
  8
01
 10
302.1764615559018
 20
38.54842332859634
 30
0.0
 11
301.6764615559018
 21
38.64842449199401
 31
0.0
  0
LINE
  5
14A77
  8
01
 10
296.3764150168996
 20
36.84842798241218
 30
0.0
 11
296.3764150168996
 21
37.84842798241218
 31
0.0
  0
LINE
  5
153A2
  8
01
 10
265.7472709413898
 20
-119.1214706192754
 30
0.0
 11
265.7472709413898
 21
-115.4696476499353
 31
0.0
  0
LINE
  5
153A3
  8
01
 10
253.7472709531368
 20
-96.09644015424647
 30
0.0
 11
293.1478654677796
 21
-96.09644015424647
 31
0.0
  0
LINE
  5
153A4
  8
01
 10
392.7472709413871
 20
-168.5724944119725
 30
0.0
 11
253.7472709413861
 21
-168.5724944119725
 31
0.0
  0
LINE
  5
153A5
  8
01
 10
353.3478654684833
 20
-96.09643682997603
 30
0.0
 11
354.7478662129344
 21
-96.09662051071018
 31
0.0
  0
ARC
  5
153A6
  8
01
 10
253.7474846168072
 20
-97.09629774517316
 30
0.0
 40
1.000213689363308
 50
90.01224003832321
 51
180.0095665742403
  0
LINE
  5
153A7
  8
01
 10
252.7472709413861
 20
-97.42185442546588
 30
0.0
 11
252.7472709413861
 21
-97.14598173876902
 31
0.0
  0
ARC
  5
153A8
  8
01
 10
392.7490302011949
 20
-167.57803739171
 30
0.0
 40
0.994814654262387
 50
269.8986763874516
 51
349.8339553779427
  0
ARC
  5
153A9
  8
01
 10
253.7474413626607
 20
-167.5727139881533
 30
0.0
 40
1.000136516774109
 50
188.4955483856886
 51
269.990236913004
  0
LINE
  5
153AA
  8
01
 10
393.7472709413871
 20
-143.0737506394294
 30
0.0
 11
393.7472709413871
 21
-139.2170253875997
 31
0.0
  0
LINE
  5
153AB
  8
01
 10
354.7478654677763
 20
-114.9640622072607
 30
0.0
 11
271.7472709413898
 21
-114.9640622072607
 31
0.0
  0
LINE
  5
153AC
  8
01
 10
271.7472338036779
 20
-114.9640620124524
 30
0.0
 11
271.5946286003911
 21
-114.9648255439156
 31
0.0
  0
LINE
  5
153AD
  8
01
 10
271.5946286003911
 20
-114.9648255439156
 30
0.0
 11
271.4422099414534
 21
-114.968690269578
 31
0.0
  0
LINE
  5
153AE
  8
01
 10
271.4422099414534
 20
-114.968690269578
 30
0.0
 11
271.2900681605044
 21
-114.9756160317934
 31
0.0
  0
LINE
  5
153AF
  8
01
 10
271.2900681605044
 20
-114.9756160317934
 30
0.0
 11
271.1382935911808
 21
-114.9855626729136
 31
0.0
  0
LINE
  5
153B0
  8
01
 10
271.1382935911808
 20
-114.9855626729136
 30
0.0
 11
270.9869765671248
 21
-114.9984900352906
 31
0.0
  0
LINE
  5
153B1
  8
01
 10
270.9869765671248
 20
-114.9984900352906
 30
0.0
 11
270.8362074219733
 21
-115.0143579612782
 31
0.0
  0
LINE
  5
153B2
  8
01
 10
270.8362074219733
 20
-115.0143579612782
 30
0.0
 11
270.6860764893656
 21
-115.0331262932273
 31
0.0
  0
LINE
  5
153B3
  8
01
 10
270.6860764893656
 20
-115.0331262932273
 30
0.0
 11
270.5366741029422
 21
-115.0547548734926
 31
0.0
  0
LINE
  5
153B4
  8
01
 10
270.5366741029422
 20
-115.0547548734926
 30
0.0
 11
270.3880905963408
 21
-115.079203544426
 31
0.0
  0
LINE
  5
153B5
  8
01
 10
270.3880905963408
 20
-115.079203544426
 30
0.0
 11
270.2404163032017
 21
-115.1064321483796
 31
0.0
  0
LINE
  5
153B6
  8
01
 10
270.2404163032017
 20
-115.1064321483796
 30
0.0
 11
270.0937415571627
 21
-115.1364005277069
 31
0.0
  0
LINE
  5
153B7
  8
01
 10
270.0937415571627
 20
-115.1364005277069
 30
0.0
 11
269.9481566918641
 21
-115.16906852476
 31
0.0
  0
LINE
  5
153B8
  8
01
 10
269.9481566918641
 20
-115.16906852476
 30
0.0
 11
269.8037520409445
 21
-115.2043959818916
 31
0.0
  0
LINE
  5
153B9
  8
01
 10
269.8037520409445
 20
-115.2043959818916
 30
0.0
 11
269.6606179380425
 21
-115.2423427414537
 31
0.0
  0
LINE
  5
153BA
  8
01
 10
269.6606179380425
 20
-115.2423427414537
 30
0.0
 11
269.5188447167986
 21
-115.2828686458001
 31
0.0
  0
LINE
  5
153BB
  8
01
 10
269.5188447167986
 20
-115.2828686458001
 30
0.0
 11
269.3785227108503
 21
-115.3259335372827
 31
0.0
  0
LINE
  5
153BC
  8
01
 10
269.3785227108503
 20
-115.3259335372827
 30
0.0
 11
269.2397422538381
 21
-115.3714972582552
 31
0.0
  0
LINE
  5
153BD
  8
01
 10
269.2397422538381
 20
-115.3714972582552
 30
0.0
 11
269.1025936794005
 21
-115.4195196510686
 31
0.0
  0
LINE
  5
153BE
  8
01
 10
269.1025936794005
 20
-115.4195196510686
 30
0.0
 11
268.9671673211762
 21
-115.4699605580759
 31
0.0
  0
LINE
  5
153BF
  8
01
 10
268.9671673211762
 20
-115.4699605580759
 30
0.0
 11
268.8335535128046
 21
-115.5227798216315
 31
0.0
  0
LINE
  5
153C0
  8
01
 10
268.8335535128046
 20
-115.5227798216315
 30
0.0
 11
268.7018425879252
 21
-115.5779372840866
 31
0.0
  0
LINE
  5
153C1
  8
01
 10
268.7018425879252
 20
-115.5779372840866
 30
0.0
 11
268.5721248801767
 21
-115.6353927877931
 31
0.0
  0
LINE
  5
153C2
  8
01
 10
268.5721248801767
 20
-115.6353927877931
 30
0.0
 11
268.4444907231984
 21
-115.6951061751047
 31
0.0
  0
LINE
  5
153C3
  8
01
 10
268.4444907231984
 20
-115.6951061751047
 30
0.0
 11
268.3190304506299
 21
-115.7570372883742
 31
0.0
  0
LINE
  5
153C4
  8
01
 10
268.3190304506299
 20
-115.7570372883742
 30
0.0
 11
268.1958343961089
 21
-115.8211459699546
 31
0.0
  0
LINE
  5
153C5
  8
01
 10
268.1958343961089
 20
-115.8211459699546
 30
0.0
 11
268.0749928932766
 21
-115.8873920621968
 31
0.0
  0
LINE
  5
153C6
  8
01
 10
268.0749928932766
 20
-115.8873920621968
 30
0.0
 11
267.9565962757699
 21
-115.9557354074545
 31
0.0
  0
LINE
  5
153C7
  8
01
 10
267.9565962757699
 20
-115.9557354074545
 30
0.0
 11
267.8407348772291
 21
-116.0261358480807
 31
0.0
  0
LINE
  5
153C8
  8
01
 10
267.8407348772291
 20
-116.0261358480807
 30
0.0
 11
267.7274990312937
 21
-116.0985532264281
 31
0.0
  0
LINE
  5
153C9
  8
01
 10
267.7274990312937
 20
-116.0985532264281
 30
0.0
 11
267.6169790716023
 21
-116.1729473848486
 31
0.0
  0
LINE
  5
153CA
  8
01
 10
267.6169790716023
 20
-116.1729473848486
 30
0.0
 11
267.5092653317935
 21
-116.2492781656952
 31
0.0
  0
LINE
  5
153CB
  8
01
 10
267.5092653317935
 20
-116.2492781656952
 30
0.0
 11
267.4044481455068
 21
-116.3275054113205
 31
0.0
  0
LINE
  5
153CC
  8
01
 10
267.4044481455068
 20
-116.3275054113205
 30
0.0
 11
267.3296771203388
 21
-116.3858413574312
 31
0.0
  0
LINE
  5
153CD
  8
01
 10
267.3296771203388
 20
-116.3858413574312
 30
0.0
 11
267.2565594266245
 21
-116.4450139148717
 31
0.0
  0
LINE
  5
153CE
  8
01
 10
267.2565594266245
 20
-116.4450139148717
 30
0.0
 11
267.1851003226804
 21
-116.5049996632238
 31
0.0
  0
LINE
  5
153CF
  8
01
 10
267.1851003226804
 20
-116.5049996632238
 30
0.0
 11
267.1153050668201
 21
-116.5657751820659
 31
0.0
  0
LINE
  5
153D0
  8
01
 10
267.1153050668201
 20
-116.5657751820659
 30
0.0
 11
267.0471789173573
 21
-116.6273170509799
 31
0.0
  0
LINE
  5
153D1
  8
01
 10
267.0471789173573
 20
-116.6273170509799
 30
0.0
 11
266.9807271326073
 21
-116.6896018495431
 31
0.0
  0
LINE
  5
153D2
  8
01
 10
266.9807271326073
 20
-116.6896018495431
 30
0.0
 11
266.915954970884
 21
-116.7526061573376
 31
0.0
  0
LINE
  5
153D3
  8
01
 10
266.915954970884
 20
-116.7526061573376
 30
0.0
 11
266.8528676905027
 21
-116.8163065539416
 31
0.0
  0
LINE
  5
153D4
  8
01
 10
266.8528676905027
 20
-116.8163065539416
 30
0.0
 11
266.7914705497771
 21
-116.8806796189369
 31
0.0
  0
LINE
  5
153D5
  8
01
 10
266.7914705497771
 20
-116.8806796189369
 30
0.0
 11
266.7317688070218
 21
-116.945701931902
 31
0.0
  0
LINE
  5
153D6
  8
01
 10
266.7317688070218
 20
-116.945701931902
 30
0.0
 11
266.6737677205512
 21
-117.011350072416
 31
0.0
  0
LINE
  5
153D7
  8
01
 10
266.6737677205512
 20
-117.011350072416
 30
0.0
 11
266.61747254868
 21
-117.0776006200608
 31
0.0
  0
LINE
  5
153D8
  8
01
 10
266.61747254868
 20
-117.0776006200608
 30
0.0
 11
266.5628885497228
 21
-117.1444301544157
 31
0.0
  0
LINE
  5
153D9
  8
01
 10
266.5628885497228
 20
-117.1444301544157
 30
0.0
 11
266.5100209819931
 21
-117.2118152550597
 31
0.0
  0
LINE
  5
153DA
  8
01
 10
266.5100209819931
 20
-117.2118152550597
 30
0.0
 11
266.4588751038065
 21
-117.2797325015731
 31
0.0
  0
LINE
  5
153DB
  8
01
 10
266.4588751038065
 20
-117.2797325015731
 30
0.0
 11
266.4094561734766
 21
-117.3481584735368
 31
0.0
  0
LINE
  5
153DC
  8
01
 10
266.4094561734766
 20
-117.3481584735368
 30
0.0
 11
266.3617694493179
 21
-117.4170697505301
 31
0.0
  0
LINE
  5
153DD
  8
01
 10
266.3617694493179
 20
-117.4170697505301
 30
0.0
 11
266.3158201896451
 21
-117.4864429121321
 31
0.0
  0
LINE
  5
153DE
  8
01
 10
266.3158201896451
 20
-117.4864429121321
 30
0.0
 11
266.2716136527726
 21
-117.5562545379239
 31
0.0
  0
LINE
  5
153DF
  8
01
 10
266.2716136527726
 20
-117.5562545379239
 30
0.0
 11
266.2291550970151
 21
-117.6264812074846
 31
0.0
  0
LINE
  5
153E0
  8
01
 10
266.2291550970151
 20
-117.6264812074846
 30
0.0
 11
266.1884497806861
 21
-117.6970995003944
 31
0.0
  0
LINE
  5
153E1
  8
01
 10
266.1884497806861
 20
-117.6970995003944
 30
0.0
 11
266.1495029621012
 21
-117.7680859962325
 31
0.0
  0
LINE
  5
153E2
  8
01
 10
266.1495029621012
 20
-117.7680859962325
 30
0.0
 11
266.1123198995739
 21
-117.8394172745798
 31
0.0
  0
LINE
  5
153E3
  8
01
 10
266.1123198995739
 20
-117.8394172745798
 30
0.0
 11
266.076905851419
 21
-117.9110699150165
 31
0.0
  0
LINE
  5
153E4
  8
01
 10
266.076905851419
 20
-117.9110699150165
 30
0.0
 11
266.0432660759517
 21
-117.9830204971208
 31
0.0
  0
LINE
  5
153E5
  8
01
 10
266.0432660759517
 20
-117.9830204971208
 30
0.0
 11
266.0114058314859
 21
-118.0552456004748
 31
0.0
  0
LINE
  5
153E6
  8
01
 10
266.0114058314859
 20
-118.0552456004748
 30
0.0
 11
265.9813303763351
 21
-118.1277218046566
 31
0.0
  0
LINE
  5
153E7
  8
01
 10
265.9813303763351
 20
-118.1277218046566
 30
0.0
 11
265.9530449688147
 21
-118.2004256892474
 31
0.0
  0
LINE
  5
153E8
  8
01
 10
265.9530449688147
 20
-118.2004256892474
 30
0.0
 11
265.9265548672394
 21
-118.2733338338262
 31
0.0
  0
LINE
  5
153E9
  8
01
 10
265.9265548672394
 20
-118.2733338338262
 30
0.0
 11
265.9018653299228
 21
-118.3464228179723
 31
0.0
  0
LINE
  5
153EA
  8
01
 10
265.9018653299228
 20
-118.3464228179723
 30
0.0
 11
265.8789816151795
 21
-118.4196692212668
 31
0.0
  0
LINE
  5
153EB
  8
01
 10
265.8789816151795
 20
-118.4196692212668
 30
0.0
 11
265.857908981324
 21
-118.4930496232905
 31
0.0
  0
LINE
  5
153EC
  8
01
 10
384.7472709413834
 20
-138.2170253875997
 30
0.0
 11
392.7472709413871
 21
-138.2170253875997
 31
0.0
  0
LINE
  5
153ED
  8
01
 10
271.7472709413889
 20
-149.7076920343793
 30
0.0
 11
377.7472709413834
 21
-149.7076920343811
 31
0.0
  0
LINE
  5
153EE
  8
01
 10
265.7472709413898
 20
-119.1214706192754
 30
0.0
 11
265.7472709413898
 21
-117.2123573486665
 31
0.0
  0
LINE
  5
153EF
  8
01
 10
377.7472908945521
 20
-149.7076921390694
 30
0.0
 11
377.8998966502715
 21
-149.7069289507785
 31
0.0
  0
LINE
  5
153F0
  8
01
 10
377.8998966502715
 20
-149.7069289507785
 30
0.0
 11
378.0523158701801
 21
-149.7030645420914
 31
0.0
  0
LINE
  5
153F1
  8
01
 10
378.0523158701801
 20
-149.7030645420914
 30
0.0
 11
378.2044582196851
 21
-149.6961390710808
 31
0.0
  0
LINE
  5
153F2
  8
01
 10
378.2044582196851
 20
-149.6961390710808
 30
0.0
 11
378.356233364195
 21
-149.6861926958159
 31
0.0
  0
LINE
  5
153F3
  8
01
 10
378.356233364195
 20
-149.6861926958159
 30
0.0
 11
378.5075509691171
 21
-149.6732655743685
 31
0.0
  0
LINE
  5
153F4
  8
01
 10
378.5075509691171
 20
-149.6732655743685
 30
0.0
 11
378.6583206998586
 21
-149.6573978648107
 31
0.0
  0
LINE
  5
153F5
  8
01
 10
378.6583206998586
 20
-149.6573978648107
 30
0.0
 11
378.808452221828
 21
-149.6386297252125
 31
0.0
  0
LINE
  5
153F6
  8
01
 10
378.808452221828
 20
-149.6386297252125
 30
0.0
 11
378.9578552004324
 21
-149.6170013136457
 31
0.0
  0
LINE
  5
153F7
  8
01
 10
378.9578552004324
 20
-149.6170013136457
 30
0.0
 11
379.1064393010794
 21
-149.5925527881814
 31
0.0
  0
LINE
  5
153F8
  8
01
 10
379.1064393010794
 20
-149.5925527881814
 30
0.0
 11
379.2541141891763
 21
-149.5653243068905
 31
0.0
  0
LINE
  5
153F9
  8
01
 10
379.2541141891763
 20
-149.5653243068905
 30
0.0
 11
379.4007895301312
 21
-149.535356027844
 31
0.0
  0
LINE
  5
153FA
  8
01
 10
379.4007895301312
 20
-149.535356027844
 30
0.0
 11
379.5463749893517
 21
-149.502688109113
 31
0.0
  0
LINE
  5
153FB
  8
01
 10
379.5463749893517
 20
-149.502688109113
 30
0.0
 11
379.6907802322459
 21
-149.4673607087684
 31
0.0
  0
LINE
  5
153FC
  8
01
 10
379.6907802322459
 20
-149.4673607087684
 30
0.0
 11
379.8339149242203
 21
-149.4294139848821
 31
0.0
  0
LINE
  5
153FD
  8
01
 10
379.8339149242203
 20
-149.4294139848821
 30
0.0
 11
379.9756887306832
 21
-149.3888880955251
 31
0.0
  0
LINE
  5
153FE
  8
01
 10
379.9756887306832
 20
-149.3888880955251
 30
0.0
 11
380.1160113170419
 21
-149.3458231987684
 31
0.0
  0
LINE
  5
153FF
  8
01
 10
380.1160113170419
 20
-149.3458231987684
 30
0.0
 11
380.2547923487047
 21
-149.3002594526829
 31
0.0
  0
LINE
  5
15400
  8
01
 10
380.2547923487047
 20
-149.3002594526829
 30
0.0
 11
380.3919414910781
 21
-149.2522370153388
 31
0.0
  0
LINE
  5
15401
  8
01
 10
380.3919414910781
 20
-149.2522370153388
 30
0.0
 11
380.5273684095711
 21
-149.2017960448097
 31
0.0
  0
LINE
  5
15402
  8
01
 10
380.5273684095711
 20
-149.2017960448097
 30
0.0
 11
380.6609827695904
 21
-149.148976699164
 31
0.0
  0
LINE
  5
15403
  8
01
 10
380.6609827695904
 20
-149.148976699164
 30
0.0
 11
380.792694236544
 21
-149.0938191364753
 31
0.0
  0
LINE
  5
15404
  8
01
 10
380.792694236544
 20
-149.0938191364753
 30
0.0
 11
380.9224124758386
 21
-149.0363635148137
 31
0.0
  0
LINE
  5
15405
  8
01
 10
380.9224124758386
 20
-149.0363635148137
 30
0.0
 11
381.0500471528832
 21
-148.9766499922484
 31
0.0
  0
LINE
  5
15406
  8
01
 10
381.0500471528832
 20
-148.9766499922484
 30
0.0
 11
381.1755079330853
 21
-148.9147187268541
 31
0.0
  0
LINE
  5
15407
  8
01
 10
381.1755079330853
 20
-148.9147187268541
 30
0.0
 11
381.2987044818512
 21
-148.8506098766998
 31
0.0
  0
LINE
  5
15408
  8
01
 10
381.2987044818512
 20
-148.8506098766998
 30
0.0
 11
381.4195464645902
 21
-148.7843635998565
 31
0.0
  0
LINE
  5
15409
  8
01
 10
381.4195464645902
 20
-148.7843635998565
 30
0.0
 11
381.5379435467086
 21
-148.7160200543954
 31
0.0
  0
LINE
  5
1540A
  8
01
 10
381.5379435467086
 20
-148.7160200543954
 30
0.0
 11
381.6538053936148
 21
-148.645619398389
 31
0.0
  0
LINE
  5
1540B
  8
01
 10
381.6538053936148
 20
-148.645619398389
 30
0.0
 11
381.7670416707153
 21
-148.5732017899068
 31
0.0
  0
LINE
  5
1540C
  8
01
 10
381.7670416707153
 20
-148.5732017899068
 30
0.0
 11
381.8775620434191
 21
-148.4988073870213
 31
0.0
  0
LINE
  5
1540D
  8
01
 10
381.8775620434191
 20
-148.4988073870213
 30
0.0
 11
381.9852761771337
 21
-148.4224763478019
 31
0.0
  0
LINE
  5
1540E
  8
01
 10
381.9852761771337
 20
-148.4224763478019
 30
0.0
 11
382.0900937372664
 21
-148.3442488303212
 31
0.0
  0
LINE
  5
1540F
  8
01
 10
382.0900937372664
 20
-148.3442488303212
 30
0.0
 11
382.184527539943
 21
-148.2702120840481
 31
0.0
  0
LINE
  5
15410
  8
01
 10
382.184527539943
 20
-148.2702120840481
 30
0.0
 11
382.2763062515234
 21
-148.1948429817444
 31
0.0
  0
LINE
  5
15411
  8
01
 10
382.2763062515234
 20
-148.1948429817444
 30
0.0
 11
382.3654191845728
 21
-148.1181891250139
 31
0.0
  0
LINE
  5
15412
  8
01
 10
382.3654191845728
 20
-148.1181891250139
 30
0.0
 11
382.4518556516579
 21
-148.0402981154598
 31
0.0
  0
LINE
  5
15413
  8
01
 10
382.4518556516579
 20
-148.0402981154598
 30
0.0
 11
382.535604965343
 21
-147.9612175546858
 31
0.0
  0
LINE
  5
15414
  8
01
 10
382.535604965343
 20
-147.9612175546858
 30
0.0
 11
382.616656438194
 21
-147.880995044296
 31
0.0
  0
LINE
  5
15415
  8
01
 10
382.616656438194
 20
-147.880995044296
 30
0.0
 11
382.6949993827777
 21
-147.7996781858924
 31
0.0
  0
LINE
  5
15416
  8
01
 10
382.6949993827777
 20
-147.7996781858924
 30
0.0
 11
382.7706231116601
 21
-147.7173145810798
 31
0.0
  0
LINE
  5
15417
  8
01
 10
382.7706231116601
 20
-147.7173145810798
 30
0.0
 11
382.8435169374054
 21
-147.6339518314621
 31
0.0
  0
LINE
  5
15418
  8
01
 10
382.8435169374054
 20
-147.6339518314621
 30
0.0
 11
382.9136701725803
 21
-147.5496375386433
 31
0.0
  0
LINE
  5
15419
  8
01
 10
382.9136701725803
 20
-147.5496375386433
 30
0.0
 11
382.9810721297501
 21
-147.4644193042245
 31
0.0
  0
LINE
  5
1541A
  8
01
 10
382.9810721297501
 20
-147.4644193042245
 30
0.0
 11
383.0457121214815
 21
-147.3783447298124
 31
0.0
  0
LINE
  5
1541B
  8
01
 10
383.0457121214815
 20
-147.3783447298124
 30
0.0
 11
383.1075794603395
 21
-147.291461417009
 31
0.0
  0
LINE
  5
1541C
  8
01
 10
383.1075794603395
 20
-147.291461417009
 30
0.0
 11
383.1666634588902
 21
-147.2038169674183
 31
0.0
  0
LINE
  5
1541D
  8
01
 10
383.1666634588902
 20
-147.2038169674183
 30
0.0
 11
383.2229534296995
 21
-147.1154589826442
 31
0.0
  0
LINE
  5
1541E
  8
01
 10
383.2229534296995
 20
-147.1154589826442
 30
0.0
 11
383.2764386853325
 21
-147.0264350642888
 31
0.0
  0
LINE
  5
1541F
  8
01
 10
383.2764386853325
 20
-147.0264350642888
 30
0.0
 11
383.327108538355
 21
-146.9367928139568
 31
0.0
  0
LINE
  5
15420
  8
01
 10
383.327108538355
 20
-146.9367928139568
 30
0.0
 11
383.3749523013341
 21
-146.8465798332531
 31
0.0
  0
LINE
  5
15421
  8
01
 10
383.3749523013341
 20
-146.8465798332531
 30
0.0
 11
383.4199592868337
 21
-146.755843723779
 31
0.0
  0
LINE
  5
15422
  8
01
 10
383.4199592868337
 20
-146.755843723779
 30
0.0
 11
383.4621188074208
 21
-146.6646320871391
 31
0.0
  0
LINE
  5
15423
  8
01
 10
383.4621188074208
 20
-146.6646320871391
 30
0.0
 11
383.5014201756605
 21
-146.5729925249375
 31
0.0
  0
LINE
  5
15424
  8
01
 10
383.5014201756605
 20
-146.5729925249375
 30
0.0
 11
383.5378527041195
 21
-146.4809726387771
 31
0.0
  0
LINE
  5
15425
  8
01
 10
383.5378527041195
 20
-146.4809726387771
 30
0.0
 11
383.5714057053621
 21
-146.3886200302618
 31
0.0
  0
LINE
  5
15426
  8
01
 10
383.5714057053621
 20
-146.3886200302618
 30
0.0
 11
383.602068491956
 21
-146.2959823009955
 31
0.0
  0
LINE
  5
15427
  8
01
 10
383.602068491956
 20
-146.2959823009955
 30
0.0
 11
383.6298303764653
 21
-146.2031070525813
 31
0.0
  0
LINE
  5
15428
  8
01
 10
383.6298303764653
 20
-146.2031070525813
 30
0.0
 11
383.6546806714561
 21
-146.1100418866231
 31
0.0
  0
LINE
  5
15429
  8
01
 10
383.6546806714561
 20
-146.1100418866231
 30
0.0
 11
383.6766086894951
 21
-146.0168344047238
 31
0.0
  0
LINE
  5
1542A
  8
01
 10
383.6766086894951
 20
-146.0168344047238
 30
0.0
 11
383.6956037431466
 21
-145.9235322084883
 31
0.0
  0
LINE
  5
1542B
  8
01
 10
383.6956037431466
 20
-145.9235322084883
 30
0.0
 11
383.7116551449773
 21
-145.8301828995195
 31
0.0
  0
LINE
  5
1542C
  8
01
 10
383.7116551449773
 20
-145.8301828995195
 30
0.0
 11
383.7247522075533
 21
-145.7368340794205
 31
0.0
  0
LINE
  5
1542D
  8
01
 10
383.7247522075533
 20
-145.7368340794205
 30
0.0
 11
383.7348842434396
 21
-145.6435333497961
 31
0.0
  0
LINE
  5
1542E
  8
01
 10
383.7348842434396
 20
-145.6435333497961
 30
0.0
 11
383.7420405652021
 21
-145.5503283122484
 31
0.0
  0
LINE
  5
1542F
  8
01
 10
265.7525013185661
 20
-145.5503283121893
 30
0.0
 11
265.7596576391554
 21
-145.6435333333861
 31
0.0
  0
LINE
  5
15430
  8
01
 10
265.7596576391554
 20
-145.6435333333861
 30
0.0
 11
265.7697896727597
 21
-145.7368340466514
 31
0.0
  0
LINE
  5
15431
  8
01
 10
265.7697896727597
 20
-145.7368340466514
 30
0.0
 11
265.7828867319551
 21
-145.8301828504077
 31
0.0
  0
LINE
  5
15432
  8
01
 10
265.7828867319551
 20
-145.8301828504077
 30
0.0
 11
265.7989381293175
 21
-145.9235321430738
 31
0.0
  0
LINE
  5
15433
  8
01
 10
265.7989381293175
 20
-145.9235321430738
 30
0.0
 11
265.8179331774247
 21
-146.0168343230694
 31
0.0
  0
LINE
  5
15434
  8
01
 10
265.8179331774247
 20
-146.0168343230694
 30
0.0
 11
265.8398611888517
 21
-146.110041788816
 31
0.0
  0
LINE
  5
15435
  8
01
 10
265.8398611888517
 20
-146.110041788816
 30
0.0
 11
265.8647114761754
 21
-146.2031069387326
 31
0.0
  0
LINE
  5
15436
  8
01
 10
265.8647114761754
 20
-146.2031069387326
 30
0.0
 11
265.8924733519727
 21
-146.2959821712416
 31
0.0
  0
LINE
  5
15437
  8
01
 10
265.8924733519727
 20
-146.2959821712416
 30
0.0
 11
265.9231361288186
 21
-146.3886198847599
 31
0.0
  0
LINE
  5
15438
  8
01
 10
265.9231361288186
 20
-146.3886198847599
 30
0.0
 11
265.956689119291
 21
-146.4809724777101
 31
0.0
  0
LINE
  5
15439
  8
01
 10
265.956689119291
 20
-146.4809724777101
 30
0.0
 11
265.9931216359657
 21
-146.5729923485128
 31
0.0
  0
LINE
  5
1543A
  8
01
 10
265.9931216359657
 20
-146.5729923485128
 30
0.0
 11
266.0324229914187
 21
-146.6646318955868
 31
0.0
  0
LINE
  5
1543B
  8
01
 10
266.0324229914187
 20
-146.6646318955868
 30
0.0
 11
266.0745824982261
 21
-146.7558435173528
 31
0.0
  0
LINE
  5
1543C
  8
01
 10
266.0745824982261
 20
-146.7558435173528
 30
0.0
 11
266.1195894689656
 21
-146.8465796122314
 31
0.0
  0
LINE
  5
1543D
  8
01
 10
266.1195894689656
 20
-146.8465796122314
 30
0.0
 11
266.1674332162131
 21
-146.9367925786432
 31
0.0
  0
LINE
  5
1543E
  8
01
 10
266.1674332162131
 20
-146.9367925786432
 30
0.0
 11
266.2181030525437
 21
-147.0264348150072
 31
0.0
  0
LINE
  5
1543F
  8
01
 10
266.2181030525437
 20
-147.0264348150072
 30
0.0
 11
266.2715882905351
 21
-147.1154587197439
 31
0.0
  0
LINE
  5
15440
  8
01
 10
266.2715882905351
 20
-147.1154587197439
 30
0.0
 11
266.3278782427635
 21
-147.2038166912739
 31
0.0
  0
LINE
  5
15441
  8
01
 10
266.3278782427635
 20
-147.2038166912739
 30
0.0
 11
266.3869622218055
 21
-147.291461128018
 31
0.0
  0
LINE
  5
15442
  8
01
 10
266.3869622218055
 20
-147.291461128018
 30
0.0
 11
266.4488295402363
 21
-147.3783444283949
 31
0.0
  0
LINE
  5
15443
  8
01
 10
266.4488295402363
 20
-147.3783444283949
 30
0.0
 11
266.5134695106337
 21
-147.4644189908263
 31
0.0
  0
LINE
  5
15444
  8
01
 10
266.5134695106337
 20
-147.4644189908263
 30
0.0
 11
266.5808714455736
 21
-147.5496372137318
 31
0.0
  0
LINE
  5
15445
  8
01
 10
266.5808714455736
 20
-147.5496372137318
 30
0.0
 11
266.6510246576319
 21
-147.633951495533
 31
0.0
  0
LINE
  5
15446
  8
01
 10
266.6510246576319
 20
-147.633951495533
 30
0.0
 11
266.7239184593847
 21
-147.7173142346478
 31
0.0
  0
LINE
  5
15447
  8
01
 10
266.7239184593847
 20
-147.7173142346478
 30
0.0
 11
266.7995421634097
 21
-147.7996778294969
 31
0.0
  0
LINE
  5
15448
  8
01
 10
266.7995421634097
 20
-147.7996778294969
 30
0.0
 11
266.8778850822829
 21
-147.8809946785027
 31
0.0
  0
LINE
  5
15449
  8
01
 10
266.8778850822829
 20
-147.8809946785027
 30
0.0
 11
266.9589365285794
 21
-147.9612171800823
 31
0.0
  0
LINE
  5
1544A
  8
01
 10
266.9589365285794
 20
-147.9612171800823
 30
0.0
 11
267.0426858148768
 21
-148.0402977326589
 31
0.0
  0
LINE
  5
1544B
  8
01
 10
267.0426858148768
 20
-148.0402977326589
 30
0.0
 11
267.1291222537513
 21
-148.1181887346506
 31
0.0
  0
LINE
  5
1544C
  8
01
 10
267.1291222537513
 20
-148.1181887346506
 30
0.0
 11
267.2182351577796
 21
-148.1948425844789
 31
0.0
  0
LINE
  5
1544D
  8
01
 10
267.2182351577796
 20
-148.1948425844789
 30
0.0
 11
267.3100138395368
 21
-148.2702116805635
 31
0.0
  0
LINE
  5
1544E
  8
01
 10
267.3100138395368
 20
-148.2702116805635
 30
0.0
 11
267.4044476116007
 21
-148.3442484213242
 31
0.0
  0
LINE
  5
1544F
  8
01
 10
267.4044476116007
 20
-148.3442484213242
 30
0.0
 11
267.5092651744737
 21
-148.4224759603462
 31
0.0
  0
LINE
  5
15450
  8
01
 10
267.5092651744737
 20
-148.4224759603462
 30
0.0
 11
267.6169793121819
 21
-148.4988070208024
 31
0.0
  0
LINE
  5
15451
  8
01
 10
267.6169793121819
 20
-148.4988070208024
 30
0.0
 11
267.7274996900971
 21
-148.5732014445971
 31
0.0
  0
LINE
  5
15452
  8
01
 10
267.7274996900971
 20
-148.5732014445971
 30
0.0
 11
267.8407359735931
 21
-148.6456190736321
 31
0.0
  0
LINE
  5
15453
  8
01
 10
267.8407359735931
 20
-148.6456190736321
 30
0.0
 11
267.9565978280418
 21
-148.7160197498101
 31
0.0
  0
LINE
  5
15454
  8
01
 10
267.9565978280418
 20
-148.7160197498101
 30
0.0
 11
268.0749949188141
 21
-148.7843633150337
 31
0.0
  0
LINE
  5
15455
  8
01
 10
268.0749949188141
 20
-148.7843633150337
 30
0.0
 11
268.1958369112837
 21
-148.8506096112055
 31
0.0
  0
LINE
  5
15456
  8
01
 10
268.1958369112837
 20
-148.8506096112055
 30
0.0
 11
268.3190334708226
 21
-148.9147184802291
 31
0.0
  0
LINE
  5
15457
  8
01
 10
268.3190334708226
 20
-148.9147184802291
 30
0.0
 11
268.4444942628017
 21
-148.9766497640053
 31
0.0
  0
LINE
  5
15458
  8
01
 10
268.4444942628017
 20
-148.9766497640053
 30
0.0
 11
268.5721289525947
 21
-149.0363633044394
 31
0.0
  0
LINE
  5
15459
  8
01
 10
268.5721289525947
 20
-149.0363633044394
 30
0.0
 11
268.7018472055735
 21
-149.0938189434314
 31
0.0
  0
LINE
  5
1545A
  8
01
 10
268.7018472055735
 20
-149.0938189434314
 30
0.0
 11
268.83355868711
 21
-149.1489765228857
 31
0.0
  0
LINE
  5
1545B
  8
01
 10
268.83355868711
 20
-149.1489765228857
 30
0.0
 11
268.9671730625761
 21
-149.201795884705
 31
0.0
  0
LINE
  5
1545C
  8
01
 10
268.9671730625761
 20
-149.201795884705
 30
0.0
 11
269.1025999973446
 21
-149.252236870791
 31
0.0
  0
LINE
  5
1545D
  8
01
 10
269.1025999973446
 20
-149.252236870791
 30
0.0
 11
269.2397491567883
 21
-149.3002593230472
 31
0.0
  0
LINE
  5
1545E
  8
01
 10
269.2397491567883
 20
-149.3002593230472
 30
0.0
 11
269.3785302062781
 21
-149.3458230833753
 31
0.0
  0
LINE
  5
1545F
  8
01
 10
269.3785302062781
 20
-149.3458230833753
 30
0.0
 11
269.5188528111868
 21
-149.388887993679
 31
0.0
  0
LINE
  5
15460
  8
01
 10
269.5188528111868
 20
-149.388887993679
 30
0.0
 11
269.6606266368873
 21
-149.4294138958599
 31
0.0
  0
LINE
  5
15461
  8
01
 10
269.6606266368873
 20
-149.4294138958599
 30
0.0
 11
269.8037613487506
 21
-149.4673606318215
 31
0.0
  0
LINE
  5
15462
  8
01
 10
269.8037613487506
 20
-149.4673606318215
 30
0.0
 11
269.9481666121503
 21
-149.5026880434666
 31
0.0
  0
LINE
  5
15463
  8
01
 10
269.9481666121503
 20
-149.5026880434666
 30
0.0
 11
270.0937520924574
 21
-149.5353559726977
 31
0.0
  0
LINE
  5
15464
  8
01
 10
270.0937520924574
 20
-149.5353559726977
 30
0.0
 11
270.2404274550447
 21
-149.5653242614176
 31
0.0
  0
LINE
  5
15465
  8
01
 10
270.2404274550447
 20
-149.5653242614176
 30
0.0
 11
270.3881023652841
 21
-149.5925527515278
 31
0.0
  0
LINE
  5
15466
  8
01
 10
270.3881023652841
 20
-149.5925527515278
 30
0.0
 11
270.5366864885474
 21
-149.617001284932
 31
0.0
  0
LINE
  5
15467
  8
01
 10
270.5366864885474
 20
-149.617001284932
 30
0.0
 11
270.6860894902085
 21
-149.6386297035338
 31
0.0
  0
LINE
  5
15468
  8
01
 10
270.6860894902085
 20
-149.6386297035338
 30
0.0
 11
270.8362210356383
 21
-149.6573978492329
 31
0.0
  0
LINE
  5
15469
  8
01
 10
270.8362210356383
 20
-149.6573978492329
 30
0.0
 11
270.9869907902086
 21
-149.6732655639357
 31
0.0
  0
LINE
  5
1546A
  8
01
 10
270.9869907902086
 20
-149.6732655639357
 30
0.0
 11
271.1383084192932
 21
-149.6861926895422
 31
0.0
  0
LINE
  5
1546B
  8
01
 10
271.1383084192932
 20
-149.6861926895422
 30
0.0
 11
271.290083588263
 21
-149.6961390679558
 31
0.0
  0
LINE
  5
1546C
  8
01
 10
271.290083588263
 20
-149.6961390679558
 30
0.0
 11
271.4422259624909
 21
-149.70306454108
 31
0.0
  0
LINE
  5
1546D
  8
01
 10
271.4422259624909
 20
-149.70306454108
 30
0.0
 11
271.5946452073487
 21
-149.7069289508167
 31
0.0
  0
LINE
  5
1546E
  8
01
 10
271.5946452073487
 20
-149.7069289508167
 30
0.0
 11
271.7472509882093
 21
-149.7076921390685
 31
0.0
  0
LINE
  5
1546F
  8
01
 10
265.7471405401504
 20
-115.4404888867343
 30
0.0
 11
265.7472544187287
 21
-115.4659525976426
 31
0.0
  0
ARC
  5
15470
  8
01
 10
354.7478654677763
 20
-113.9640622072607
 30
0.0
 40
1.00000000000014
 50
270.0000125111919
 51
351.9315904311496
  0
ARC
  5
15471
  8
01
 10
392.7472709413871
 20
-139.2170253875997
 30
0.0
 40
0.9999999999997762
 50
8.06840037575985
 51
89.99999998650345
  0
ARC
  5
15472
  8
01
 10
384.7472709413834
 20
-139.2170253875997
 30
0.0
 40
0.9999999999998885
 50
90.00000001349655
 51
172.0590275843292
  0
ARC
  5
15473
  8
01
 10
354.7476517570914
 20
-97.09629779840225
 30
0.0
 40
1.000213724624115
 50
359.9904352728581
 51
89.98775907538635
  0
LINE
  5
15474
  8
01
 10
355.7478654677781
 20
-97.0964647700589
 30
0.0
 11
355.7478654677781
 21
-97.14598175349647
 31
0.0
  0
LINE
  5
154A8
  8
01
 10
352.7031099921944
 20
-94.11354704884934
 30
0.0
 11
353.3478654677803
 21
-94.11354704884934
 31
0.0
  0
LINE
  5
154A9
  8
01
 10
293.7031099921944
 20
-94.1135470505701
 30
0.0
 11
293.1478654677796
 21
-94.1135470505701
 31
0.0
  0
LINE
  5
154AA
  8
01
 10
352.7031099921944
 20
-94.11354704885753
 30
0.0
 11
293.7031099921944
 21
-94.1135470505701
 31
0.0
  0
LINE
  5
154AF
  8
01
 10
252.7472709413861
 20
-97.1459817387663
 30
0.0
 11
252.7472709413861
 21
-97.09710525076162
 31
0.0
  0
LINE
  5
154B0
  8
1DIM
 10
392.7472709413871
 20
-168.5713683179279
 30
0.0
 11
392.7472709413871
 21
-168.5722340618408
 31
0.0
  0
LINE
  5
154B1
  8
1DIM
 10
392.7472709413871
 20
-168.5722340618408
 30
0.0
 11
392.7472709413871
 21
-168.5724391673471
 31
0.0
  0
LINE
  5
154B2
  8
1DIM
 10
392.7472709413871
 20
-168.5724391673471
 30
0.0
 11
392.7472709413871
 21
-168.5724849039839
 31
0.0
  0
LINE
  5
154B3
  8
1DIM
 10
392.7472709413871
 20
-168.5724849039839
 30
0.0
 11
392.7472709413871
 21
-168.572493584827
 31
0.0
  0
LINE
  5
154B4
  8
1DIM
 10
392.7472709413871
 20
-168.572493584827
 30
0.0
 11
392.7472709413871
 21
-168.5724928138338
 31
0.0
  0
LINE
  5
154B5
  8
1DIM
 10
392.7472709413871
 20
-168.5724928138338
 30
0.0
 11
392.7472709413871
 21
-168.5711992607053
 31
0.0
  0
LINE
  5
154B8
  8
01
 10
253.7472709413861
 20
-168.5713683179279
 30
0.0
 11
253.7472709413861
 21
-168.5722340618408
 31
0.0
  0
LINE
  5
154B9
  8
01
 10
253.7472709413861
 20
-168.5722340618408
 30
0.0
 11
253.7472709413861
 21
-168.5724391673471
 31
0.0
  0
LINE
  5
154BA
  8
01
 10
253.7472709413861
 20
-168.5724391673471
 30
0.0
 11
253.7472709413861
 21
-168.5724849039839
 31
0.0
  0
LINE
  5
154BB
  8
01
 10
253.7472709413861
 20
-168.5724849039839
 30
0.0
 11
253.7472709413861
 21
-168.572493584827
 31
0.0
  0
LINE
  5
154BC
  8
01
 10
253.7472709413861
 20
-168.572493584827
 30
0.0
 11
253.7472709413861
 21
-168.5724928138338
 31
0.0
  0
LINE
  5
154BD
  8
01
 10
253.7472709413861
 20
-168.5724928138338
 30
0.0
 11
253.7472709413861
 21
-168.5711992607053
 31
0.0
  0
LINE
  5
154C0
  8
01
 10
393.7472709413871
 20
-163.3392302567668
 30
0.0
 11
393.7472709413871
 21
-143.0737506394294
 31
0.0
  0
LINE
  5
154C1
  8
01
 10
252.7472709413861
 20
-163.3392302567668
 30
0.0
 11
252.7472709413861
 21
-97.47297865367045
 31
0.0
  0
LINE
  5
154FC
  8
01
 10
271.7472709413898
 20
-110.8733809921828
 30
0.0
 11
354.7478654677745
 21
-110.8733809921746
 31
0.0
  0
LINE
  5
154FD
  8
01
 10
355.7478654677754
 20
-110.1073367735603
 30
0.0
 11
355.7478654677781
 21
-97.47297865289374
 31
0.0
  0
LINE
  5
154FE
  8
01
 10
383.7472709413834
 20
-139.2170253875943
 30
0.0
 11
383.7472709413834
 21
-145.3453809325479
 31
0.0
  0
LINE
  5
154FF
  8
01
 10
265.7472709413898
 20
-145.345380932547
 30
0.0
 11
265.7472709413898
 21
-119.1214706192754
 31
0.0
  0
ARC
  5
15542
  8
01
 10
380.2262827686556
 20
-145.3453808551426
 30
0.0
 40
3.520988172727784
 50
359.525470761192
 51
359.9999987403921
  0
LINE
  5
15543
  8
01
 10
383.723000393061
 20
-145.758375889593
 30
0.0
 11
383.7413057816177
 21
-145.5502836223645
 31
0.0
  0
LINE
  5
15586
  8
01
 10
265.7532361011556
 20
-145.5502836223636
 30
0.0
 11
265.7715414897122
 21
-145.7583758895912
 31
0.0
  0
ARC
  5
15587
  8
01
 10
269.2682591151371
 20
-145.3453808551317
 30
0.0
 40
3.520988173747342
 50
180.0000012597121
 51
180.4745289760072
  0
LINE
  5
155CA
  8
01
 10
271.7472709413898
 20
-110.8733809921828
 30
0.0
 11
271.4809977150373
 21
-110.8779093601938
 31
0.0
  0
LINE
  5
155CB
  8
01
 10
271.4809977150373
 20
-110.8779093601938
 30
0.0
 11
271.2105947459797
 21
-110.891804344456
 31
0.0
  0
LINE
  5
155CC
  8
01
 10
271.2105947459797
 20
-110.891804344456
 30
0.0
 11
271.0740767356212
 21
-110.9024029528614
 31
0.0
  0
LINE
  5
155CD
  8
01
 10
271.0740767356212
 20
-110.9024029528614
 30
0.0
 11
270.9368144408574
 21
-110.9155047220379
 31
0.0
  0
LINE
  5
155CE
  8
01
 10
270.9368144408574
 20
-110.9155047220379
 30
0.0
 11
270.7989137453571
 21
-110.9311579743357
 31
0.0
  0
LINE
  5
155CF
  8
01
 10
270.7989137453571
 20
-110.9311579743357
 30
0.0
 11
270.6604850454661
 21
-110.9494079267556
 31
0.0
  0
LINE
  5
155D0
  8
01
 10
270.6604850454661
 20
-110.9494079267556
 30
0.0
 11
270.521643089982
 21
-110.9702964316198
 31
0.0
  0
LINE
  5
155D1
  8
01
 10
270.521643089982
 20
-110.9702964316198
 30
0.0
 11
270.3825067924656
 21
-110.9938617207131
 31
0.0
  0
LINE
  5
155D2
  8
01
 10
270.3825067924656
 20
-110.9938617207131
 30
0.0
 11
270.2431990158249
 21
-111.0201381547663
 31
0.0
  0
LINE
  5
155D3
  8
01
 10
270.2431990158249
 20
-111.0201381547663
 30
0.0
 11
270.1038463291636
 21
-111.0491559801744
 31
0.0
  0
LINE
  5
155D4
  8
01
 10
270.1038463291636
 20
-111.0491559801744
 30
0.0
 11
269.964578737112
 21
-111.0809410949237
 31
0.0
  0
LINE
  5
155D5
  8
01
 10
269.964578737112
 20
-111.0809410949237
 30
0.0
 11
269.8255293821141
 21
-111.1155148256971
 31
0.0
  0
LINE
  5
155D6
  8
01
 10
269.8255293821141
 20
-111.1155148256971
 30
0.0
 11
269.6868342204245
 21
-111.1528937181724
 31
0.0
  0
LINE
  5
155D7
  8
01
 10
269.6868342204245
 20
-111.1528937181724
 30
0.0
 11
269.548631672814
 21
-111.1930893424774
 31
0.0
  0
LINE
  5
155D8
  8
01
 10
269.548631672814
 20
-111.1930893424774
 30
0.0
 11
269.4110622512873
 21
-111.2361081157419
 31
0.0
  0
LINE
  5
155D9
  8
01
 10
269.4110622512873
 20
-111.2361081157419
 30
0.0
 11
269.2742681633765
 21
-111.2819511436342
 31
0.0
  0
LINE
  5
155DA
  8
01
 10
269.2742681633765
 20
-111.2819511436342
 30
0.0
 11
269.1383928958459
 21
-111.330614082663
 31
0.0
  0
LINE
  5
155DB
  8
01
 10
269.1383928958459
 20
-111.330614082663
 30
0.0
 11
269.0035807799179
 21
-111.3820870249124
 31
0.0
  0
LINE
  5
155DC
  8
01
 10
269.0035807799179
 20
-111.3820870249124
 30
0.0
 11
268.8699765403682
 21
-111.436354406766
 31
0.0
  0
LINE
  5
155DD
  8
01
 10
268.8699765403682
 20
-111.436354406766
 30
0.0
 11
268.7377248310842
 21
-111.4933949429728
 31
0.0
  0
LINE
  5
155DE
  8
01
 10
268.7377248310842
 20
-111.4933949429728
 30
0.0
 11
268.6069697598861
 21
-111.5531815872523
 31
0.0
  0
LINE
  5
155DF
  8
01
 10
268.6069697598861
 20
-111.5531815872523
 30
0.0
 11
268.4778544056018
 21
-111.6156815204254
 31
0.0
  0
LINE
  5
155E0
  8
01
 10
268.4778544056018
 20
-111.6156815204254
 30
0.0
 11
268.3505203305414
 21
-111.6808561668199
 31
0.0
  0
LINE
  5
155E1
  8
01
 10
268.3505203305414
 20
-111.6808561668199
 30
0.0
 11
268.2251070916602
 21
-111.7486612394773
 31
0.0
  0
LINE
  5
155E2
  8
01
 10
268.2251070916602
 20
-111.7486612394773
 30
0.0
 11
268.1017517537622
 21
-111.8190468144044
 31
0.0
  0
LINE
  5
155E3
  8
01
 10
268.1017517537622
 20
-111.8190468144044
 30
0.0
 11
267.9805884081745
 21
-111.8919574338966
 31
0.0
  0
LINE
  5
155E4
  8
01
 10
267.9805884081745
 20
-111.8919574338966
 30
0.0
 11
267.8617477003301
 21
-111.967332238632
 31
0.0
  0
LINE
  5
155E5
  8
01
 10
267.8617477003301
 20
-111.967332238632
 30
0.0
 11
267.7453563696601
 21
-112.0451051280147
 31
0.0
  0
LINE
  5
155E6
  8
01
 10
267.7453563696601
 20
-112.0451051280147
 30
0.0
 11
267.6315368051493
 21
-112.1252049479467
 31
0.0
  0
LINE
  5
155E7
  8
01
 10
267.6315368051493
 20
-112.1252049479467
 30
0.0
 11
267.5204066197677
 21
-112.2075557049407
 31
0.0
  0
LINE
  5
155E8
  8
01
 10
267.5204066197677
 20
-112.2075557049407
 30
0.0
 11
267.4120782468864
 21
-112.2920768052641
 31
0.0
  0
LINE
  5
155E9
  8
01
 10
267.4120782468864
 20
-112.2920768052641
 30
0.0
 11
267.3066585615517
 21
-112.3786833175277
 31
0.0
  0
LINE
  5
155EA
  8
01
 10
267.3066585615517
 20
-112.3786833175277
 30
0.0
 11
267.2042485293079
 21
-112.4672862569264
 31
0.0
  0
LINE
  5
155EB
  8
01
 10
267.2042485293079
 20
-112.4672862569264
 30
0.0
 11
267.1049428849821
 21
-112.5577928891412
 31
0.0
  0
LINE
  5
155EC
  8
01
 10
267.1049428849821
 20
-112.5577928891412
 30
0.0
 11
267.0088298435732
 21
-112.6501070517247
 31
0.0
  0
LINE
  5
155ED
  8
01
 10
267.0088298435732
 20
-112.6501070517247
 30
0.0
 11
266.9159908450667
 21
-112.7441294906553
 31
0.0
  0
LINE
  5
155EE
  8
01
 10
266.9159908450667
 20
-112.7441294906553
 30
0.0
 11
266.8265003346889
 21
-112.8397582096009
 31
0.0
  0
LINE
  5
155EF
  8
01
 10
266.8265003346889
 20
-112.8397582096009
 30
0.0
 11
266.7404255797557
 21
-112.9368888293607
 31
0.0
  0
LINE
  5
155F0
  8
01
 10
266.7404255797557
 20
-112.9368888293607
 30
0.0
 11
266.6578265239288
 21
-113.0354149548889
 31
0.0
  0
LINE
  5
155F1
  8
01
 10
266.6578265239288
 20
-113.0354149548889
 30
0.0
 11
266.5787556793386
 21
-113.1352285472608
 31
0.0
  0
LINE
  5
155F2
  8
01
 10
266.5787556793386
 20
-113.1352285472608
 30
0.0
 11
266.503258056666
 21
-113.2362202979643
 31
0.0
  0
LINE
  5
155F3
  8
01
 10
266.503258056666
 20
-113.2362202979643
 30
0.0
 11
266.431371132958
 21
-113.3382800029144
 31
0.0
  0
LINE
  5
155F4
  8
01
 10
266.431371132958
 20
-113.3382800029144
 30
0.0
 11
266.3631248565754
 21
-113.4412969336631
 31
0.0
  0
LINE
  5
155F5
  8
01
 10
266.3631248565754
 20
-113.4412969336631
 30
0.0
 11
266.2985416883914
 21
-113.5451602033577
 31
0.0
  0
LINE
  5
155F6
  8
01
 10
266.2985416883914
 20
-113.5451602033577
 30
0.0
 11
266.2376366780247
 21
-113.6497591251177
 31
0.0
  0
LINE
  5
155F7
  8
01
 10
266.2376366780247
 20
-113.6497591251177
 30
0.0
 11
266.1804175736426
 21
-113.7549835606501
 31
0.0
  0
LINE
  5
155F8
  8
01
 10
266.1804175736426
 20
-113.7549835606501
 30
0.0
 11
266.1268849636073
 21
-113.860724257052
 31
0.0
  0
LINE
  5
155F9
  8
01
 10
266.1268849636073
 20
-113.860724257052
 30
0.0
 11
266.0770324480029
 21
-113.966873169968
 31
0.0
  0
LINE
  5
155FA
  8
01
 10
266.0770324480029
 20
-113.966873169968
 30
0.0
 11
266.0308468379282
 21
-114.0733237714117
 31
0.0
  0
LINE
  5
155FB
  8
01
 10
266.0308468379282
 20
-114.0733237714117
 30
0.0
 11
265.9883083802408
 21
-114.1799713407986
 31
0.0
  0
LINE
  5
155FC
  8
01
 10
265.9883083802408
 20
-114.1799713407986
 30
0.0
 11
265.9493910053481
 21
-114.2867132379229
 31
0.0
  0
LINE
  5
155FD
  8
01
 10
265.9493910053481
 20
-114.2867132379229
 30
0.0
 11
265.9140625955189
 21
-114.3934491568293
 31
0.0
  0
LINE
  5
155FE
  8
01
 10
265.9140625955189
 20
-114.3934491568293
 30
0.0
 11
265.8822852711584
 21
-114.5000813597421
 31
0.0
  0
LINE
  5
155FF
  8
01
 10
265.8822852711584
 20
-114.5000813597421
 30
0.0
 11
265.8540156924284
 21
-114.606514890424
 31
0.0
  0
LINE
  5
15600
  8
01
 10
265.8540156924284
 20
-114.606514890424
 30
0.0
 11
265.8292053736342
 21
-114.7126577665372
 31
0.0
  0
LINE
  5
15601
  8
01
 10
265.8292053736342
 20
-114.7126577665372
 30
0.0
 11
265.8078010077908
 21
-114.8184211507855
 31
0.0
  0
LINE
  5
15602
  8
01
 10
265.8078010077908
 20
-114.8184211507855
 30
0.0
 11
265.7897447988582
 21
-114.9237195008041
 31
0.0
  0
LINE
  5
15603
  8
01
 10
265.7897447988582
 20
-114.9237195008041
 30
0.0
 11
265.7749747992177
 21
-115.028470697926
 31
0.0
  0
LINE
  5
15604
  8
01
 10
265.7749747992177
 20
-115.028470697926
 30
0.0
 11
265.7634252500331
 21
-115.1325961551397
 31
0.0
  0
LINE
  5
15605
  8
01
 10
265.7634252500331
 20
-115.1325961551397
 30
0.0
 11
265.7550269222895
 21
-115.2360209046842
 31
0.0
  0
LINE
  5
15606
  8
01
 10
265.7550269222895
 20
-115.2360209046842
 30
0.0
 11
265.7497074564118
 21
-115.3386736658908
 31
0.0
  0
LINE
  5
15607
  8
01
 10
265.7497074564118
 20
-115.3386736658908
 30
0.0
 11
265.7473916985184
 21
-115.4404868939505
 31
0.0
  0
LINE
  5
15608
  8
01
 10
355.7478654677754
 20
-110.1073367735603
 30
0.0
 11
355.7379666618937
 21
-114.1044175613001
 31
0.0
  0
LINE
  5
1560D
  8
1DIM
 10
392.7472709413871
 20
-138.2241099779408
 30
0.0
 11
392.7472709413871
 21
-138.2185308960547
 31
0.0
  0
LINE
  5
1560E
  8
1DIM
 10
392.7472709413871
 20
-138.2185308960547
 30
0.0
 11
392.7472709413871
 21
-138.2172818476233
 31
0.0
  0
LINE
  5
1560F
  8
1DIM
 10
392.7472709413871
 20
-138.2172818476233
 30
0.0
 11
392.7472709413871
 21
-138.2170465776694
 31
0.0
  0
LINE
  5
15610
  8
1DIM
 10
392.7472709413871
 20
-138.2170465776694
 30
0.0
 11
392.7472709413871
 21
-138.2170284466251
 31
0.0
  0
LINE
  5
15611
  8
1DIM
 10
392.7472709413871
 20
-138.2170284466251
 30
0.0
 11
392.7472709413871
 21
-138.2170266103444
 31
0.0
  0
LINE
  5
15612
  8
1DIM
 10
392.7472709413871
 20
-138.2170266103444
 30
0.0
 11
392.7472709413871
 21
-138.2170718561179
 31
0.0
  0
LINE
  5
15613
  8
1DIM
 10
392.7472709413871
 20
-138.2170718561179
 30
0.0
 11
392.7472709413871
 21
-138.2266747215458
 31
0.0
  0
ARC
  5
15619
  8
01
 10
354.8511596253649
 20
-109.972496023493
 30
0.0
 40
0.9067874038008318
 50
263.4591173386677
 51
351.4483093377195
  0
LINE
  5
1561D
  8
01
 10
393.7472709413871
 20
-167.5428697820421
 30
0.0
 11
393.7472709413871
 21
-164.339153390802
 31
0.0
  0
LINE
  5
1561F
  8
01
 10
393.7472709413871
 20
-164.339153390802
 30
0.0
 11
393.7472709413871
 21
-163.3392302567668
 31
0.0
  0
ARC
  5
15620
  8
1DIM
 10
392.8939769639603
 20
-163.5674643112384
 30
0.0
 40
0.883290097042599
 50
14.97460063245089
 51
99.56058499294036
  0
LINE
  5
15624
  8
01
 10
252.7472709413861
 20
-167.5428697820421
 30
0.0
 11
252.7472709413861
 21
-164.339153390802
 31
0.0
  0
LINE
  5
15626
  8
01
 10
252.7472709413861
 20
-164.339153390802
 30
0.0
 11
252.7472709413861
 21
-163.3392302567668
 31
0.0
  0
ARC
  5
15627
  8
1DIM
 10
253.6005649188139
 20
-163.5674643112393
 30
0.0
 40
0.8832900970430455
 50
80.43941500711986
 51
165.0253993675491
  0
LINE
  5
1562B
  8
01
 10
355.7478654677781
 20
-97.14598175349647
 30
0.0
 11
355.7478654677781
 21
-97.47297865289374
 31
0.0
  0
ARC
  5
1562C
  8
01
 10
351.464782821142
 20
-106.9598545595477
 30
0.0
 40
1.9042539093326
 50
263.4591256806758
 51
351.4483134335254
  0
ARC
  5
1562D
  8
01
 10
295.0309481144179
 20
-106.9598545612685
 30
0.0
 40
1.904253909332618
 50
188.5516865664746
 51
276.5408743192718
  0
LINE
  5
1562E
  8
01
 10
353.3478654677803
 20
-96.10748254944747
 30
0.0
 11
353.3478654677803
 21
-96.09843402191154
 31
0.0
  0
LINE
  5
1562F
  8
01
 10
353.3478654677803
 20
-96.09843402191154
 30
0.0
 11
353.3478654677803
 21
-96.096644616297
 31
0.0
  0
LINE
  5
15630
  8
01
 10
353.3478654677803
 20
-96.096644616297
 30
0.0
 11
353.3478654677803
 21
-96.09648502491882
 31
0.0
  0
LINE
  5
15631
  8
01
 10
353.3478654677803
 20
-96.09648502491882
 30
0.0
 11
353.3478654677803
 21
-96.09644855386841
 31
0.0
  0
LINE
  5
15632
  8
01
 10
353.3478654677803
 20
-96.09644855386841
 30
0.0
 11
353.3478654677803
 21
-96.09644100242667
 31
0.0
  0
LINE
  5
15633
  8
01
 10
353.3478654677803
 20
-96.09644100242667
 30
0.0
 11
353.3478654677803
 21
-96.09670051596777
 31
0.0
  0
LINE
  5
15636
  8
01
 10
353.3478654677803
 20
-94.11354704884934
 30
0.0
 11
353.3478654677794
 21
-96.83019104313689
 31
0.0
  0
LINE
  5
15637
  8
01
 10
293.1478654677796
 20
-96.83019104485766
 30
0.0
 11
293.1478654677796
 21
-94.1135470505701
 31
0.0
  0
LINE
  5
15638
  8
01
 10
293.1478654677796
 20
-96.83019104485766
 30
0.0
 11
293.1478654677796
 21
-107.2430200555305
 31
0.0
  0
LINE
  5
15639
  8
01
 10
295.2478654677799
 20
-108.8517133860801
 30
0.0
 11
351.247865467779
 21
-108.8517133843593
 31
0.0
  0
LINE
  5
1563A
  8
01
 10
353.3478654677794
 20
-107.2430200538097
 30
0.0
 11
353.3478654677794
 21
-96.83019104313689
 31
0.0
  0
LINE
  5
15643
  8
1DIM
 10
392.7472709413871
 20
-162.6964426476302
 30
0.0
 11
253.7472709413861
 21
-162.6964426476311
 31
0.0
  0
ARC
  5
1585C
  8
01
 10
1302.209156694442
 20
-87.67422381221604
 30
0.0
 40
6.553616379806404
 50
304.4627366806717
 51
331.9385348096867
  0
ARC
  5
1585D
  8
01
 10
1302.408668998649
 20
-87.64406833482462
 30
0.0
 40
6.468130206359673
 50
269.6425919693569
 51
302.8542287536335
  0
ARC
  5
1585E
  8
01
 10
1298.769289766769
 20
-85.75425650787565
 30
0.0
 40
10.49256773714089
 50
331.5230579801012
 51
345.5530803423485
  0
LINE
  5
1585F
  8
01
 10
1026.930073946057
 20
-88.3719735629511
 30
0.0
 11
1027.020655194764
 21
-88.69396517893529
 31
0.0
  0
LINE
  5
15860
  8
01
 10
1027.020655194764
 20
-88.69396517893529
 30
0.0
 11
1027.118124230464
 21
-89.00833355042778
 31
0.0
  0
LINE
  5
15861
  8
01
 10
1027.118124230464
 20
-89.00833355042778
 30
0.0
 11
1027.222530813284
 21
-89.31492091466407
 31
0.0
  0
LINE
  5
15862
  8
01
 10
1027.222530813284
 20
-89.31492091466407
 30
0.0
 11
1027.333924703353
 21
-89.61356950888057
 31
0.0
  0
LINE
  5
15863
  8
01
 10
1027.333924703353
 20
-89.61356950888057
 30
0.0
 11
1027.452355660797
 21
-89.90412157031369
 31
0.0
  0
LINE
  5
15864
  8
01
 10
1027.452355660797
 20
-89.90412157031369
 30
0.0
 11
1027.577873445743
 21
-90.18641933619892
 31
0.0
  0
LINE
  5
15865
  8
01
 10
1027.577873445743
 20
-90.18641933619892
 30
0.0
 11
1027.710527818319
 21
-90.46030504377268
 31
0.0
  0
LINE
  5
15866
  8
01
 10
1027.710527818319
 20
-90.46030504377268
 30
0.0
 11
1027.850368538653
 21
-90.72562093027136
 31
0.0
  0
LINE
  5
15867
  8
01
 10
1027.850368538653
 20
-90.72562093027136
 30
0.0
 11
1027.922999329269
 21
-90.85501588975421
 31
0.0
  0
LINE
  5
15868
  8
01
 10
1027.922999329269
 20
-90.85501588975421
 30
0.0
 11
1027.997445366871
 21
-90.98220923293138
 31
0.0
  0
LINE
  5
15869
  8
01
 10
1027.997445366871
 20
-90.98220923293138
 30
0.0
 11
1028.073712871477
 21
-91.10718123945753
 31
0.0
  0
LINE
  5
1586A
  8
01
 10
1028.073712871477
 20
-91.10718123945753
 30
0.0
 11
1028.151808063101
 21
-91.22991218898824
 31
0.0
  0
LINE
  5
1586B
  8
01
 10
1028.151808063101
 20
-91.22991218898824
 30
0.0
 11
1028.23173716176
 21
-91.35038236117725
 31
0.0
  0
LINE
  5
1586C
  8
01
 10
1028.23173716176
 20
-91.35038236117725
 30
0.0
 11
1028.31350638747
 21
-91.46857203567833
 31
0.0
  0
LINE
  5
1586D
  8
01
 10
1028.31350638747
 20
-91.46857203567833
 30
0.0
 11
1028.397121960246
 21
-91.58446149214706
 31
0.0
  0
LINE
  5
1586E
  8
01
 10
1028.397121960246
 20
-91.58446149214706
 30
0.0
 11
1028.482590100105
 21
-91.69803101023808
 31
0.0
  0
LINE
  5
1586F
  8
01
 10
1028.482590100105
 20
-91.69803101023808
 30
0.0
 11
1028.569917027062
 21
-91.80926086960517
 31
0.0
  0
LINE
  5
15870
  8
01
 10
1028.569917027062
 20
-91.80926086960517
 30
0.0
 11
1028.659108961134
 21
-91.91813134990298
 31
0.0
  0
LINE
  5
15871
  8
01
 10
1028.659108961134
 20
-91.91813134990298
 30
0.0
 11
1028.750172122336
 21
-92.02462273078709
 31
0.0
  0
LINE
  5
15872
  8
01
 10
1028.750172122336
 20
-92.02462273078709
 30
0.0
 11
1028.843112730684
 21
-92.12871529191034
 31
0.0
  0
LINE
  5
15873
  8
01
 10
1028.843112730684
 20
-92.12871529191034
 30
0.0
 11
1028.937937006194
 21
-92.23038931292831
 31
0.0
  0
LINE
  5
15874
  8
01
 10
1028.937937006194
 20
-92.23038931292831
 30
0.0
 11
1029.034651168882
 21
-92.32962507349566
 31
0.0
  0
LINE
  5
15875
  8
01
 10
1029.034651168882
 20
-92.32962507349566
 30
0.0
 11
1029.133261438764
 21
-92.42640285326615
 31
0.0
  0
LINE
  5
15876
  8
01
 10
1029.133261438764
 20
-92.42640285326615
 30
0.0
 11
1029.233774035856
 21
-92.52070293189445
 31
0.0
  0
LINE
  5
15877
  8
01
 10
1029.233774035856
 20
-92.52070293189445
 30
0.0
 11
1029.336195180173
 21
-92.61250558903521
 31
0.0
  0
LINE
  5
15878
  8
01
 10
1029.336195180173
 20
-92.61250558903521
 30
0.0
 11
1029.440531091732
 21
-92.70179110434401
 31
0.0
  0
LINE
  5
15879
  8
01
 10
1029.440531091732
 20
-92.70179110434401
 30
0.0
 11
1029.546787990549
 21
-92.7885397574737
 31
0.0
  0
LINE
  5
1587A
  8
01
 10
1029.546787990549
 20
-92.7885397574737
 30
0.0
 11
1029.654972096639
 21
-92.87273182807985
 31
0.0
  0
LINE
  5
1587B
  8
01
 10
1029.654972096639
 20
-92.87273182807985
 30
0.0
 11
1029.765089630018
 21
-92.95434759581622
 31
0.0
  0
LINE
  5
1587C
  8
01
 10
1029.765089630018
 20
-92.95434759581622
 30
0.0
 11
1029.877146810703
 21
-93.03336734033837
 31
0.0
  0
LINE
  5
1587D
  8
01
 10
1029.877146810703
 20
-93.03336734033837
 30
0.0
 11
1029.991149858709
 21
-93.10977134130007
 31
0.0
  0
LINE
  5
1587E
  8
01
 10
1029.991149858709
 20
-93.10977134130007
 30
0.0
 11
1030.107104994051
 21
-93.18353987835599
 31
0.0
  0
LINE
  5
1587F
  8
01
 10
1030.107104994051
 20
-93.18353987835599
 30
0.0
 11
1030.225018436748
 21
-93.25465323115986
 31
0.0
  0
LINE
  5
15880
  8
01
 10
1030.225018436748
 20
-93.25465323115986
 30
0.0
 11
1030.344896406812
 21
-93.32309167936819
 31
0.0
  0
LINE
  5
15881
  8
01
 10
1030.344896406812
 20
-93.32309167936819
 30
0.0
 11
1030.466745124262
 21
-93.38883550263381
 31
0.0
  0
LINE
  5
15882
  8
01
 10
1030.466745124262
 20
-93.38883550263381
 30
0.0
 11
1030.590570809113
 21
-93.45186498061139
 31
0.0
  0
LINE
  5
15883
  8
01
 10
1030.590570809113
 20
-93.45186498061139
 30
0.0
 11
1030.71637968138
 21
-93.5121603929556
 31
0.0
  0
LINE
  5
15884
  8
01
 10
1030.71637968138
 20
-93.5121603929556
 30
0.0
 11
1030.84417796108
 21
-93.569702019322
 31
0.0
  0
LINE
  5
15885
  8
01
 10
1030.84417796108
 20
-93.569702019322
 30
0.0
 11
1030.973971868228
 21
-93.62447013936435
 31
0.0
  0
LINE
  5
15886
  8
01
 10
1030.973971868228
 20
-93.62447013936435
 30
0.0
 11
1031.105767622841
 21
-93.67644503273641
 31
0.0
  0
LINE
  5
15887
  8
01
 10
1031.105767622841
 20
-93.67644503273641
 30
0.0
 11
1031.239571444934
 21
-93.72560697909375
 31
0.0
  0
LINE
  5
15888
  8
01
 10
1031.239571444934
 20
-93.72560697909375
 30
0.0
 11
1031.375389554523
 21
-93.77193625809014
 31
0.0
  0
LINE
  5
15889
  8
01
 10
1031.375389554523
 20
-93.77193625809014
 30
0.0
 11
1031.513228171624
 21
-93.81541314938022
 31
0.0
  0
LINE
  5
1588A
  8
01
 10
1031.513228171624
 20
-93.81541314938022
 30
0.0
 11
1031.653093516253
 21
-93.85601793261958
 31
0.0
  0
LINE
  5
1588B
  8
01
 10
1031.653093516253
 20
-93.85601793261958
 30
0.0
 11
1031.794991808426
 21
-93.89373088746106
 31
0.0
  0
LINE
  5
1588C
  8
01
 10
1031.794991808426
 20
-93.89373088746106
 30
0.0
 11
1031.93892926816
 21
-93.92853229356115
 31
0.0
  0
LINE
  5
1588D
  8
01
 10
1031.93892926816
 20
-93.92853229356115
 30
0.0
 11
1032.084912115469
 21
-93.96040243057269
 31
0.0
  0
LINE
  5
1588E
  8
01
 10
1032.084912115469
 20
-93.96040243057269
 30
0.0
 11
1032.232946570369
 21
-93.98932157815034
 31
0.0
  0
LINE
  5
1588F
  8
01
 10
1032.232946570369
 20
-93.98932157815034
 30
0.0
 11
1032.383038852877
 21
-94.01527001594968
 31
0.0
  0
LINE
  5
15890
  8
01
 10
1032.383038852877
 20
-94.01527001594968
 30
0.0
 11
1032.535195183009
 21
-94.03822802362447
 31
0.0
  0
LINE
  5
15891
  8
01
 10
1032.535195183009
 20
-94.03822802362447
 30
0.0
 11
1032.68942178078
 21
-94.05817588082937
 31
0.0
  0
LINE
  5
15892
  8
01
 10
1032.68942178078
 20
-94.05817588082937
 30
0.0
 11
1032.845724866207
 21
-94.07509386721904
 31
0.0
  0
LINE
  5
15893
  8
01
 10
1032.845724866207
 20
-94.07509386721904
 30
0.0
 11
1033.004110659305
 21
-94.08896226244724
 31
0.0
  0
LINE
  5
15894
  8
01
 10
1033.004110659305
 20
-94.08896226244724
 30
0.0
 11
1033.16458538009
 21
-94.09976134616954
 31
0.0
  0
LINE
  5
15895
  8
01
 10
1041.662323957512
 20
-87.11354704971382
 30
0.0
 11
1027.896204536712
 21
-87.11354704971382
 31
0.0
  0
LINE
  5
15896
  8
01
 10
1294.198810937094
 20
-87.11354704971382
 30
0.0
 11
1307.963945052533
 21
-87.11354704971382
 31
0.0
  0
LINE
  5
15898
  8
01
 10
1294.197820659152
 20
-87.11354704971382
 30
0.0
 11
1041.662327401355
 21
-87.11354704971382
 31
0.0
  0
ARC
  5
1589A
  8
01
 10
1307.963953838471
 20
-88.1136155515378
 30
0.0
 40
1.000068459828323
 50
345.0283943066535
 51
89.99189205654591
  0
ARC
  5
1589B
  8
01
 10
1027.896195416307
 20
-88.11361659909562
 30
0.0
 40
1.00006950560951
 50
90.00844326677002
 51
194.9715275456861
  0
LINE
  5
1589F
  8
01
 10
1033.713655273559
 20
-94.11354704971382
 30
0.0
 11
1302.199961424489
 21
-94.11354704971382
 31
0.0
  0
LINE
  5
158E9
  8
01
 10
1033.16458538009
 20
-94.09976134616954
 30
0.0
 11
1033.713655273559
 21
-94.11354704971382
 31
0.0
  0
LINE
  5
158EA
  8
01
 10
1302.368321407497
 20
-94.11207269771057
 30
0.0
 11
1302.199961424489
 21
-94.11354704971382
 31
0.0
  0
LINE
  5
158EB
  8
1CENTER
 10
1187.671943310089
 20
-100.3854581120231
 30
0.0
 11
1194.188143310089
 21
-100.3854581120231
 31
0.0
  0
LINE
  5
158EC
  8
1CENTER
 10
1190.930074030254
 20
-103.643578774143
 30
0.0
 11
1190.930074030254
 21
-97.12737877414384
 31
0.0
  0
LINE
  5
158ED
  8
1CENTER
 10
1148.188204750418
 20
-100.3854581120231
 30
0.0
 11
1141.672004750418
 21
-100.3854581120231
 31
0.0
  0
LINE
  5
158EE
  8
1CENTER
 10
1144.930074030254
 20
-103.643578774143
 30
0.0
 11
1144.930074030254
 21
-97.12737877414384
 31
0.0
  0
LINE
  5
159A0
  8
01
 10
1110.50096929822
 20
-119.1214706192754
 30
0.0
 11
1110.50096929822
 21
-115.4696476499353
 31
0.0
  0
LINE
  5
159A1
  8
01
 10
1098.500969309967
 20
-96.09644015424647
 30
0.0
 11
1137.901563824609
 21
-96.09644015424647
 31
0.0
  0
LINE
  5
159A2
  8
01
 10
1237.500969298217
 20
-168.5724944119725
 30
0.0
 11
1098.500969298216
 21
-168.5724944119725
 31
0.0
  0
LINE
  5
159A3
  8
01
 10
1198.101563825313
 20
-96.09643682997603
 30
0.0
 11
1199.501564569764
 21
-96.09662051071018
 31
0.0
  0
ARC
  5
159A4
  8
01
 10
1098.501182973637
 20
-97.09629774517316
 30
0.0
 40
1.000213689363308
 50
90.01224003832321
 51
180.0095665742403
  0
LINE
  5
159A5
  8
01
 10
1097.500969298216
 20
-97.42185442546588
 30
0.0
 11
1097.500969298216
 21
-97.14598173876902
 31
0.0
  0
ARC
  5
159A6
  8
01
 10
1237.502728558025
 20
-167.57803739171
 30
0.0
 40
0.994814654262387
 50
269.8986763874516
 51
349.8339553779426
  0
ARC
  5
159A7
  8
01
 10
1098.501139719491
 20
-167.5727139881533
 30
0.0
 40
1.000136516774109
 50
188.495548385689
 51
269.990236913004
  0
LINE
  5
159A8
  8
01
 10
1238.500969298217
 20
-143.0737506394294
 30
0.0
 11
1238.500969298217
 21
-139.2170253875997
 31
0.0
  0
LINE
  5
159A9
  8
01
 10
1199.501563824606
 20
-114.9640622072607
 30
0.0
 11
1116.348326957221
 21
-114.9648255439156
 31
0.0
  0
LINE
  5
159AB
  8
01
 10
1116.348326957221
 20
-114.9648255439156
 30
0.0
 11
1116.195908298283
 21
-114.968690269578
 31
0.0
  0
LINE
  5
159AC
  8
01
 10
1116.195908298283
 20
-114.968690269578
 30
0.0
 11
1116.043766517334
 21
-114.9756160317934
 31
0.0
  0
LINE
  5
159AD
  8
01
 10
1116.043766517334
 20
-114.9756160317934
 30
0.0
 11
1115.891991948011
 21
-114.9855626729136
 31
0.0
  0
LINE
  5
159AE
  8
01
 10
1115.891991948011
 20
-114.9855626729136
 30
0.0
 11
1115.740674923955
 21
-114.9984900352906
 31
0.0
  0
LINE
  5
159AF
  8
01
 10
1115.740674923955
 20
-114.9984900352906
 30
0.0
 11
1115.589905778803
 21
-115.0143579612782
 31
0.0
  0
LINE
  5
159B0
  8
01
 10
1115.589905778803
 20
-115.0143579612782
 30
0.0
 11
1115.439774846195
 21
-115.0331262932273
 31
0.0
  0
LINE
  5
159B1
  8
01
 10
1115.439774846195
 20
-115.0331262932273
 30
0.0
 11
1115.290372459772
 21
-115.0547548734926
 31
0.0
  0
LINE
  5
159B2
  8
01
 10
1115.290372459772
 20
-115.0547548734926
 30
0.0
 11
1115.141788953171
 21
-115.079203544426
 31
0.0
  0
LINE
  5
159B3
  8
01
 10
1115.141788953171
 20
-115.079203544426
 30
0.0
 11
1114.994114660032
 21
-115.1064321483796
 31
0.0
  0
LINE
  5
159B4
  8
01
 10
1114.994114660032
 20
-115.1064321483796
 30
0.0
 11
1114.847439913993
 21
-115.1364005277069
 31
0.0
  0
LINE
  5
159B5
  8
01
 10
1114.847439913993
 20
-115.1364005277069
 30
0.0
 11
1114.701855048694
 21
-115.16906852476
 31
0.0
  0
LINE
  5
159B6
  8
01
 10
1114.701855048694
 20
-115.16906852476
 30
0.0
 11
1114.557450397774
 21
-115.2043959818916
 31
0.0
  0
LINE
  5
159B7
  8
01
 10
1114.557450397774
 20
-115.2043959818916
 30
0.0
 11
1114.414316294872
 21
-115.2423427414537
 31
0.0
  0
LINE
  5
159B8
  8
01
 10
1114.414316294872
 20
-115.2423427414537
 30
0.0
 11
1114.272543073628
 21
-115.2828686458001
 31
0.0
  0
LINE
  5
159B9
  8
01
 10
1114.272543073628
 20
-115.2828686458001
 30
0.0
 11
1114.13222106768
 21
-115.3259335372827
 31
0.0
  0
LINE
  5
159BA
  8
01
 10
1114.13222106768
 20
-115.3259335372827
 30
0.0
 11
1113.993440610668
 21
-115.3714972582552
 31
0.0
  0
LINE
  5
159BB
  8
01
 10
1113.993440610668
 20
-115.3714972582552
 30
0.0
 11
1113.85629203623
 21
-115.4195196510686
 31
0.0
  0
LINE
  5
159BC
  8
01
 10
1113.85629203623
 20
-115.4195196510686
 30
0.0
 11
1113.720865678006
 21
-115.4699605580759
 31
0.0
  0
LINE
  5
159BD
  8
01
 10
1113.720865678006
 20
-115.4699605580759
 30
0.0
 11
1113.587251869634
 21
-115.5227798216315
 31
0.0
  0
LINE
  5
159BE
  8
01
 10
1113.587251869634
 20
-115.5227798216315
 30
0.0
 11
1113.455540944755
 21
-115.5779372840866
 31
0.0
  0
LINE
  5
159BF
  8
01
 10
1113.455540944755
 20
-115.5779372840866
 30
0.0
 11
1113.325823237006
 21
-115.6353927877931
 31
0.0
  0
LINE
  5
159C0
  8
01
 10
1113.325823237006
 20
-115.6353927877931
 30
0.0
 11
1113.198189080028
 21
-115.6951061751047
 31
0.0
  0
LINE
  5
159C1
  8
01
 10
1113.198189080028
 20
-115.6951061751047
 30
0.0
 11
1113.07272880746
 21
-115.7570372883742
 31
0.0
  0
LINE
  5
159C2
  8
01
 10
1113.07272880746
 20
-115.7570372883742
 30
0.0
 11
1112.949532752939
 21
-115.8211459699546
 31
0.0
  0
LINE
  5
159C3
  8
01
 10
1112.949532752939
 20
-115.8211459699546
 30
0.0
 11
1112.828691250106
 21
-115.8873920621968
 31
0.0
  0
LINE
  5
159C4
  8
01
 10
1112.828691250106
 20
-115.8873920621968
 30
0.0
 11
1112.7102946326
 21
-115.9557354074545
 31
0.0
  0
LINE
  5
159C5
  8
01
 10
1112.7102946326
 20
-115.9557354074545
 30
0.0
 11
1112.594433234059
 21
-116.0261358480807
 31
0.0
  0
LINE
  5
159C6
  8
01
 10
1112.594433234059
 20
-116.0261358480807
 30
0.0
 11
1112.481197388124
 21
-116.0985532264281
 31
0.0
  0
LINE
  5
159C7
  8
01
 10
1112.481197388124
 20
-116.0985532264281
 30
0.0
 11
1112.370677428432
 21
-116.1729473848486
 31
0.0
  0
LINE
  5
159C8
  8
01
 10
1112.370677428432
 20
-116.1729473848486
 30
0.0
 11
1112.262963688623
 21
-116.2492781656952
 31
0.0
  0
LINE
  5
159C9
  8
01
 10
1112.262963688623
 20
-116.2492781656952
 30
0.0
 11
1112.158146502337
 21
-116.3275054113205
 31
0.0
  0
LINE
  5
159CA
  8
01
 10
1112.158146502337
 20
-116.3275054113205
 30
0.0
 11
1112.083375477169
 21
-116.3858413574312
 31
0.0
  0
LINE
  5
159CB
  8
01
 10
1112.083375477169
 20
-116.3858413574312
 30
0.0
 11
1112.010257783454
 21
-116.4450139148717
 31
0.0
  0
LINE
  5
159CC
  8
01
 10
1112.010257783454
 20
-116.4450139148717
 30
0.0
 11
1111.93879867951
 21
-116.5049996632238
 31
0.0
  0
LINE
  5
159CD
  8
01
 10
1111.93879867951
 20
-116.5049996632238
 30
0.0
 11
1111.86900342365
 21
-116.5657751820659
 31
0.0
  0
LINE
  5
159CE
  8
01
 10
1111.86900342365
 20
-116.5657751820659
 30
0.0
 11
1111.800877274187
 21
-116.6273170509799
 31
0.0
  0
LINE
  5
159CF
  8
01
 10
1111.800877274187
 20
-116.6273170509799
 30
0.0
 11
1111.734425489437
 21
-116.6896018495431
 31
0.0
  0
LINE
  5
159D0
  8
01
 10
1111.734425489437
 20
-116.6896018495431
 30
0.0
 11
1111.669653327714
 21
-116.7526061573376
 31
0.0
  0
LINE
  5
159D1
  8
01
 10
1111.669653327714
 20
-116.7526061573376
 30
0.0
 11
1111.606566047333
 21
-116.8163065539416
 31
0.0
  0
LINE
  5
159D2
  8
01
 10
1111.606566047333
 20
-116.8163065539416
 30
0.0
 11
1111.545168906607
 21
-116.8806796189369
 31
0.0
  0
LINE
  5
159D3
  8
01
 10
1111.545168906607
 20
-116.8806796189369
 30
0.0
 11
1111.485467163852
 21
-116.945701931902
 31
0.0
  0
LINE
  5
159D4
  8
01
 10
1111.485467163852
 20
-116.945701931902
 30
0.0
 11
1111.427466077381
 21
-117.011350072416
 31
0.0
  0
LINE
  5
159D5
  8
01
 10
1111.427466077381
 20
-117.011350072416
 30
0.0
 11
1111.37117090551
 21
-117.0776006200608
 31
0.0
  0
LINE
  5
159D6
  8
01
 10
1111.37117090551
 20
-117.0776006200608
 30
0.0
 11
1111.316586906553
 21
-117.1444301544157
 31
0.0
  0
LINE
  5
159D7
  8
01
 10
1111.316586906553
 20
-117.1444301544157
 30
0.0
 11
1111.263719338823
 21
-117.2118152550597
 31
0.0
  0
LINE
  5
159D8
  8
01
 10
1111.263719338823
 20
-117.2118152550597
 30
0.0
 11
1111.212573460636
 21
-117.2797325015731
 31
0.0
  0
LINE
  5
159D9
  8
01
 10
1111.212573460636
 20
-117.2797325015731
 30
0.0
 11
1111.163154530306
 21
-117.3481584735368
 31
0.0
  0
LINE
  5
159DA
  8
01
 10
1111.163154530306
 20
-117.3481584735368
 30
0.0
 11
1111.115467806148
 21
-117.4170697505301
 31
0.0
  0
LINE
  5
159DB
  8
01
 10
1111.115467806148
 20
-117.4170697505301
 30
0.0
 11
1111.069518546475
 21
-117.4864429121321
 31
0.0
  0
LINE
  5
159DC
  8
01
 10
1111.069518546475
 20
-117.4864429121321
 30
0.0
 11
1111.025312009602
 21
-117.5562545379239
 31
0.0
  0
LINE
  5
159DD
  8
01
 10
1111.025312009602
 20
-117.5562545379239
 30
0.0
 11
1110.982853453845
 21
-117.6264812074846
 31
0.0
  0
LINE
  5
159DE
  8
01
 10
1110.982853453845
 20
-117.6264812074846
 30
0.0
 11
1110.942148137516
 21
-117.6970995003944
 31
0.0
  0
LINE
  5
159DF
  8
01
 10
1110.942148137516
 20
-117.6970995003944
 30
0.0
 11
1110.903201318931
 21
-117.7680859962325
 31
0.0
  0
LINE
  5
159E0
  8
01
 10
1110.903201318931
 20
-117.7680859962325
 30
0.0
 11
1110.866018256404
 21
-117.8394172745798
 31
0.0
  0
LINE
  5
159E1
  8
01
 10
1110.866018256404
 20
-117.8394172745798
 30
0.0
 11
1110.830604208249
 21
-117.9110699150165
 31
0.0
  0
LINE
  5
159E2
  8
01
 10
1110.830604208249
 20
-117.9110699150165
 30
0.0
 11
1110.796964432782
 21
-117.9830204971208
 31
0.0
  0
LINE
  5
159E3
  8
01
 10
1110.796964432782
 20
-117.9830204971208
 30
0.0
 11
1110.765104188316
 21
-118.0552456004748
 31
0.0
  0
LINE
  5
159E4
  8
01
 10
1110.765104188316
 20
-118.0552456004748
 30
0.0
 11
1110.735028733165
 21
-118.1277218046566
 31
0.0
  0
LINE
  5
159E5
  8
01
 10
1110.735028733165
 20
-118.1277218046566
 30
0.0
 11
1110.706743325645
 21
-118.2004256892474
 31
0.0
  0
LINE
  5
159E6
  8
01
 10
1110.706743325645
 20
-118.2004256892474
 30
0.0
 11
1110.680253224069
 21
-118.2733338338262
 31
0.0
  0
LINE
  5
159E7
  8
01
 10
1110.680253224069
 20
-118.2733338338262
 30
0.0
 11
1110.655563686753
 21
-118.3464228179723
 31
0.0
  0
LINE
  5
159E8
  8
01
 10
1110.655563686753
 20
-118.3464228179723
 30
0.0
 11
1110.632679972009
 21
-118.4196692212668
 31
0.0
  0
LINE
  5
159E9
  8
01
 10
1110.632679972009
 20
-118.4196692212668
 30
0.0
 11
1110.611607338154
 21
-118.4930496232905
 31
0.0
  0
LINE
  5
159EA
  8
01
 10
1229.500969298213
 20
-138.2170253875997
 30
0.0
 11
1237.500969298217
 21
-138.2170253875997
 31
0.0
  0
LINE
  5
159EB
  8
01
 10
1116.500969298219
 20
-149.7076920343793
 30
0.0
 11
1222.500969298213
 21
-149.7076920343811
 31
0.0
  0
LINE
  5
159EC
  8
01
 10
1110.50096929822
 20
-119.1214706192754
 30
0.0
 11
1110.50096929822
 21
-117.2123573486665
 31
0.0
  0
LINE
  5
159ED
  8
01
 10
1222.500989251382
 20
-149.7076921390694
 30
0.0
 11
1222.653595007101
 21
-149.7069289507785
 31
0.0
  0
LINE
  5
159EE
  8
01
 10
1222.653595007101
 20
-149.7069289507785
 30
0.0
 11
1222.80601422701
 21
-149.7030645420914
 31
0.0
  0
LINE
  5
159EF
  8
01
 10
1222.80601422701
 20
-149.7030645420914
 30
0.0
 11
1222.958156576515
 21
-149.6961390710808
 31
0.0
  0
LINE
  5
159F0
  8
01
 10
1222.958156576515
 20
-149.6961390710808
 30
0.0
 11
1223.109931721025
 21
-149.6861926958159
 31
0.0
  0
LINE
  5
159F1
  8
01
 10
1223.109931721025
 20
-149.6861926958159
 30
0.0
 11
1223.261249325947
 21
-149.6732655743685
 31
0.0
  0
LINE
  5
159F2
  8
01
 10
1223.261249325947
 20
-149.6732655743685
 30
0.0
 11
1223.412019056688
 21
-149.6573978648107
 31
0.0
  0
LINE
  5
159F3
  8
01
 10
1223.412019056688
 20
-149.6573978648107
 30
0.0
 11
1223.562150578658
 21
-149.6386297252125
 31
0.0
  0
LINE
  5
159F4
  8
01
 10
1223.562150578658
 20
-149.6386297252125
 30
0.0
 11
1223.711553557262
 21
-149.6170013136457
 31
0.0
  0
LINE
  5
159F5
  8
01
 10
1223.711553557262
 20
-149.6170013136457
 30
0.0
 11
1223.860137657909
 21
-149.5925527881814
 31
0.0
  0
LINE
  5
159F6
  8
01
 10
1223.860137657909
 20
-149.5925527881814
 30
0.0
 11
1224.007812546006
 21
-149.5653243068905
 31
0.0
  0
LINE
  5
159F7
  8
01
 10
1224.007812546006
 20
-149.5653243068905
 30
0.0
 11
1224.154487886961
 21
-149.535356027844
 31
0.0
  0
LINE
  5
159F8
  8
01
 10
1224.154487886961
 20
-149.535356027844
 30
0.0
 11
1224.300073346182
 21
-149.502688109113
 31
0.0
  0
LINE
  5
159F9
  8
01
 10
1224.300073346182
 20
-149.502688109113
 30
0.0
 11
1224.444478589076
 21
-149.4673607087684
 31
0.0
  0
LINE
  5
159FA
  8
01
 10
1224.444478589076
 20
-149.4673607087684
 30
0.0
 11
1224.58761328105
 21
-149.4294139848821
 31
0.0
  0
LINE
  5
159FB
  8
01
 10
1224.58761328105
 20
-149.4294139848821
 30
0.0
 11
1224.729387087513
 21
-149.3888880955251
 31
0.0
  0
LINE
  5
159FC
  8
01
 10
1224.729387087513
 20
-149.3888880955251
 30
0.0
 11
1224.869709673872
 21
-149.3458231987684
 31
0.0
  0
LINE
  5
159FD
  8
01
 10
1224.869709673872
 20
-149.3458231987684
 30
0.0
 11
1225.008490705535
 21
-149.3002594526829
 31
0.0
  0
LINE
  5
159FE
  8
01
 10
1225.008490705535
 20
-149.3002594526829
 30
0.0
 11
1225.145639847908
 21
-149.2522370153388
 31
0.0
  0
LINE
  5
159FF
  8
01
 10
1225.145639847908
 20
-149.2522370153388
 30
0.0
 11
1225.281066766401
 21
-149.2017960448097
 31
0.0
  0
LINE
  5
15A00
  8
01
 10
1225.281066766401
 20
-149.2017960448097
 30
0.0
 11
1225.41468112642
 21
-149.148976699164
 31
0.0
  0
LINE
  5
15A01
  8
01
 10
1225.41468112642
 20
-149.148976699164
 30
0.0
 11
1225.546392593374
 21
-149.0938191364753
 31
0.0
  0
LINE
  5
15A02
  8
01
 10
1225.546392593374
 20
-149.0938191364753
 30
0.0
 11
1225.676110832668
 21
-149.0363635148137
 31
0.0
  0
LINE
  5
15A03
  8
01
 10
1225.676110832668
 20
-149.0363635148137
 30
0.0
 11
1225.803745509713
 21
-148.9766499922484
 31
0.0
  0
LINE
  5
15A04
  8
01
 10
1225.803745509713
 20
-148.9766499922484
 30
0.0
 11
1225.929206289915
 21
-148.9147187268541
 31
0.0
  0
LINE
  5
15A05
  8
01
 10
1225.929206289915
 20
-148.9147187268541
 30
0.0
 11
1226.052402838681
 21
-148.8506098766998
 31
0.0
  0
LINE
  5
15A06
  8
01
 10
1226.052402838681
 20
-148.8506098766998
 30
0.0
 11
1226.17324482142
 21
-148.7843635998565
 31
0.0
  0
LINE
  5
15A07
  8
01
 10
1226.17324482142
 20
-148.7843635998565
 30
0.0
 11
1226.291641903538
 21
-148.7160200543954
 31
0.0
  0
LINE
  5
15A08
  8
01
 10
1226.291641903538
 20
-148.7160200543954
 30
0.0
 11
1226.407503750445
 21
-148.645619398389
 31
0.0
  0
LINE
  5
15A09
  8
01
 10
1226.407503750445
 20
-148.645619398389
 30
0.0
 11
1226.520740027545
 21
-148.5732017899068
 31
0.0
  0
LINE
  5
15A0A
  8
01
 10
1226.520740027545
 20
-148.5732017899068
 30
0.0
 11
1226.631260400249
 21
-148.4988073870213
 31
0.0
  0
LINE
  5
15A0B
  8
01
 10
1226.631260400249
 20
-148.4988073870213
 30
0.0
 11
1226.738974533964
 21
-148.4224763478019
 31
0.0
  0
LINE
  5
15A0C
  8
01
 10
1226.738974533964
 20
-148.4224763478019
 30
0.0
 11
1226.843792094096
 21
-148.3442488303212
 31
0.0
  0
LINE
  5
15A0D
  8
01
 10
1226.843792094096
 20
-148.3442488303212
 30
0.0
 11
1226.938225896773
 21
-148.2702120840481
 31
0.0
  0
LINE
  5
15A0E
  8
01
 10
1226.938225896773
 20
-148.2702120840481
 30
0.0
 11
1227.030004608353
 21
-148.1948429817444
 31
0.0
  0
LINE
  5
15A0F
  8
01
 10
1227.030004608353
 20
-148.1948429817444
 30
0.0
 11
1227.119117541403
 21
-148.1181891250139
 31
0.0
  0
LINE
  5
15A10
  8
01
 10
1227.119117541403
 20
-148.1181891250139
 30
0.0
 11
1227.205554008488
 21
-148.0402981154598
 31
0.0
  0
LINE
  5
15A11
  8
01
 10
1227.205554008488
 20
-148.0402981154598
 30
0.0
 11
1227.289303322173
 21
-147.9612175546858
 31
0.0
  0
LINE
  5
15A12
  8
01
 10
1227.289303322173
 20
-147.9612175546858
 30
0.0
 11
1227.370354795024
 21
-147.880995044296
 31
0.0
  0
LINE
  5
15A13
  8
01
 10
1227.370354795024
 20
-147.880995044296
 30
0.0
 11
1227.448697739607
 21
-147.7996781858924
 31
0.0
  0
LINE
  5
15A14
  8
01
 10
1227.448697739607
 20
-147.7996781858924
 30
0.0
 11
1227.52432146849
 21
-147.7173145810798
 31
0.0
  0
LINE
  5
15A15
  8
01
 10
1227.52432146849
 20
-147.7173145810798
 30
0.0
 11
1227.597215294235
 21
-147.6339518314621
 31
0.0
  0
LINE
  5
15A16
  8
01
 10
1227.597215294235
 20
-147.6339518314621
 30
0.0
 11
1227.66736852941
 21
-147.5496375386433
 31
0.0
  0
LINE
  5
15A17
  8
01
 10
1227.66736852941
 20
-147.5496375386433
 30
0.0
 11
1227.73477048658
 21
-147.4644193042245
 31
0.0
  0
LINE
  5
15A18
  8
01
 10
1227.73477048658
 20
-147.4644193042245
 30
0.0
 11
1227.799410478311
 21
-147.3783447298124
 31
0.0
  0
LINE
  5
15A19
  8
01
 10
1227.799410478311
 20
-147.3783447298124
 30
0.0
 11
1227.861277817169
 21
-147.291461417009
 31
0.0
  0
LINE
  5
15A1A
  8
01
 10
1227.861277817169
 20
-147.291461417009
 30
0.0
 11
1227.92036181572
 21
-147.2038169674183
 31
0.0
  0
LINE
  5
15A1B
  8
01
 10
1227.92036181572
 20
-147.2038169674183
 30
0.0
 11
1227.976651786529
 21
-147.1154589826442
 31
0.0
  0
LINE
  5
15A1C
  8
01
 10
1227.976651786529
 20
-147.1154589826442
 30
0.0
 11
1228.030137042162
 21
-147.0264350642888
 31
0.0
  0
LINE
  5
15A1D
  8
01
 10
1228.030137042162
 20
-147.0264350642888
 30
0.0
 11
1228.080806895185
 21
-146.9367928139568
 31
0.0
  0
LINE
  5
15A1E
  8
01
 10
1228.080806895185
 20
-146.9367928139568
 30
0.0
 11
1228.128650658164
 21
-146.8465798332531
 31
0.0
  0
LINE
  5
15A1F
  8
01
 10
1228.128650658164
 20
-146.8465798332531
 30
0.0
 11
1228.173657643664
 21
-146.755843723779
 31
0.0
  0
LINE
  5
15A20
  8
01
 10
1228.173657643664
 20
-146.755843723779
 30
0.0
 11
1228.215817164251
 21
-146.6646320871391
 31
0.0
  0
LINE
  5
15A21
  8
01
 10
1228.215817164251
 20
-146.6646320871391
 30
0.0
 11
1228.25511853249
 21
-146.5729925249375
 31
0.0
  0
LINE
  5
15A22
  8
01
 10
1228.25511853249
 20
-146.5729925249375
 30
0.0
 11
1228.291551060949
 21
-146.4809726387771
 31
0.0
  0
LINE
  5
15A23
  8
01
 10
1228.291551060949
 20
-146.4809726387771
 30
0.0
 11
1228.325104062192
 21
-146.3886200302618
 31
0.0
  0
LINE
  5
15A24
  8
01
 10
1228.325104062192
 20
-146.3886200302618
 30
0.0
 11
1228.355766848786
 21
-146.2959823009955
 31
0.0
  0
LINE
  5
15A25
  8
01
 10
1228.355766848786
 20
-146.2959823009955
 30
0.0
 11
1228.383528733295
 21
-146.2031070525813
 31
0.0
  0
LINE
  5
15A26
  8
01
 10
1228.383528733295
 20
-146.2031070525813
 30
0.0
 11
1228.408379028286
 21
-146.1100418866231
 31
0.0
  0
LINE
  5
15A27
  8
01
 10
1228.408379028286
 20
-146.1100418866231
 30
0.0
 11
1228.430307046325
 21
-146.0168344047238
 31
0.0
  0
LINE
  5
15A28
  8
01
 10
1228.430307046325
 20
-146.0168344047238
 30
0.0
 11
1228.449302099976
 21
-145.9235322084883
 31
0.0
  0
LINE
  5
15A29
  8
01
 10
1228.449302099976
 20
-145.9235322084883
 30
0.0
 11
1228.465353501807
 21
-145.8301828995195
 31
0.0
  0
LINE
  5
15A2A
  8
01
 10
1228.465353501807
 20
-145.8301828995195
 30
0.0
 11
1228.478450564383
 21
-145.7368340794205
 31
0.0
  0
LINE
  5
15A2B
  8
01
 10
1228.478450564383
 20
-145.7368340794205
 30
0.0
 11
1228.488582600269
 21
-145.6435333497961
 31
0.0
  0
LINE
  5
15A2C
  8
01
 10
1228.488582600269
 20
-145.6435333497961
 30
0.0
 11
1228.495738922032
 21
-145.5503283122484
 31
0.0
  0
LINE
  5
15A2D
  8
01
 10
1110.506199675396
 20
-145.5503283121893
 30
0.0
 11
1110.513355995985
 21
-145.6435333333861
 31
0.0
  0
LINE
  5
15A2E
  8
01
 10
1110.513355995985
 20
-145.6435333333861
 30
0.0
 11
1110.52348802959
 21
-145.7368340466514
 31
0.0
  0
LINE
  5
15A2F
  8
01
 10
1110.52348802959
 20
-145.7368340466514
 30
0.0
 11
1110.536585088785
 21
-145.8301828504077
 31
0.0
  0
LINE
  5
15A30
  8
01
 10
1110.536585088785
 20
-145.8301828504077
 30
0.0
 11
1110.552636486147
 21
-145.9235321430738
 31
0.0
  0
LINE
  5
15A31
  8
01
 10
1110.552636486147
 20
-145.9235321430738
 30
0.0
 11
1110.571631534254
 21
-146.0168343230694
 31
0.0
  0
LINE
  5
15A32
  8
01
 10
1110.571631534254
 20
-146.0168343230694
 30
0.0
 11
1110.593559545682
 21
-146.110041788816
 31
0.0
  0
LINE
  5
15A33
  8
01
 10
1110.593559545682
 20
-146.110041788816
 30
0.0
 11
1110.618409833005
 21
-146.2031069387326
 31
0.0
  0
LINE
  5
15A34
  8
01
 10
1110.618409833005
 20
-146.2031069387326
 30
0.0
 11
1110.646171708803
 21
-146.2959821712416
 31
0.0
  0
LINE
  5
15A35
  8
01
 10
1110.646171708803
 20
-146.2959821712416
 30
0.0
 11
1110.676834485648
 21
-146.3886198847599
 31
0.0
  0
LINE
  5
15A36
  8
01
 10
1110.676834485648
 20
-146.3886198847599
 30
0.0
 11
1110.710387476121
 21
-146.4809724777101
 31
0.0
  0
LINE
  5
15A37
  8
01
 10
1110.710387476121
 20
-146.4809724777101
 30
0.0
 11
1110.746819992796
 21
-146.5729923485128
 31
0.0
  0
LINE
  5
15A38
  8
01
 10
1110.746819992796
 20
-146.5729923485128
 30
0.0
 11
1110.786121348249
 21
-146.6646318955868
 31
0.0
  0
LINE
  5
15A39
  8
01
 10
1110.786121348249
 20
-146.6646318955868
 30
0.0
 11
1110.828280855056
 21
-146.7558435173528
 31
0.0
  0
LINE
  5
15A3A
  8
01
 10
1110.828280855056
 20
-146.7558435173528
 30
0.0
 11
1110.873287825795
 21
-146.8465796122314
 31
0.0
  0
LINE
  5
15A3B
  8
01
 10
1110.873287825795
 20
-146.8465796122314
 30
0.0
 11
1110.921131573043
 21
-146.9367925786432
 31
0.0
  0
LINE
  5
15A3C
  8
01
 10
1110.921131573043
 20
-146.9367925786432
 30
0.0
 11
1110.971801409373
 21
-147.0264348150072
 31
0.0
  0
LINE
  5
15A3D
  8
01
 10
1110.971801409373
 20
-147.0264348150072
 30
0.0
 11
1111.025286647365
 21
-147.1154587197439
 31
0.0
  0
LINE
  5
15A3E
  8
01
 10
1111.025286647365
 20
-147.1154587197439
 30
0.0
 11
1111.081576599593
 21
-147.2038166912739
 31
0.0
  0
LINE
  5
15A3F
  8
01
 10
1111.081576599593
 20
-147.2038166912739
 30
0.0
 11
1111.140660578635
 21
-147.291461128018
 31
0.0
  0
LINE
  5
15A40
  8
01
 10
1111.140660578635
 20
-147.291461128018
 30
0.0
 11
1111.202527897066
 21
-147.3783444283949
 31
0.0
  0
LINE
  5
15A41
  8
01
 10
1111.202527897066
 20
-147.3783444283949
 30
0.0
 11
1111.267167867464
 21
-147.4644189908263
 31
0.0
  0
LINE
  5
15A42
  8
01
 10
1111.267167867464
 20
-147.4644189908263
 30
0.0
 11
1111.334569802403
 21
-147.5496372137318
 31
0.0
  0
LINE
  5
15A43
  8
01
 10
1111.334569802403
 20
-147.5496372137318
 30
0.0
 11
1111.404723014462
 21
-147.633951495533
 31
0.0
  0
LINE
  5
15A44
  8
01
 10
1111.404723014462
 20
-147.633951495533
 30
0.0
 11
1111.477616816215
 21
-147.7173142346478
 31
0.0
  0
LINE
  5
15A45
  8
01
 10
1111.477616816215
 20
-147.7173142346478
 30
0.0
 11
1111.55324052024
 21
-147.7996778294969
 31
0.0
  0
LINE
  5
15A46
  8
01
 10
1111.55324052024
 20
-147.7996778294969
 30
0.0
 11
1111.631583439113
 21
-147.8809946785027
 31
0.0
  0
LINE
  5
15A47
  8
01
 10
1111.631583439113
 20
-147.8809946785027
 30
0.0
 11
1111.712634885409
 21
-147.9612171800823
 31
0.0
  0
LINE
  5
15A48
  8
01
 10
1111.712634885409
 20
-147.9612171800823
 30
0.0
 11
1111.796384171707
 21
-148.0402977326589
 31
0.0
  0
LINE
  5
15A49
  8
01
 10
1111.796384171707
 20
-148.0402977326589
 30
0.0
 11
1111.882820610581
 21
-148.1181887346506
 31
0.0
  0
LINE
  5
15A4A
  8
01
 10
1111.882820610581
 20
-148.1181887346506
 30
0.0
 11
1111.971933514609
 21
-148.1948425844789
 31
0.0
  0
LINE
  5
15A4B
  8
01
 10
1111.971933514609
 20
-148.1948425844789
 30
0.0
 11
1112.063712196367
 21
-148.2702116805635
 31
0.0
  0
LINE
  5
15A4C
  8
01
 10
1112.063712196367
 20
-148.2702116805635
 30
0.0
 11
1112.158145968431
 21
-148.3442484213242
 31
0.0
  0
LINE
  5
15A4D
  8
01
 10
1112.158145968431
 20
-148.3442484213242
 30
0.0
 11
1112.262963531304
 21
-148.4224759603462
 31
0.0
  0
LINE
  5
15A4E
  8
01
 10
1112.262963531304
 20
-148.4224759603462
 30
0.0
 11
1112.370677669012
 21
-148.4988070208024
 31
0.0
  0
LINE
  5
15A4F
  8
01
 10
1112.370677669012
 20
-148.4988070208024
 30
0.0
 11
1112.481198046927
 21
-148.5732014445971
 31
0.0
  0
LINE
  5
15A50
  8
01
 10
1112.481198046927
 20
-148.5732014445971
 30
0.0
 11
1112.594434330423
 21
-148.6456190736321
 31
0.0
  0
LINE
  5
15A51
  8
01
 10
1112.594434330423
 20
-148.6456190736321
 30
0.0
 11
1112.710296184872
 21
-148.7160197498101
 31
0.0
  0
LINE
  5
15A52
  8
01
 10
1112.710296184872
 20
-148.7160197498101
 30
0.0
 11
1112.828693275644
 21
-148.7843633150337
 31
0.0
  0
LINE
  5
15A53
  8
01
 10
1112.828693275644
 20
-148.7843633150337
 30
0.0
 11
1112.949535268114
 21
-148.8506096112055
 31
0.0
  0
LINE
  5
15A54
  8
01
 10
1112.949535268114
 20
-148.8506096112055
 30
0.0
 11
1113.072731827652
 21
-148.9147184802291
 31
0.0
  0
LINE
  5
15A55
  8
01
 10
1113.072731827652
 20
-148.9147184802291
 30
0.0
 11
1113.198192619632
 21
-148.9766497640053
 31
0.0
  0
LINE
  5
15A56
  8
01
 10
1113.198192619632
 20
-148.9766497640053
 30
0.0
 11
1113.325827309425
 21
-149.0363633044394
 31
0.0
  0
LINE
  5
15A57
  8
01
 10
1113.325827309425
 20
-149.0363633044394
 30
0.0
 11
1113.455545562403
 21
-149.0938189434314
 31
0.0
  0
LINE
  5
15A58
  8
01
 10
1113.455545562403
 20
-149.0938189434314
 30
0.0
 11
1113.58725704394
 21
-149.1489765228857
 31
0.0
  0
LINE
  5
15A59
  8
01
 10
1113.58725704394
 20
-149.1489765228857
 30
0.0
 11
1113.720871419406
 21
-149.201795884705
 31
0.0
  0
LINE
  5
15A5A
  8
01
 10
1113.720871419406
 20
-149.201795884705
 30
0.0
 11
1113.856298354174
 21
-149.252236870791
 31
0.0
  0
LINE
  5
15A5B
  8
01
 10
1113.856298354174
 20
-149.252236870791
 30
0.0
 11
1113.993447513618
 21
-149.3002593230472
 31
0.0
  0
LINE
  5
15A5C
  8
01
 10
1113.993447513618
 20
-149.3002593230472
 30
0.0
 11
1114.132228563108
 21
-149.3458230833753
 31
0.0
  0
LINE
  5
15A5D
  8
01
 10
1114.132228563108
 20
-149.3458230833753
 30
0.0
 11
1114.272551168017
 21
-149.388887993679
 31
0.0
  0
LINE
  5
15A5E
  8
01
 10
1114.272551168017
 20
-149.388887993679
 30
0.0
 11
1114.414324993717
 21
-149.4294138958599
 31
0.0
  0
LINE
  5
15A5F
  8
01
 10
1114.414324993717
 20
-149.4294138958599
 30
0.0
 11
1114.55745970558
 21
-149.4673606318215
 31
0.0
  0
LINE
  5
15A60
  8
01
 10
1114.55745970558
 20
-149.4673606318215
 30
0.0
 11
1114.70186496898
 21
-149.5026880434666
 31
0.0
  0
LINE
  5
15A61
  8
01
 10
1114.70186496898
 20
-149.5026880434666
 30
0.0
 11
1114.847450449287
 21
-149.5353559726977
 31
0.0
  0
LINE
  5
15A62
  8
01
 10
1114.847450449287
 20
-149.5353559726977
 30
0.0
 11
1114.994125811874
 21
-149.5653242614176
 31
0.0
  0
LINE
  5
15A63
  8
01
 10
1114.994125811874
 20
-149.5653242614176
 30
0.0
 11
1115.141800722114
 21
-149.5925527515278
 31
0.0
  0
LINE
  5
15A64
  8
01
 10
1115.141800722114
 20
-149.5925527515278
 30
0.0
 11
1115.290384845377
 21
-149.617001284932
 31
0.0
  0
LINE
  5
15A65
  8
01
 10
1115.290384845377
 20
-149.617001284932
 30
0.0
 11
1115.439787847038
 21
-149.6386297035338
 31
0.0
  0
LINE
  5
15A66
  8
01
 10
1115.439787847038
 20
-149.6386297035338
 30
0.0
 11
1115.589919392468
 21
-149.6573978492329
 31
0.0
  0
LINE
  5
15A67
  8
01
 10
1115.589919392468
 20
-149.6573978492329
 30
0.0
 11
1115.740689147038
 21
-149.6732655639357
 31
0.0
  0
LINE
  5
15A68
  8
01
 10
1115.740689147038
 20
-149.6732655639357
 30
0.0
 11
1115.892006776123
 21
-149.6861926895422
 31
0.0
  0
LINE
  5
15A69
  8
01
 10
1115.892006776123
 20
-149.6861926895422
 30
0.0
 11
1116.043781945093
 21
-149.6961390679558
 31
0.0
  0
LINE
  5
15A6A
  8
01
 10
1116.043781945093
 20
-149.6961390679558
 30
0.0
 11
1116.195924319321
 21
-149.70306454108
 31
0.0
  0
LINE
  5
15A6B
  8
01
 10
1116.195924319321
 20
-149.70306454108
 30
0.0
 11
1116.348343564179
 21
-149.7069289508167
 31
0.0
  0
LINE
  5
15A6C
  8
01
 10
1116.348343564179
 20
-149.7069289508167
 30
0.0
 11
1116.500949345039
 21
-149.7076921390685
 31
0.0
  0
LINE
  5
15A6D
  8
01
 10
1110.50083889698
 20
-115.4404888867343
 30
0.0
 11
1110.500952775559
 21
-115.4659525976426
 31
0.0
  0
ARC
  5
15A6E
  8
01
 10
1199.501563824606
 20
-113.9640622072607
 30
0.0
 40
1.00000000000014
 50
270.0000125111919
 51
351.9315904311497
  0
ARC
  5
15A6F
  8
01
 10
1237.500969298217
 20
-139.2170253875997
 30
0.0
 40
0.9999999999997762
 50
8.068400375760277
 51
89.99999998650345
  0
ARC
  5
15A70
  8
01
 10
1229.500969298213
 20
-139.2170253875997
 30
0.0
 40
0.9999999999998885
 50
90.00000001349655
 51
172.0590275843294
  0
ARC
  5
15A71
  8
01
 10
1199.501350113921
 20
-97.09629779840225
 30
0.0
 40
1.000213724624115
 50
359.9904352728581
 51
89.98775907538635
  0
LINE
  5
15A72
  8
01
 10
1200.501563824608
 20
-97.0964647700589
 30
0.0
 11
1200.501563824608
 21
-97.14598175349647
 31
0.0
  0
LINE
  5
15A73
  8
01
 10
1197.456808349024
 20
-94.11354704884934
 30
0.0
 11
1198.10156382461
 21
-94.11354704884934
 31
0.0
  0
LINE
  5
15A74
  8
01
 10
1138.456808349024
 20
-94.1135470505701
 30
0.0
 11
1137.901563824609
 21
-94.1135470505701
 31
0.0
  0
LINE
  5
15A75
  8
01
 10
1197.456808349024
 20
-94.11354704885753
 30
0.0
 11
1138.456808349024
 21
-94.1135470505701
 31
0.0
  0
LINE
  5
15A77
  8
01
 10
1097.500969298216
 20
-97.1459817387663
 30
0.0
 11
1097.500969298216
 21
-97.09710525076162
 31
0.0
  0
LINE
  5
15A78
  8
1DIM
 10
1237.500969298217
 20
-168.5713683179279
 30
0.0
 11
1237.500969298217
 21
-168.5722340618408
 31
0.0
  0
LINE
  5
15A79
  8
1DIM
 10
1237.500969298217
 20
-168.5722340618408
 30
0.0
 11
1237.500969298217
 21
-168.5724391673471
 31
0.0
  0
LINE
  5
15A7A
  8
1DIM
 10
1237.500969298217
 20
-168.5724391673471
 30
0.0
 11
1237.500969298217
 21
-168.5724849039839
 31
0.0
  0
LINE
  5
15A7B
  8
1DIM
 10
1237.500969298217
 20
-168.5724849039839
 30
0.0
 11
1237.500969298217
 21
-168.572493584827
 31
0.0
  0
LINE
  5
15A7C
  8
1DIM
 10
1237.500969298217
 20
-168.572493584827
 30
0.0
 11
1237.500969298217
 21
-168.5724928138338
 31
0.0
  0
LINE
  5
15A7D
  8
1DIM
 10
1237.500969298217
 20
-168.5724928138338
 30
0.0
 11
1237.500969298217
 21
-168.5711992607053
 31
0.0
  0
LINE
  5
15A7E
  8
01
 10
1098.500969298216
 20
-168.5713683179279
 30
0.0
 11
1098.500969298216
 21
-168.5722340618408
 31
0.0
  0
LINE
  5
15A7F
  8
01
 10
1098.500969298216
 20
-168.5722340618408
 30
0.0
 11
1098.500969298216
 21
-168.5724391673471
 31
0.0
  0
LINE
  5
15A80
  8
01
 10
1098.500969298216
 20
-168.5724391673471
 30
0.0
 11
1098.500969298216
 21
-168.5724849039839
 31
0.0
  0
LINE
  5
15A81
  8
01
 10
1098.500969298216
 20
-168.5724849039839
 30
0.0
 11
1098.500969298216
 21
-168.572493584827
 31
0.0
  0
LINE
  5
15A82
  8
01
 10
1098.500969298216
 20
-168.572493584827
 30
0.0
 11
1098.500969298216
 21
-168.5724928138338
 31
0.0
  0
LINE
  5
15A83
  8
01
 10
1098.500969298216
 20
-168.5724928138338
 30
0.0
 11
1098.500969298216
 21
-168.5711992607053
 31
0.0
  0
LINE
  5
15A84
  8
01
 10
1238.500969298217
 20
-163.3392302567668
 30
0.0
 11
1238.500969298217
 21
-143.0737506394294
 31
0.0
  0
LINE
  5
15A85
  8
01
 10
1097.500969298216
 20
-163.3392302567668
 30
0.0
 11
1097.500969298216
 21
-97.47297865367045
 31
0.0
  0
LINE
  5
15A87
  8
01
 10
1116.50096929822
 20
-110.8733809921828
 30
0.0
 11
1199.501563824604
 21
-110.8733809921746
 31
0.0
  0
LINE
  5
15A88
  8
01
 10
1200.501563824605
 20
-110.1073367735603
 30
0.0
 11
1200.501563824608
 21
-97.47297865289374
 31
0.0
  0
LINE
  5
15A89
  8
01
 10
1228.500969298213
 20
-139.2170253875943
 30
0.0
 11
1228.500969298213
 21
-145.3453809325479
 31
0.0
  0
LINE
  5
15A8A
  8
01
 10
1110.50096929822
 20
-145.345380932547
 30
0.0
 11
1110.50096929822
 21
-119.1214706192754
 31
0.0
  0
ARC
  5
15A8B
  8
01
 10
1224.979981125485
 20
-145.3453808551426
 30
0.0
 40
3.520988172727784
 50
359.525470761192
 51
359.9999987403921
  0
LINE
  5
15A8C
  8
01
 10
1228.476698749891
 20
-145.758375889593
 30
0.0
 11
1228.495004138447
 21
-145.5502836223645
 31
0.0
  0
LINE
  5
15A8D
  8
01
 10
1110.506934457985
 20
-145.5502836223636
 30
0.0
 11
1110.525239846542
 21
-145.7583758895912
 31
0.0
  0
ARC
  5
15A8E
  8
01
 10
1114.021957471967
 20
-145.3453808551317
 30
0.0
 40
3.520988173747342
 50
180.0000012597121
 51
180.4745289760072
  0
LINE
  5
15A8F
  8
01
 10
1116.50096929822
 20
-110.8733809921828
 30
0.0
 11
1116.234696071867
 21
-110.8779093601938
 31
0.0
  0
LINE
  5
15A90
  8
01
 10
1116.234696071867
 20
-110.8779093601938
 30
0.0
 11
1115.96429310281
 21
-110.891804344456
 31
0.0
  0
LINE
  5
15A91
  8
01
 10
1115.96429310281
 20
-110.891804344456
 30
0.0
 11
1115.827775092451
 21
-110.9024029528614
 31
0.0
  0
LINE
  5
15A92
  8
01
 10
1115.827775092451
 20
-110.9024029528614
 30
0.0
 11
1115.690512797687
 21
-110.9155047220379
 31
0.0
  0
LINE
  5
15A93
  8
01
 10
1115.690512797687
 20
-110.9155047220379
 30
0.0
 11
1115.552612102187
 21
-110.9311579743357
 31
0.0
  0
LINE
  5
15A94
  8
01
 10
1115.552612102187
 20
-110.9311579743357
 30
0.0
 11
1115.414183402296
 21
-110.9494079267556
 31
0.0
  0
LINE
  5
15A95
  8
01
 10
1115.414183402296
 20
-110.9494079267556
 30
0.0
 11
1115.275341446812
 21
-110.9702964316198
 31
0.0
  0
LINE
  5
15A96
  8
01
 10
1115.275341446812
 20
-110.9702964316198
 30
0.0
 11
1115.136205149295
 21
-110.9938617207131
 31
0.0
  0
LINE
  5
15A97
  8
01
 10
1115.136205149295
 20
-110.9938617207131
 30
0.0
 11
1114.996897372655
 21
-111.0201381547663
 31
0.0
  0
LINE
  5
15A98
  8
01
 10
1114.996897372655
 20
-111.0201381547663
 30
0.0
 11
1114.857544685993
 21
-111.0491559801744
 31
0.0
  0
LINE
  5
15A99
  8
01
 10
1114.857544685993
 20
-111.0491559801744
 30
0.0
 11
1114.718277093942
 21
-111.0809410949237
 31
0.0
  0
LINE
  5
15A9A
  8
01
 10
1114.718277093942
 20
-111.0809410949237
 30
0.0
 11
1114.579227738944
 21
-111.1155148256971
 31
0.0
  0
LINE
  5
15A9B
  8
01
 10
1114.579227738944
 20
-111.1155148256971
 30
0.0
 11
1114.440532577254
 21
-111.1528937181724
 31
0.0
  0
LINE
  5
15A9C
  8
01
 10
1114.440532577254
 20
-111.1528937181724
 30
0.0
 11
1114.302330029644
 21
-111.1930893424774
 31
0.0
  0
LINE
  5
15A9D
  8
01
 10
1114.302330029644
 20
-111.1930893424774
 30
0.0
 11
1114.164760608117
 21
-111.2361081157419
 31
0.0
  0
LINE
  5
15A9E
  8
01
 10
1114.164760608117
 20
-111.2361081157419
 30
0.0
 11
1114.027966520206
 21
-111.2819511436342
 31
0.0
  0
LINE
  5
15A9F
  8
01
 10
1114.027966520206
 20
-111.2819511436342
 30
0.0
 11
1113.892091252676
 21
-111.330614082663
 31
0.0
  0
LINE
  5
15AA0
  8
01
 10
1113.892091252676
 20
-111.330614082663
 30
0.0
 11
1113.757279136748
 21
-111.3820870249124
 31
0.0
  0
LINE
  5
15AA1
  8
01
 10
1113.757279136748
 20
-111.3820870249124
 30
0.0
 11
1113.623674897198
 21
-111.436354406766
 31
0.0
  0
LINE
  5
15AA2
  8
01
 10
1113.623674897198
 20
-111.436354406766
 30
0.0
 11
1113.491423187914
 21
-111.4933949429728
 31
0.0
  0
LINE
  5
15AA3
  8
01
 10
1113.491423187914
 20
-111.4933949429728
 30
0.0
 11
1113.360668116716
 21
-111.5531815872523
 31
0.0
  0
LINE
  5
15AA4
  8
01
 10
1113.360668116716
 20
-111.5531815872523
 30
0.0
 11
1113.231552762432
 21
-111.6156815204254
 31
0.0
  0
LINE
  5
15AA5
  8
01
 10
1113.231552762432
 20
-111.6156815204254
 30
0.0
 11
1113.104218687371
 21
-111.6808561668199
 31
0.0
  0
LINE
  5
15AA6
  8
01
 10
1113.104218687371
 20
-111.6808561668199
 30
0.0
 11
1112.97880544849
 21
-111.7486612394773
 31
0.0
  0
LINE
  5
15AA7
  8
01
 10
1112.97880544849
 20
-111.7486612394773
 30
0.0
 11
1112.855450110592
 21
-111.8190468144044
 31
0.0
  0
LINE
  5
15AA8
  8
01
 10
1112.855450110592
 20
-111.8190468144044
 30
0.0
 11
1112.734286765004
 21
-111.8919574338966
 31
0.0
  0
LINE
  5
15AA9
  8
01
 10
1112.734286765004
 20
-111.8919574338966
 30
0.0
 11
1112.61544605716
 21
-111.967332238632
 31
0.0
  0
LINE
  5
15AAA
  8
01
 10
1112.61544605716
 20
-111.967332238632
 30
0.0
 11
1112.49905472649
 21
-112.0451051280147
 31
0.0
  0
LINE
  5
15AAB
  8
01
 10
1112.49905472649
 20
-112.0451051280147
 30
0.0
 11
1112.385235161979
 21
-112.1252049479467
 31
0.0
  0
LINE
  5
15AAC
  8
01
 10
1112.385235161979
 20
-112.1252049479467
 30
0.0
 11
1112.274104976598
 21
-112.2075557049407
 31
0.0
  0
LINE
  5
15AAD
  8
01
 10
1112.274104976598
 20
-112.2075557049407
 30
0.0
 11
1112.165776603716
 21
-112.2920768052641
 31
0.0
  0
LINE
  5
15AAE
  8
01
 10
1112.165776603716
 20
-112.2920768052641
 30
0.0
 11
1112.060356918382
 21
-112.3786833175277
 31
0.0
  0
LINE
  5
15AAF
  8
01
 10
1112.060356918382
 20
-112.3786833175277
 30
0.0
 11
1111.957946886138
 21
-112.4672862569264
 31
0.0
  0
LINE
  5
15AB0
  8
01
 10
1111.957946886138
 20
-112.4672862569264
 30
0.0
 11
1111.858641241812
 21
-112.5577928891412
 31
0.0
  0
LINE
  5
15AB1
  8
01
 10
1111.858641241812
 20
-112.5577928891412
 30
0.0
 11
1111.762528200403
 21
-112.6501070517247
 31
0.0
  0
LINE
  5
15AB2
  8
01
 10
1111.762528200403
 20
-112.6501070517247
 30
0.0
 11
1111.669689201897
 21
-112.7441294906553
 31
0.0
  0
LINE
  5
15AB3
  8
01
 10
1111.669689201897
 20
-112.7441294906553
 30
0.0
 11
1111.580198691519
 21
-112.8397582096009
 31
0.0
  0
LINE
  5
15AB4
  8
01
 10
1111.580198691519
 20
-112.8397582096009
 30
0.0
 11
1111.494123936586
 21
-112.9368888293607
 31
0.0
  0
LINE
  5
15AB5
  8
01
 10
1111.494123936586
 20
-112.9368888293607
 30
0.0
 11
1111.411524880759
 21
-113.0354149548889
 31
0.0
  0
LINE
  5
15AB6
  8
01
 10
1111.411524880759
 20
-113.0354149548889
 30
0.0
 11
1111.332454036168
 21
-113.1352285472608
 31
0.0
  0
LINE
  5
15AB7
  8
01
 10
1111.332454036168
 20
-113.1352285472608
 30
0.0
 11
1111.256956413496
 21
-113.2362202979643
 31
0.0
  0
LINE
  5
15AB8
  8
01
 10
1111.256956413496
 20
-113.2362202979643
 30
0.0
 11
1111.185069489788
 21
-113.3382800029144
 31
0.0
  0
LINE
  5
15AB9
  8
01
 10
1111.185069489788
 20
-113.3382800029144
 30
0.0
 11
1111.116823213405
 21
-113.4412969336631
 31
0.0
  0
LINE
  5
15ABA
  8
01
 10
1111.116823213405
 20
-113.4412969336631
 30
0.0
 11
1111.052240045221
 21
-113.5451602033577
 31
0.0
  0
LINE
  5
15ABB
  8
01
 10
1111.052240045221
 20
-113.5451602033577
 30
0.0
 11
1110.991335034855
 21
-113.6497591251177
 31
0.0
  0
LINE
  5
15ABC
  8
01
 10
1110.991335034855
 20
-113.6497591251177
 30
0.0
 11
1110.934115930472
 21
-113.7549835606501
 31
0.0
  0
LINE
  5
15ABD
  8
01
 10
1110.934115930472
 20
-113.7549835606501
 30
0.0
 11
1110.880583320437
 21
-113.860724257052
 31
0.0
  0
LINE
  5
15ABE
  8
01
 10
1110.880583320437
 20
-113.860724257052
 30
0.0
 11
1110.830730804833
 21
-113.966873169968
 31
0.0
  0
LINE
  5
15ABF
  8
01
 10
1110.830730804833
 20
-113.966873169968
 30
0.0
 11
1110.784545194758
 21
-114.0733237714117
 31
0.0
  0
LINE
  5
15AC0
  8
01
 10
1110.784545194758
 20
-114.0733237714117
 30
0.0
 11
1110.742006737071
 21
-114.1799713407986
 31
0.0
  0
LINE
  5
15AC1
  8
01
 10
1110.742006737071
 20
-114.1799713407986
 30
0.0
 11
1110.703089362178
 21
-114.2867132379229
 31
0.0
  0
LINE
  5
15AC2
  8
01
 10
1110.703089362178
 20
-114.2867132379229
 30
0.0
 11
1110.667760952349
 21
-114.3934491568293
 31
0.0
  0
LINE
  5
15AC3
  8
01
 10
1110.667760952349
 20
-114.3934491568293
 30
0.0
 11
1110.635983627988
 21
-114.5000813597421
 31
0.0
  0
LINE
  5
15AC4
  8
01
 10
1110.635983627988
 20
-114.5000813597421
 30
0.0
 11
1110.607714049258
 21
-114.606514890424
 31
0.0
  0
LINE
  5
15AC5
  8
01
 10
1110.607714049258
 20
-114.606514890424
 30
0.0
 11
1110.582903730464
 21
-114.7126577665372
 31
0.0
  0
LINE
  5
15AC6
  8
01
 10
1110.582903730464
 20
-114.7126577665372
 30
0.0
 11
1110.561499364621
 21
-114.8184211507855
 31
0.0
  0
LINE
  5
15AC7
  8
01
 10
1110.561499364621
 20
-114.8184211507855
 30
0.0
 11
1110.543443155688
 21
-114.9237195008041
 31
0.0
  0
LINE
  5
15AC8
  8
01
 10
1110.543443155688
 20
-114.9237195008041
 30
0.0
 11
1110.528673156047
 21
-115.028470697926
 31
0.0
  0
LINE
  5
15AC9
  8
01
 10
1110.528673156047
 20
-115.028470697926
 30
0.0
 11
1110.517123606863
 21
-115.1325961551397
 31
0.0
  0
LINE
  5
15ACA
  8
01
 10
1110.517123606863
 20
-115.1325961551397
 30
0.0
 11
1110.508725279119
 21
-115.2360209046842
 31
0.0
  0
LINE
  5
15ACB
  8
01
 10
1110.508725279119
 20
-115.2360209046842
 30
0.0
 11
1110.503405813242
 21
-115.3386736658908
 31
0.0
  0
LINE
  5
15ACC
  8
01
 10
1110.503405813242
 20
-115.3386736658908
 30
0.0
 11
1110.501090055348
 21
-115.4404868939505
 31
0.0
  0
LINE
  5
15ACD
  8
01
 10
1200.501563824605
 20
-110.1073367735603
 30
0.0
 11
1200.501563824605
 21
-113.9640624317458
 31
0.0
  0
LINE
  5
15AD0
  8
1DIM
 10
1237.500969298217
 20
-138.2241099779408
 30
0.0
 11
1237.500969298217
 21
-138.2185308960547
 31
0.0
  0
LINE
  5
15AD1
  8
1DIM
 10
1237.500969298217
 20
-138.2185308960547
 30
0.0
 11
1237.500969298217
 21
-138.2172818476233
 31
0.0
  0
LINE
  5
15AD2
  8
1DIM
 10
1237.500969298217
 20
-138.2172818476233
 30
0.0
 11
1237.500969298217
 21
-138.2170465776694
 31
0.0
  0
LINE
  5
15AD3
  8
1DIM
 10
1237.500969298217
 20
-138.2170465776694
 30
0.0
 11
1237.500969298217
 21
-138.2170284466251
 31
0.0
  0
LINE
  5
15AD4
  8
1DIM
 10
1237.500969298217
 20
-138.2170284466251
 30
0.0
 11
1237.500969298217
 21
-138.2170266103444
 31
0.0
  0
LINE
  5
15AD5
  8
1DIM
 10
1237.500969298217
 20
-138.2170266103444
 30
0.0
 11
1237.500969298217
 21
-138.2170718561179
 31
0.0
  0
LINE
  5
15AD6
  8
1DIM
 10
1237.500969298217
 20
-138.2170718561179
 30
0.0
 11
1237.500969298217
 21
-138.2266747215458
 31
0.0
  0
ARC
  5
15AD7
  8
01
 10
1199.604857982195
 20
-109.972496023493
 30
0.0
 40
0.9067874038008318
 50
263.4591173386663
 51
351.4483093377199
  0
LINE
  5
15AD8
  8
01
 10
1238.500969298217
 20
-167.5428697820421
 30
0.0
 11
1238.500969298217
 21
-164.339153390802
 31
0.0
  0
LINE
  5
15AD9
  8
01
 10
1238.500969298217
 20
-164.339153390802
 30
0.0
 11
1238.500969298217
 21
-163.3392302567668
 31
0.0
  0
ARC
  5
15ADA
  8
1DIM
 10
1237.64767532079
 20
-163.5674643112384
 30
0.0
 40
0.883290097042599
 50
14.97460063245057
 51
99.56058499293731
  0
LINE
  5
15ADB
  8
01
 10
1097.500969298216
 20
-167.5428697820421
 30
0.0
 11
1097.500969298216
 21
-164.339153390802
 31
0.0
  0
LINE
  5
15ADC
  8
01
 10
1097.500969298216
 20
-164.339153390802
 30
0.0
 11
1097.500969298216
 21
-163.3392302567668
 31
0.0
  0
ARC
  5
15ADD
  8
1DIM
 10
1098.354263275644
 20
-163.5674643112393
 30
0.0
 40
0.8832900970430455
 50
80.43941500712216
 51
165.0253993675495
  0
LINE
  5
15ADE
  8
01
 10
1200.501563824608
 20
-97.14598175349647
 30
0.0
 11
1200.501563824608
 21
-97.47297865289374
 31
0.0
  0
ARC
  5
15ADF
  8
01
 10
1196.218481177972
 20
-106.9598545595477
 30
0.0
 40
1.9042539093326
 50
263.4591256806774
 51
351.4483134335255
  0
ARC
  5
15AE0
  8
01
 10
1139.784646471248
 20
-106.9598545612685
 30
0.0
 40
1.904253909332618
 50
188.5516865664745
 51
276.5408743192701
  0
LINE
  5
15AE1
  8
01
 10
1198.10156382461
 20
-96.10748254944747
 30
0.0
 11
1198.10156382461
 21
-96.09843402191154
 31
0.0
  0
LINE
  5
15AE2
  8
01
 10
1198.10156382461
 20
-96.09843402191154
 30
0.0
 11
1198.10156382461
 21
-96.096644616297
 31
0.0
  0
LINE
  5
15AE3
  8
01
 10
1198.10156382461
 20
-96.096644616297
 30
0.0
 11
1198.10156382461
 21
-96.09648502491882
 31
0.0
  0
LINE
  5
15AE4
  8
01
 10
1198.10156382461
 20
-96.09648502491882
 30
0.0
 11
1198.10156382461
 21
-96.09644855386841
 31
0.0
  0
LINE
  5
15AE5
  8
01
 10
1198.10156382461
 20
-96.09644855386841
 30
0.0
 11
1198.10156382461
 21
-96.09644100242667
 31
0.0
  0
LINE
  5
15AE6
  8
01
 10
1198.10156382461
 20
-96.09644100242667
 30
0.0
 11
1198.10156382461
 21
-96.09670051596777
 31
0.0
  0
LINE
  5
15AE7
  8
01
 10
1198.10156382461
 20
-94.11354704884934
 30
0.0
 11
1198.101563824609
 21
-96.83019104313689
 31
0.0
  0
LINE
  5
15AE8
  8
01
 10
1137.901563824609
 20
-96.83019104485766
 30
0.0
 11
1137.901563824609
 21
-94.1135470505701
 31
0.0
  0
LINE
  5
15AE9
  8
01
 10
1137.901563824609
 20
-96.83019104485766
 30
0.0
 11
1137.901563824609
 21
-107.2430200555305
 31
0.0
  0
LINE
  5
15AEA
  8
01
 10
1140.00156382461
 20
-108.8517133860801
 30
0.0
 11
1196.001563824609
 21
-108.8517133843593
 31
0.0
  0
LINE
  5
15AEB
  8
01
 10
1198.101563824609
 20
-107.2430200538097
 30
0.0
 11
1198.101563824609
 21
-96.83019104313689
 31
0.0
  0
LINE
  5
15AEC
  8
1DIM
 10
1237.500969298217
 20
-162.6964426476302
 30
0.0
 11
1098.500969298216
 21
-162.6964426476311
 31
0.0
  0
LINE
  5
15DCA
  8
01
 10
631.9778497910561
 20
-112.1088175894456
 30
0.0
 11
631.9778497065363
 21
-111.4086168365911
 31
0.0
  0
LINE
  5
15DCB
  8
01
 10
607.9778498822843
 20
-94.31354717985505
 30
0.0
 11
606.7734156256133
 21
-94.31354718269068
 31
0.0
  0
ARC
  5
15DCC
  8
01
 10
620.6472302074121
 20
-86.53001534675877
 30
0.0
 40
8.94683526850542
 50
323.766766422518
 51
346.360568336814
  0
ARC
  5
15DCD
  8
01
 10
622.8200092785867
 20
-87.99922055442585
 30
0.0
 40
6.323981784665158
 50
266.8332065223255
 51
319.2446766147212
  0
LINE
  5
15DCE
  8
01
 10
622.4706545888616
 20
-94.31354529374221
 30
0.0
 11
622.1881366208361
 21
-94.31354533050944
 31
0.0
  0
LINE
  5
15DCF
  8
01
 10
621.7881395323259
 20
-94.31354538256619
 30
0.0
 11
610.313553523617
 21
-94.313546875881
 31
0.0
  0
ARC
  5
15DD0
  8
01
 10
621.9881380766803
 20
-94.31430843966245
 30
0.0
 40
0.2000000000000028
 50
0.2186151993269409
 51
179.7813997139415
  0
LINE
  5
15DD1
  8
01
 10
609.9135564233263
 20
-94.31354692793957
 30
0.0
 11
607.9778498824448
 21
-94.31354717985505
 31
0.0
  0
ARC
  5
15DD2
  8
01
 10
610.1135549735709
 20
-94.31430843966245
 30
0.0
 40
0.2000000000000313
 50
0.2181724792487227
 51
179.7818424340192
  0
LINE
  5
15DD3
  8
01
 10
629.6335839754506
 20
-88.40861683659114
 30
0.0
 11
631.9778506367242
 21
-88.40861683621193
 31
0.0
  0
LINE
  5
15DD4
  8
01
 10
631.9778497065363
 20
-88.70861668749512
 30
0.0
 11
631.9778497065363
 21
-111.4086168366139
 31
0.0
  0
ARC
  5
15DD5
  8
01
 10
629.6336518947926
 20
-88.70849251192521
 30
0.0
 40
0.2998756830261857
 50
90.01297701646642
 51
166.7483581715401
  0
ARC
  5
15DD6
  8
01
 10
627.7375745400757
 20
-91.97330410725408
 30
0.0
 40
0.1999999999999318
 50
50.82785378665787
 51
230.5348827307904
  0
LINE
  5
15DD7
  8
01
 10
606.7734156568386
 20
-107.5764947619937
 30
0.0
 11
606.7734156256133
 21
-94.31354724274127
 31
0.0
  0
LINE
  5
15DD8
  8
01
 10
611.7734156568383
 20
-112.5764947619937
 30
0.0
 11
631.97785066724
 21
-112.5505370446484
 31
0.0
  0
ARC
  5
15DD9
  8
01
 10
611.7734156568386
 20
-107.5764947619937
 30
0.0
 40
5.000000000000114
 50
180.0
 51
270.0
  0
LINE
  5
15DDA
  8
01
 10
622.633054854364
 20
-94.11354704971382
 30
0.0
 11
622.8506159271449
 21
-94.10746018215468
 31
0.0
  0
LINE
  5
15DDB
  8
01
 10
622.8506159271449
 20
-94.10746018215468
 30
0.0
 11
623.0131773097198
 21
-94.09974475725812
 31
0.0
  0
LINE
  5
15DDC
  8
01
 10
623.0131773097198
 20
-94.09974475725812
 30
0.0
 11
623.1736436767981
 21
-94.0889405143289
 31
0.0
  0
LINE
  5
15DDD
  8
01
 10
623.1736436767981
 20
-94.0889405143289
 30
0.0
 11
623.3320212478566
 21
-94.0750671720034
 31
0.0
  0
LINE
  5
15DDE
  8
01
 10
623.3320212478566
 20
-94.0750671720034
 30
0.0
 11
623.4883162423721
 21
-94.05814444891712
 31
0.0
  0
LINE
  5
15DDF
  8
01
 10
623.4883162423721
 20
-94.05814444891712
 30
0.0
 11
623.6425348798214
 21
-94.03819206370736
 31
0.0
  0
LINE
  5
15DE0
  8
01
 10
623.6425348798214
 20
-94.03819206370736
 30
0.0
 11
623.7946833796814
 21
-94.0152297350096
 31
0.0
  0
LINE
  5
15DE1
  8
01
 10
623.7946833796814
 20
-94.0152297350096
 30
0.0
 11
623.9447679614286
 21
-93.98927718146024
 31
0.0
  0
LINE
  5
15DE2
  8
01
 10
623.9447679614286
 20
-93.98927718146024
 30
0.0
 11
624.0927948445403
 21
-93.96035412169567
 31
0.0
  0
LINE
  5
15DE3
  8
01
 10
624.0927948445403
 20
-93.96035412169567
 30
0.0
 11
624.238770248493
 21
-93.92848027435139
 31
0.0
  0
LINE
  5
15DE4
  8
01
 10
624.238770248493
 20
-93.92848027435139
 30
0.0
 11
624.3827003927634
 21
-93.8936753580656
 31
0.0
  0
LINE
  5
15DE5
  8
01
 10
624.3827003927634
 20
-93.8936753580656
 30
0.0
 11
624.5245914968284
 21
-93.85595909147196
 31
0.0
  0
LINE
  5
15DE6
  8
01
 10
624.5245914968284
 20
-93.85595909147196
 30
0.0
 11
624.6644497801651
 21
-93.8153511932087
 31
0.0
  0
LINE
  5
15DE7
  8
01
 10
624.6644497801651
 20
-93.8153511932087
 30
0.0
 11
624.8022814622498
 21
-93.77187138191039
 31
0.0
  0
LINE
  5
15DE8
  8
01
 10
624.8022814622498
 20
-93.77187138191039
 30
0.0
 11
624.9380927625596
 21
-93.72553937621524
 31
0.0
  0
LINE
  5
15DE9
  8
01
 10
624.9380927625596
 20
-93.72553937621524
 30
0.0
 11
625.071889900571
 21
-93.67637489475783
 31
0.0
  0
LINE
  5
15DEA
  8
01
 10
625.071889900571
 20
-93.67637489475783
 30
0.0
 11
625.2036790957613
 21
-93.62439765617455
 31
0.0
  0
LINE
  5
15DEB
  8
01
 10
625.2036790957613
 20
-93.62439765617455
 30
0.0
 11
625.3334665676068
 21
-93.56962737910271
 31
0.0
  0
LINE
  5
15DEC
  8
01
 10
625.3334665676068
 20
-93.56962737910271
 30
0.0
 11
625.4612585355846
 21
-93.5120837821778
 31
0.0
  0
LINE
  5
15DED
  8
01
 10
625.4612585355846
 20
-93.5120837821778
 30
0.0
 11
625.5870612191713
 21
-93.4517865840362
 31
0.0
  0
LINE
  5
15DEE
  8
01
 10
625.5870612191713
 20
-93.4517865840362
 30
0.0
 11
625.7108808378441
 21
-93.38875550331431
 31
0.0
  0
LINE
  5
15DEF
  8
01
 10
625.7108808378441
 20
-93.38875550331431
 30
0.0
 11
625.8327236110792
 21
-93.32301025864854
 31
0.0
  0
LINE
  5
15DF0
  8
01
 10
625.8327236110792
 20
-93.32301025864854
 30
0.0
 11
625.9525957583539
 21
-93.25457056867344
 31
0.0
  0
LINE
  5
15DF1
  8
01
 10
625.9525957583539
 20
-93.25457056867344
 30
0.0
 11
626.0705034991449
 21
-93.18345615202725
 31
0.0
  0
LINE
  5
15DF2
  8
01
 10
626.0705034991449
 20
-93.18345615202725
 30
0.0
 11
626.1864530529288
 21
-93.10968672734634
 31
0.0
  0
LINE
  5
15DF3
  8
01
 10
626.1864530529288
 20
-93.10968672734634
 30
0.0
 11
626.3004506391824
 21
-93.0332820132653
 31
0.0
  0
LINE
  5
15DF4
  8
01
 10
626.3004506391824
 20
-93.0332820132653
 30
0.0
 11
626.4125024773828
 21
-92.95426172842144
 31
0.0
  0
LINE
  5
15DF5
  8
01
 10
626.4125024773828
 20
-92.95426172842144
 30
0.0
 11
626.5226147870064
 21
-92.87264559145024
 31
0.0
  0
LINE
  5
15DF6
  8
01
 10
626.5226147870064
 20
-92.87264559145024
 30
0.0
 11
626.6307937875301
 21
-92.78845332098899
 31
0.0
  0
LINE
  5
15DF7
  8
01
 10
626.6307937875301
 20
-92.78845332098899
 30
0.0
 11
626.7370456984311
 21
-92.7017046356732
 31
0.0
  0
LINE
  5
15DF8
  8
01
 10
626.7370456984311
 20
-92.7017046356732
 30
0.0
 11
626.8413767391858
 21
-92.61241925413924
 31
0.0
  0
LINE
  5
15DF9
  8
01
 10
626.8413767391858
 20
-92.61241925413924
 30
0.0
 11
626.9437931292712
 21
-92.52061689502352
 31
0.0
  0
LINE
  5
15DFA
  8
01
 10
626.9437931292712
 20
-92.52061689502352
 30
0.0
 11
627.0443010881638
 21
-92.42631727696153
 31
0.0
  0
LINE
  5
15DFB
  8
01
 10
627.0443010881638
 20
-92.42631727696153
 30
0.0
 11
627.1429068353407
 21
-92.32954011859147
 31
0.0
  0
LINE
  5
15DFC
  8
01
 10
627.1429068353407
 20
-92.32954011859147
 30
0.0
 11
627.2396165902785
 21
-92.23030513854701
 31
0.0
  0
LINE
  5
15DFD
  8
01
 10
627.2396165902785
 20
-92.23030513854701
 30
0.0
 11
627.3344365724543
 21
-92.12863205546637
 31
0.0
  0
LINE
  5
15DFE
  8
01
 10
627.3344365724543
 20
-92.12863205546637
 30
0.0
 11
627.4273730013444
 21
-92.02454058798503
 31
0.0
  0
LINE
  5
15DFF
  8
01
 10
627.4273730013444
 20
-92.02454058798503
 30
0.0
 11
627.5184320964261
 21
-91.91805045473848
 31
0.0
  0
LINE
  5
15E00
  8
01
 10
627.5184320964261
 20
-91.91805045473848
 30
0.0
 11
627.6076200771759
 21
-91.80918137436402
 31
0.0
  0
LINE
  5
15E01
  8
01
 10
627.6076200771759
 20
-91.80918137436402
 30
0.0
 11
627.6949431630708
 21
-91.69795306549804
 31
0.0
  0
LINE
  5
15E02
  8
01
 10
627.6949431630708
 20
-91.69795306549804
 30
0.0
 11
627.7804075735874
 21
-91.58438524677604
 31
0.0
  0
LINE
  5
15E03
  8
01
 10
627.7804075735874
 20
-91.58438524677604
 30
0.0
 11
627.8640195282026
 21
-91.4684976368344
 31
0.0
  0
LINE
  5
15E04
  8
01
 10
627.8640195282026
 20
-91.4684976368344
 30
0.0
 11
627.9457852463931
 21
-91.35030995430952
 31
0.0
  0
LINE
  5
15E05
  8
01
 10
627.9457852463931
 20
-91.35030995430952
 30
0.0
 11
628.0257109476358
 21
-91.2298419178378
 31
0.0
  0
LINE
  5
15E06
  8
01
 10
628.0257109476358
 20
-91.2298419178378
 30
0.0
 11
628.1038028514076
 21
-91.10711324605472
 31
0.0
  0
LINE
  5
15E07
  8
01
 10
628.1038028514076
 20
-91.10711324605472
 30
0.0
 11
628.1800671771853
 21
-90.98214365759759
 31
0.0
  0
LINE
  5
15E08
  8
01
 10
628.1800671771853
 20
-90.98214365759759
 30
0.0
 11
628.2545101444452
 21
-90.8549528711028
 31
0.0
  0
LINE
  5
15E09
  8
01
 10
620.5346365457438
 20
-94.11354704971382
 30
0.0
 11
622.633054854364
 21
-94.11354704971382
 31
0.0
  0
LINE
  5
15E0A
  8
01
 10
609.2244274718107
 20
-94.32413565326078
 30
0.0
 11
609.444618387811
 21
-94.31354698896757
 31
0.0
  0
LINE
  5
15E0B
  8
1DIM
  6
DASHED2
 10
608.9778491026686
 20
-96.13545811202312
 30
0.0
 11
628.9778488609181
 21
-96.13545811202312
 31
0.0
  0
LINE
  5
15E0C
  8
1DIM
  6
DASHED2
 10
608.9778492505018
 20
-104.6354581120231
 30
0.0
 11
628.9778488609181
 21
-104.6354581120231
 31
0.0
  0
LINE
  5
15E0D
  8
1DIM
  6
HIDDEN
 10
628.9778488609181
 20
-98.13545811202312
 30
0.0
 11
631.9778497065363
 21
-98.13545811202312
 31
0.0
  0
LINE
  5
15E0E
  8
1DIM
  6
HIDDEN
 10
628.9778488609181
 20
-102.6354581120231
 30
0.0
 11
631.9778497065363
 21
-102.6354581120231
 31
0.0
  0
LINE
  5
15E0F
  8
1DIM
 10
628.9778488609181
 20
-96.13545811202312
 30
0.0
 11
628.9778488609181
 21
-100.3854578885284
 31
0.0
  0
LINE
  5
15E10
  8
01
 10
628.9778488609181
 20
-100.3854581120231
 30
0.0
 11
628.9778488609181
 21
-104.6354578885412
 31
0.0
  0
LINE
  5
15E11
  8
1CENTER
 10
604.7914821085117
 20
-100.3854581120231
 30
0.0
 11
666.9109149201017
 21
-100.3854581120231
 31
0.0
  0
LINE
  5
15E12
  8
01
 10
662.977848860864
 20
-100.3854581120231
 30
0.0
 11
657.6778523510022
 21
-98.88545811202312
 31
0.0
  0
LINE
  5
15E13
  8
01
 10
657.6778523510022
 20
-98.88545811202312
 30
0.0
 11
627.9778523511104
 21
-98.88545811202312
 31
0.0
  0
LINE
  5
15E14
  8
01
 10
627.9778523511104
 20
-98.88545811202312
 30
0.0
 11
627.9778570048086
 21
-96.88541157612508
 31
0.0
  0
LINE
  5
15E15
  8
01
 10
627.9778570048086
 20
-96.88541157612508
 30
0.0
 11
626.8778535146132
 21
-96.88541157612508
 31
0.0
  0
ARC
  5
15E16
  8
01
 10
626.8778535146132
 20
-98.38541157612508
 30
0.0
 40
1.5
 50
90.0
 51
179.9998666844749
  0
LINE
  5
15E17
  8
01
 10
625.3778535146173
 20
-98.3854080859328
 30
0.0
 11
625.3778442074376
 21
-102.3854080859328
 31
0.0
  0
ARC
  5
15E18
  8
01
 10
626.8778442074336
 20
-102.3854115761251
 30
0.0
 40
1.5
 50
179.9998666844749
 51
270.0
  0
LINE
  5
15E19
  8
01
 10
626.8778442074336
 20
-103.8854115761251
 30
0.0
 11
627.9778407172444
 21
-103.8854115761251
 31
0.0
  0
LINE
  5
15E1A
  8
01
 10
627.9778407172444
 20
-103.8854115761251
 30
0.0
 11
627.9778453707258
 21
-101.8854581120231
 31
0.0
  0
LINE
  5
15E1B
  8
01
 10
627.9778453707258
 20
-101.8854581120231
 30
0.0
 11
657.6778453706186
 21
-101.8854581120231
 31
0.0
  0
LINE
  5
15E1C
  8
01
 10
657.6778453706186
 20
-101.8854581120231
 30
0.0
 11
662.977848860864
 21
-100.3854581120231
 31
0.0
  0
LINE
  5
15E1D
  8
01
 10
660.8778514071862
 20
-99.29108776212979
 30
0.0
 11
661.6778468412372
 21
-101.2534228510058
 31
0.0
  0
LINE
  5
15E1E
  8
01
 10
661.6778468412372
 20
-101.2534228510058
 30
0.0
 11
661.9896166974893
 21
-100.6651462759628
 31
0.0
  0
LINE
  5
15E1F
  8
01
 10
633.4778535143962
 20
-98.38545811202312
 30
0.0
 11
634.2778442072145
 21
-102.3854581120231
 31
0.0
  0
LINE
  5
15E20
  8
01
 10
644.6778535144006
 20
-98.38545811202312
 30
0.0
 11
645.4778442072231
 21
-102.3854581120231
 31
0.0
  0
LINE
  5
15E21
  8
01
 10
647.8778535144006
 20
-98.38545811202312
 30
0.0
 11
648.6778442072232
 21
-102.3854581120231
 31
0.0
  0
LINE
  5
15E22
  8
01
 10
648.6778442072232
 20
-102.3854581120231
 30
0.0
 11
648.7778453706203
 21
-101.8854581120231
 31
0.0
  0
LINE
  5
15E23
  8
01
 10
649.3778523510034
 20
-98.88545811202312
 30
0.0
 11
649.4778535144005
 21
-98.38545811202312
 31
0.0
  0
LINE
  5
15E24
  8
01
 10
645.4778442072231
 20
-102.3854581120231
 30
0.0
 11
645.5778453706203
 21
-101.8854581120231
 31
0.0
  0
LINE
  5
15E25
  8
01
 10
647.0778442072233
 20
-102.3854581120231
 30
0.0
 11
647.1778453706204
 21
-101.8854581120231
 31
0.0
  0
LINE
  5
15E26
  8
01
 10
647.7778523510035
 20
-98.88545811202312
 30
0.0
 11
647.8778535144006
 21
-98.38545811202312
 31
0.0
  0
LINE
  5
15E27
  8
01
 10
646.1778523510036
 20
-98.88545811202312
 30
0.0
 11
646.2778535144007
 21
-98.38545811202312
 31
0.0
  0
LINE
  5
15E28
  8
01
 10
646.2778535144007
 20
-98.38545811202312
 30
0.0
 11
647.0778442072233
 21
-102.3854581120231
 31
0.0
  0
LINE
  5
15E29
  8
01
 10
660.0778457876315
 20
-101.7062369554124
 30
0.0
 11
660.2606099302595
 21
-101.154487491609
 31
0.0
  0
LINE
  5
15E2A
  8
01
 10
656.8778442072232
 20
-102.3854581120231
 30
0.0
 11
656.9778453706203
 21
-101.8854581120231
 31
0.0
  0
LINE
  5
15E2B
  8
01
 10
650.2778442072231
 20
-102.3854581120231
 30
0.0
 11
650.3778453706202
 21
-101.8854581120231
 31
0.0
  0
LINE
  5
15E2C
  8
01
 10
658.4778447340259
 20
-102.1590510598189
 30
0.0
 11
658.6071154316558
 21
-101.6224573245481
 31
0.0
  0
LINE
  5
15E2D
  8
01
 10
659.1650829484404
 20
-99.30637270923125
 30
0.0
 11
659.2778524607904
 21
-98.83827425408163
 31
0.0
  0
LINE
  5
15E2E
  8
01
 10
655.9778523510035
 20
-98.88545811202312
 30
0.0
 11
656.0778535144007
 21
-98.38545811202312
 31
0.0
  0
LINE
  5
15E2F
  8
01
 10
657.5778523510035
 20
-98.88545811202312
 30
0.0
 11
657.6778535144006
 21
-98.38545811202312
 31
0.0
  0
LINE
  5
15E30
  8
01
 10
660.7264156107458
 20
-99.74825960276121
 30
0.0
 11
660.8778514071862
 21
-99.29108776212979
 31
0.0
  0
LINE
  5
15E31
  8
01
 10
659.2778524607904
 20
-98.83827425408163
 30
0.0
 11
660.0778457876315
 21
-101.7062369554124
 31
0.0
  0
LINE
  5
15E32
  8
01
 10
656.0778535144007
 20
-98.38545811202312
 30
0.0
 11
656.8778442072232
 21
-102.3854581120231
 31
0.0
  0
LINE
  5
15E33
  8
01
 10
657.6778535144006
 20
-98.38545811202312
 30
0.0
 11
658.4778447340259
 21
-102.1590510598189
 31
0.0
  0
LINE
  5
15E34
  8
01
 10
649.4778535144005
 20
-98.38545811202312
 30
0.0
 11
650.2778442072231
 21
-102.3854581120231
 31
0.0
  0
LINE
  5
15E35
  8
01
 10
636.6778535143962
 20
-98.38545811202312
 30
0.0
 11
637.4778442072145
 21
-102.3854581120231
 31
0.0
  0
LINE
  5
15E36
  8
01
 10
637.4778442072145
 20
-102.3854581120231
 30
0.0
 11
637.5778453706121
 21
-101.8854581120231
 31
0.0
  0
LINE
  5
15E37
  8
01
 10
638.1778523510029
 20
-98.88545811202312
 30
0.0
 11
638.2778535144005
 21
-98.38545811202312
 31
0.0
  0
LINE
  5
15E38
  8
01
 10
635.8778442072144
 20
-102.3854581120231
 30
0.0
 11
635.9778453706119
 21
-101.8854581120231
 31
0.0
  0
LINE
  5
15E39
  8
01
 10
634.2778442072145
 20
-102.3854581120231
 30
0.0
 11
634.377845370612
 21
-101.8854581120231
 31
0.0
  0
LINE
  5
15E3A
  8
01
 10
636.5778523509985
 20
-98.88545811202312
 30
0.0
 11
636.6778535143962
 21
-98.38545811202312
 31
0.0
  0
LINE
  5
15E3B
  8
01
 10
634.9778523509983
 20
-98.88545811202312
 30
0.0
 11
635.0778535143961
 21
-98.38545811202312
 31
0.0
  0
LINE
  5
15E3C
  8
01
 10
635.0778535143961
 20
-98.38545811202312
 30
0.0
 11
635.8778442072144
 21
-102.3854581120231
 31
0.0
  0
LINE
  5
15E3D
  8
01
 10
642.2778442072188
 20
-102.3854581120231
 30
0.0
 11
642.3778453706166
 21
-101.8854581120231
 31
0.0
  0
LINE
  5
15E3E
  8
01
 10
643.8778442072232
 20
-102.3854581120231
 30
0.0
 11
643.9778453706203
 21
-101.8854581120231
 31
0.0
  0
LINE
  5
15E3F
  8
01
 10
639.0778442072187
 20
-102.3854581120231
 30
0.0
 11
639.1778453706165
 21
-101.8854581120231
 31
0.0
  0
LINE
  5
15E40
  8
01
 10
640.6778442072186
 20
-102.3854581120231
 30
0.0
 11
640.7778453706164
 21
-101.8854581120231
 31
0.0
  0
LINE
  5
15E41
  8
01
 10
644.5778523510035
 20
-98.88545811202312
 30
0.0
 11
644.6778535144006
 21
-98.38545811202312
 31
0.0
  0
LINE
  5
15E42
  8
01
 10
642.9778523510029
 20
-98.88545811202312
 30
0.0
 11
643.0778535144007
 21
-98.38545811202312
 31
0.0
  0
LINE
  5
15E43
  8
01
 10
639.7778523510028
 20
-98.88545811202312
 30
0.0
 11
639.8778535144004
 21
-98.38545811202312
 31
0.0
  0
LINE
  5
15E44
  8
01
 10
641.377852351003
 20
-98.88545811202312
 30
0.0
 11
641.4778535144005
 21
-98.38545811202312
 31
0.0
  0
LINE
  5
15E45
  8
01
 10
641.4778535144005
 20
-98.38545811202312
 30
0.0
 11
642.2778442072188
 21
-102.3854581120231
 31
0.0
  0
LINE
  5
15E46
  8
01
 10
643.0778535144007
 20
-98.38545811202312
 30
0.0
 11
643.8778442072232
 21
-102.3854581120231
 31
0.0
  0
LINE
  5
15E47
  8
01
 10
639.8778535144004
 20
-98.38545811202312
 30
0.0
 11
640.6778442072186
 21
-102.3854581120231
 31
0.0
  0
LINE
  5
15E48
  8
01
 10
638.2778535144005
 20
-98.38545811202312
 30
0.0
 11
639.0778442072187
 21
-102.3854581120231
 31
0.0
  0
LINE
  5
15E49
  8
01
 10
627.9778453707258
 20
-101.8854581120231
 30
0.0
 11
627.9778523511104
 21
-98.88545811202312
 31
0.0
  0
LINE
  5
15E4A
  8
01
 10
628.5778523509944
 20
-98.88545811202312
 30
0.0
 11
628.6778535143919
 21
-98.38545811202312
 31
0.0
  0
LINE
  5
15E4B
  8
01
 10
628.6778535143919
 20
-98.38545811202312
 30
0.0
 11
629.4778442072102
 21
-102.3854581120231
 31
0.0
  0
LINE
  5
15E4C
  8
01
 10
629.4778442072102
 20
-102.3854581120231
 30
0.0
 11
629.577845370608
 21
-101.8854581120231
 31
0.0
  0
LINE
  5
15E4D
  8
01
 10
630.1778523509943
 20
-98.88545811202312
 30
0.0
 11
630.2778535143918
 21
-98.38545811202312
 31
0.0
  0
LINE
  5
15E4E
  8
01
 10
631.7778523509942
 20
-98.88545811202312
 30
0.0
 11
631.8778535143917
 21
-98.38545811202312
 31
0.0
  0
LINE
  5
15E4F
  8
01
 10
631.8778535143917
 20
-98.38545811202312
 30
0.0
 11
632.67784420721
 21
-102.3854581120231
 31
0.0
  0
LINE
  5
15E50
  8
01
 10
631.0778442072101
 20
-102.3854581120231
 30
0.0
 11
631.1778453706079
 21
-101.8854581120231
 31
0.0
  0
LINE
  5
15E51
  8
01
 10
632.67784420721
 20
-102.3854581120231
 30
0.0
 11
632.7778453706078
 21
-101.8854581120231
 31
0.0
  0
LINE
  5
15E52
  8
01
 10
630.2778535143918
 20
-98.38545811202312
 30
0.0
 11
631.0778442072101
 21
-102.3854581120231
 31
0.0
  0
LINE
  5
15E53
  8
01
 10
633.3778523509984
 20
-98.88545811202312
 30
0.0
 11
633.4778535143962
 21
-98.38545811202312
 31
0.0
  0
LINE
  5
15E55
  8
1DIM
 10
643.9778506274897
 20
-76.98108595935173
 30
0.0
 11
643.9778506847824
 21
-122.3070243895086
 31
0.0
  0
LINE
  5
15E56
  8
1DIM
 10
652.9778506274897
 20
-76.98108593591405
 30
0.0
 11
652.9778506847824
 21
-122.3070243895086
 31
0.0
  0
LINE
  5
15E57
  8
01
 10
650.9778523510033
 20
-98.88545811202312
 30
0.0
 11
651.0778535144007
 21
-98.38545811202312
 31
0.0
  0
LINE
  5
15E58
  8
01
 10
651.8778442072232
 20
-102.3854581120231
 30
0.0
 11
651.9778453706201
 21
-101.8854581120231
 31
0.0
  0
LINE
  5
15E59
  8
01
 10
651.0778535144007
 20
-98.38545811202312
 30
0.0
 11
651.8778442072232
 21
-102.3854581120231
 31
0.0
  0
LINE
  5
15E5A
  8
01
 10
652.5778523510035
 20
-98.88545811202312
 30
0.0
 11
652.6778535144006
 21
-98.38545811202312
 31
0.0
  0
LINE
  5
15E5B
  8
01
 10
653.4778442072231
 20
-102.3854581120231
 30
0.0
 11
653.5778453706203
 21
-101.8854581120231
 31
0.0
  0
LINE
  5
15E5C
  8
01
 10
652.6778535144006
 20
-98.38545811202312
 30
0.0
 11
653.4778442072231
 21
-102.3854581120231
 31
0.0
  0
LINE
  5
15E5D
  8
01
 10
654.1778523510034
 20
-98.88545811202312
 30
0.0
 11
654.2778535144007
 21
-98.38545811202312
 31
0.0
  0
LINE
  5
15E5E
  8
01
 10
655.0778442072233
 20
-102.3854581120231
 30
0.0
 11
655.1778453706202
 21
-101.8854581120231
 31
0.0
  0
LINE
  5
15E5F
  8
01
 10
654.2778535144007
 20
-98.38545811202312
 30
0.0
 11
655.0778442072233
 21
-102.3854581120231
 31
0.0
  0
LINE
  5
15E60
  8
1DIM
 10
631.9778506222797
 20
-76.98108599060288
 30
0.0
 11
631.9778506795724
 21
-122.3070243895086
 31
0.0
  0
ARC
  5
15E61
  8
01
 10
611.3039203851501
 20
-95.1135470510626
 30
0.0
 40
1.000000001349381
 50
79.80993586950545
 51
84.58878636527659
  0
LINE
  5
15E64
  8
01
 10
622.6925643741279
 20
-94.11206707038218
 30
0.0
 11
622.857226991676
 21
-94.10746018215468
 31
0.0
  0
LINE
  5
15E65
  8
01
 10
622.857226991676
 20
-94.10746018215468
 30
0.0
 11
623.0197883742508
 21
-94.09974475725812
 31
0.0
  0
LINE
  5
15E66
  8
01
 10
623.0197883742508
 20
-94.09974475725812
 30
0.0
 11
623.1802547413292
 21
-94.0889405143289
 31
0.0
  0
LINE
  5
15E67
  8
01
 10
623.1802547413292
 20
-94.0889405143289
 30
0.0
 11
623.3386323123875
 21
-94.0750671720034
 31
0.0
  0
LINE
  5
15E68
  8
01
 10
623.3386323123875
 20
-94.0750671720034
 30
0.0
 11
623.494927306903
 21
-94.05814444891803
 31
0.0
  0
LINE
  5
15E69
  8
01
 10
623.494927306903
 20
-94.05814444891803
 30
0.0
 11
623.6491459443525
 21
-94.03819206370736
 31
0.0
  0
LINE
  5
15E6A
  8
01
 10
623.6491459443525
 20
-94.03819206370736
 30
0.0
 11
623.8012944442125
 21
-94.0152297350096
 31
0.0
  0
LINE
  5
15E6B
  8
01
 10
623.8012944442125
 20
-94.0152297350096
 30
0.0
 11
623.9513790259598
 21
-93.98927718146024
 31
0.0
  0
LINE
  5
15E6C
  8
01
 10
623.9513790259598
 20
-93.98927718146024
 30
0.0
 11
624.0994059090715
 21
-93.96035412169567
 31
0.0
  0
LINE
  5
15E6D
  8
01
 10
624.0994059090715
 20
-93.96035412169567
 30
0.0
 11
624.2453813130242
 21
-93.9284802743523
 31
0.0
  0
LINE
  5
15E6E
  8
01
 10
624.2453813130242
 20
-93.9284802743523
 30
0.0
 11
624.3893114572945
 21
-93.8936753580656
 31
0.0
  0
LINE
  5
15E6F
  8
01
 10
624.3893114572945
 20
-93.8936753580656
 30
0.0
 11
624.5312025613598
 21
-93.85595909147196
 31
0.0
  0
LINE
  5
15E70
  8
01
 10
624.5312025613598
 20
-93.85595909147196
 30
0.0
 11
624.6710608446963
 21
-93.8153511932087
 31
0.0
  0
LINE
  5
15E71
  8
01
 10
624.6710608446963
 20
-93.8153511932087
 30
0.0
 11
624.8088925267809
 21
-93.7718713819113
 31
0.0
  0
LINE
  5
15E72
  8
01
 10
624.8088925267809
 20
-93.7718713819113
 30
0.0
 11
624.9447038270907
 21
-93.72553937621524
 31
0.0
  0
LINE
  5
15E73
  8
01
 10
624.9447038270907
 20
-93.72553937621524
 30
0.0
 11
625.0785009651022
 21
-93.67637489475783
 31
0.0
  0
LINE
  5
15E74
  8
01
 10
625.0785009651022
 20
-93.67637489475783
 30
0.0
 11
625.2102901602925
 21
-93.62439765617546
 31
0.0
  0
LINE
  5
15E75
  8
01
 10
625.2102901602925
 20
-93.62439765617546
 30
0.0
 11
625.340077632138
 21
-93.56962737910362
 31
0.0
  0
LINE
  5
15E76
  8
01
 10
625.340077632138
 20
-93.56962737910362
 30
0.0
 11
625.4678696001158
 21
-93.5120837821787
 31
0.0
  0
LINE
  5
15E77
  8
01
 10
625.4678696001158
 20
-93.5120837821787
 30
0.0
 11
625.5936722837027
 21
-93.45178658403711
 31
0.0
  0
LINE
  5
15E78
  8
01
 10
625.5936722837027
 20
-93.45178658403711
 30
0.0
 11
625.7174919023753
 21
-93.38875550331431
 31
0.0
  0
LINE
  5
15E79
  8
01
 10
625.7174919023753
 20
-93.38875550331431
 30
0.0
 11
625.8393346756106
 21
-93.32301025864854
 31
0.0
  0
LINE
  5
15E7A
  8
01
 10
625.8393346756106
 20
-93.32301025864854
 30
0.0
 11
625.9592068228851
 21
-93.25457056867435
 31
0.0
  0
LINE
  5
15E7B
  8
01
 10
625.9592068228851
 20
-93.25457056867435
 30
0.0
 11
626.0771145636761
 21
-93.18345615202816
 31
0.0
  0
LINE
  5
15E7C
  8
01
 10
626.0771145636761
 20
-93.18345615202816
 30
0.0
 11
626.1930641174599
 21
-93.10968672734634
 31
0.0
  0
LINE
  5
15E7D
  8
01
 10
626.1930641174599
 20
-93.10968672734634
 30
0.0
 11
626.3070617037138
 21
-93.0332820132653
 31
0.0
  0
LINE
  5
15E7E
  8
01
 10
626.3070617037138
 20
-93.0332820132653
 30
0.0
 11
626.4191135419139
 21
-92.95426172842144
 31
0.0
  0
LINE
  5
15E7F
  8
01
 10
626.4191135419139
 20
-92.95426172842144
 30
0.0
 11
626.5292258515376
 21
-92.87264559145024
 31
0.0
  0
LINE
  5
15E80
  8
01
 10
626.5292258515376
 20
-92.87264559145024
 30
0.0
 11
626.6374048520615
 21
-92.78845332098899
 31
0.0
  0
LINE
  5
15E81
  8
01
 10
626.6374048520615
 20
-92.78845332098899
 30
0.0
 11
626.7436567629622
 21
-92.7017046356732
 31
0.0
  0
LINE
  5
15E82
  8
01
 10
626.7436567629622
 20
-92.7017046356732
 30
0.0
 11
626.8479878037169
 21
-92.61241925413924
 31
0.0
  0
LINE
  5
15E83
  8
01
 10
626.8479878037169
 20
-92.61241925413924
 30
0.0
 11
626.9504041938023
 21
-92.52061689502352
 31
0.0
  0
LINE
  5
15E84
  8
01
 10
626.9504041938023
 20
-92.52061689502352
 30
0.0
 11
627.050912152695
 21
-92.42631727696244
 31
0.0
  0
LINE
  5
15E85
  8
01
 10
627.050912152695
 20
-92.42631727696244
 30
0.0
 11
627.1495178998719
 21
-92.32954011859147
 31
0.0
  0
LINE
  5
15E86
  8
01
 10
627.1495178998719
 20
-92.32954011859147
 30
0.0
 11
627.2462276548097
 21
-92.23030513854701
 31
0.0
  0
LINE
  5
15E87
  8
01
 10
627.2462276548097
 20
-92.23030513854701
 30
0.0
 11
627.3410476369854
 21
-92.12863205546637
 31
0.0
  0
LINE
  5
15E88
  8
01
 10
627.3410476369854
 20
-92.12863205546637
 30
0.0
 11
627.4339840658756
 21
-92.02454058798503
 31
0.0
  0
LINE
  5
15E89
  8
01
 10
627.4339840658756
 20
-92.02454058798503
 30
0.0
 11
627.5250431609572
 21
-91.91805045473848
 31
0.0
  0
LINE
  5
15E8A
  8
01
 10
627.5250431609572
 20
-91.91805045473848
 30
0.0
 11
627.6142311417073
 21
-91.80918137436493
 31
0.0
  0
LINE
  5
15E8B
  8
01
 10
627.6142311417073
 20
-91.80918137436493
 30
0.0
 11
627.701554227602
 21
-91.69795306549804
 31
0.0
  0
LINE
  5
15E8C
  8
01
 10
627.701554227602
 20
-91.69795306549804
 30
0.0
 11
627.7870186381185
 21
-91.58438524677604
 31
0.0
  0
LINE
  5
15E8D
  8
01
 10
627.7870186381185
 20
-91.58438524677604
 30
0.0
 11
627.8706305927337
 21
-91.4684976368344
 31
0.0
  0
LINE
  5
15E8E
  8
01
 10
627.8706305927337
 20
-91.4684976368344
 30
0.0
 11
627.9523963109243
 21
-91.35030995430952
 31
0.0
  0
LINE
  5
15E8F
  8
01
 10
627.9523963109243
 20
-91.35030995430952
 30
0.0
 11
628.032322012167
 21
-91.2298419178378
 31
0.0
  0
LINE
  5
15E90
  8
01
 10
628.032322012167
 20
-91.2298419178378
 30
0.0
 11
628.1104139159388
 21
-91.10711324605563
 31
0.0
  0
LINE
  5
15E91
  8
01
 10
628.1104139159388
 20
-91.10711324605563
 30
0.0
 11
628.1866782417164
 21
-90.9821436575985
 31
0.0
  0
LINE
  5
15E92
  8
01
 10
628.1866782417164
 20
-90.9821436575985
 30
0.0
 11
628.2611212089764
 21
-90.8549528711028
 31
0.0
  0
LINE
  5
15E93
  8
01
 10
628.2611212089764
 20
-90.8549528711028
 30
0.0
 11
628.333749037196
 21
-90.72556060520492
 31
0.0
  0
LINE
  5
15E94
  8
01
 10
628.333749037196
 20
-90.72556060520492
 30
0.0
 11
628.4735841544205
 21
-90.46025050974822
 31
0.0
  0
LINE
  5
15E95
  8
01
 10
628.4735841544205
 20
-90.46025050974822
 30
0.0
 11
628.6062333492039
 21
-90.18637112031865
 31
0.0
  0
LINE
  5
15E96
  8
01
 10
628.6062333492039
 20
-90.18637112031865
 30
0.0
 11
628.7317463773607
 21
-89.90408018600465
 31
0.0
  0
LINE
  5
15E97
  8
01
 10
628.7317463773607
 20
-89.90408018600465
 30
0.0
 11
628.8501729947056
 21
-89.61353545589736
 31
0.0
  0
LINE
  5
15E98
  8
01
 10
628.8501729947056
 20
-89.61353545589736
 30
0.0
 11
628.9615629570526
 21
-89.31489467908614
 31
0.0
  0
LINE
  5
15E99
  8
01
 10
628.9615629570526
 20
-89.31489467908614
 30
0.0
 11
629.0659660202166
 21
-89.00831560466031
 31
0.0
  0
LINE
  5
15E9A
  8
01
 10
629.0659660202166
 20
-89.00831560466031
 30
0.0
 11
629.1634319400114
 21
-88.69395598171104
 31
0.0
  0
LINE
  5
15E9B
  8
01
 10
629.1634319400114
 20
-88.69395598171104
 30
0.0
 11
629.2540104722516
 21
-88.37197355932767
 31
0.0
  0
LINE
  5
15E9C
  8
01
 10
628.2879065856644
 20
-87.11354704971382
 30
0.0
 11
614.5217486345521
 21
-87.11354704971382
 31
0.0
  0
LINE
  5
15E9D
  8
01
 10
530.2201486845343
 20
-87.11354704971382
 30
0.0
 11
543.9862412971252
 21
-87.11354704971382
 31
0.0
  0
ARC
  5
15E9E
  8
01
 10
530.2201422509233
 20
-88.11362447759166
 30
0.0
 40
1.000077427898879
 50
89.9996314097849
 51
194.9709387268684
  0
LINE
  5
15EA0
  8
01
 10
614.5217484968869
 20
-87.11354704971382
 30
0.0
 11
543.9862415242928
 21
-87.11354704971382
 31
0.0
  0
ARC
  5
15EA3
  8
01
 10
628.287906307756
 20
-88.11360327768034
 30
0.0
 40
1.00005622796646
 50
345.0274792040694
 51
89.99998407791487
  0
LINE
  5
15EA4
  8
01
 10
535.6410591332881
 20
-94.10708775281728
 30
0.0
 11
535.4812946997292
 21
-94.09934389301179
 31
0.0
  0
LINE
  5
15EA5
  8
01
 10
535.4812946997292
 20
-94.09934389301179
 30
0.0
 11
535.3235562312561
 21
-94.08861345907462
 31
0.0
  0
LINE
  5
15EA6
  8
01
 10
535.3235562312561
 20
-94.08861345907462
 30
0.0
 11
535.1678378121976
 21
-94.07491520643634
 31
0.0
  0
LINE
  5
15EA7
  8
01
 10
535.1678378121976
 20
-94.07491520643634
 30
0.0
 11
535.014133526882
 21
-94.05826789052844
 31
0.0
  0
LINE
  5
15EA8
  8
01
 10
535.014133526882
 20
-94.05826789052844
 30
0.0
 11
534.8624374596384
 21
-94.0386902667824
 31
0.0
  0
LINE
  5
15EA9
  8
01
 10
534.8624374596384
 20
-94.0386902667824
 30
0.0
 11
534.7127436947958
 21
-94.01620109062878
 31
0.0
  0
LINE
  5
15EAA
  8
01
 10
534.7127436947958
 20
-94.01620109062878
 30
0.0
 11
534.5650463166824
 21
-93.99081911749909
 31
0.0
  0
LINE
  5
15EAB
  8
01
 10
534.5650463166824
 20
-93.99081911749909
 30
0.0
 11
534.4193394096274
 21
-93.96256310282479
 31
0.0
  0
LINE
  5
15EAC
  8
01
 10
534.4193394096274
 20
-93.96256310282479
 30
0.0
 11
534.2756170579594
 21
-93.93145180203646
 31
0.0
  0
LINE
  5
15EAD
  8
01
 10
534.2756170579594
 20
-93.93145180203646
 30
0.0
 11
534.1338733460075
 21
-93.89750397056469
 31
0.0
  0
LINE
  5
15EAE
  8
01
 10
534.1338733460075
 20
-93.89750397056469
 30
0.0
 11
533.9941023580998
 21
-93.86073836384276
 31
0.0
  0
LINE
  5
15EAF
  8
01
 10
533.9941023580998
 20
-93.86073836384276
 30
0.0
 11
533.8562981785658
 21
-93.82117373729943
 31
0.0
  0
LINE
  5
15EB0
  8
01
 10
533.8562981785658
 20
-93.82117373729943
 30
0.0
 11
533.7204548917339
 21
-93.77882884636801
 31
0.0
  0
LINE
  5
15EB1
  8
01
 10
533.7204548917339
 20
-93.77882884636801
 30
0.0
 11
533.5865665819329
 21
-93.73372244647817
 31
0.0
  0
LINE
  5
15EB2
  8
01
 10
533.5865665819329
 20
-93.73372244647817
 30
0.0
 11
533.4546273334915
 21
-93.68587329306138
 31
0.0
  0
LINE
  5
15EB3
  8
01
 10
533.4546273334915
 20
-93.68587329306138
 30
0.0
 11
533.3246312307388
 21
-93.63530014154912
 31
0.0
  0
LINE
  5
15EB4
  8
01
 10
533.3246312307388
 20
-93.63530014154912
 30
0.0
 11
533.1965723580031
 21
-93.58202174737198
 31
0.0
  0
LINE
  5
15EB5
  8
01
 10
533.1965723580031
 20
-93.58202174737198
 30
0.0
 11
533.0704447996136
 21
-93.52605686596235
 31
0.0
  0
LINE
  5
15EB6
  8
01
 10
533.0704447996136
 20
-93.52605686596235
 30
0.0
 11
532.9462426398989
 21
-93.46742425274988
 31
0.0
  0
LINE
  5
15EB7
  8
01
 10
532.9462426398989
 20
-93.46742425274988
 30
0.0
 11
532.8239599631879
 21
-93.40614266316697
 31
0.0
  0
LINE
  5
15EB8
  8
01
 10
532.8239599631879
 20
-93.40614266316697
 30
0.0
 11
532.7035908538091
 21
-93.3422308526433
 31
0.0
  0
LINE
  5
15EB9
  8
01
 10
532.7035908538091
 20
-93.3422308526433
 30
0.0
 11
532.5851293960914
 21
-93.27570757661215
 31
0.0
  0
LINE
  5
15EBA
  8
01
 10
532.5851293960914
 20
-93.27570757661215
 30
0.0
 11
532.4685696743636
 21
-93.2065915905032
 31
0.0
  0
LINE
  5
15EBB
  8
01
 10
532.4685696743636
 20
-93.2065915905032
 30
0.0
 11
532.3539057729547
 21
-93.13490164974701
 31
0.0
  0
LINE
  5
15EBC
  8
01
 10
532.3539057729547
 20
-93.13490164974701
 30
0.0
 11
532.2411317761932
 21
-93.06065650977689
 31
0.0
  0
LINE
  5
15EBD
  8
01
 10
532.2411317761932
 20
-93.06065650977689
 30
0.0
 11
532.1302417684078
 21
-92.98387492602251
 31
0.0
  0
LINE
  5
15EBE
  8
01
 10
532.1302417684078
 20
-92.98387492602251
 30
0.0
 11
532.0212298339275
 21
-92.90457565391443
 31
0.0
  0
LINE
  5
15EBF
  8
01
 10
532.0212298339275
 20
-92.90457565391443
 30
0.0
 11
531.914090057081
 21
-92.82277744888597
 31
0.0
  0
LINE
  5
15EC0
  8
01
 10
531.914090057081
 20
-92.82277744888597
 30
0.0
 11
531.808816522197
 21
-92.73849906636588
 31
0.0
  0
LINE
  5
15EC1
  8
01
 10
531.808816522197
 20
-92.73849906636588
 30
0.0
 11
531.7054033136044
 21
-92.65175926178745
 31
0.0
  0
LINE
  5
15EC2
  8
01
 10
531.7054033136044
 20
-92.65175926178745
 30
0.0
 11
531.6038445156316
 21
-92.56257679058035
 31
0.0
  0
LINE
  5
15EC3
  8
01
 10
531.6038445156316
 20
-92.56257679058035
 30
0.0
 11
531.504134212608
 21
-92.47097040817607
 31
0.0
  0
LINE
  5
15EC4
  8
01
 10
531.504134212608
 20
-92.47097040817607
 30
0.0
 11
531.4062664888622
 21
-92.37695887000609
 31
0.0
  0
LINE
  5
15EC5
  8
01
 10
531.4062664888622
 20
-92.37695887000609
 30
0.0
 11
531.3102354287225
 21
-92.2805609315019
 31
0.0
  0
LINE
  5
15EC6
  8
01
 10
531.3102354287225
 20
-92.2805609315019
 30
0.0
 11
531.2160351165182
 21
-92.18179534809406
 31
0.0
  0
LINE
  5
15EC7
  8
01
 10
531.2160351165182
 20
-92.18179534809406
 30
0.0
 11
531.1236596365779
 21
-92.08068087521406
 31
0.0
  0
LINE
  5
15EC8
  8
01
 10
531.1236596365779
 20
-92.08068087521406
 30
0.0
 11
531.0331030732302
 21
-91.97723626829247
 31
0.0
  0
LINE
  5
15EC9
  8
01
 10
531.0331030732302
 20
-91.97723626829247
 30
0.0
 11
530.9443595108041
 21
-91.87148028276079
 31
0.0
  0
LINE
  5
15ECA
  8
01
 10
530.9443595108041
 20
-91.87148028276079
 30
0.0
 11
530.8574230336285
 21
-91.76343167405048
 31
0.0
  0
LINE
  5
15ECB
  8
01
 10
530.8574230336285
 20
-91.76343167405048
 30
0.0
 11
530.7722877260319
 21
-91.65310919759213
 31
0.0
  0
LINE
  5
15ECC
  8
01
 10
530.7722877260319
 20
-91.65310919759213
 30
0.0
 11
530.6889476723429
 21
-91.54053160881813
 31
0.0
  0
LINE
  5
15ECD
  8
01
 10
530.6889476723429
 20
-91.54053160881813
 30
0.0
 11
530.6073969568909
 21
-91.42571766315814
 31
0.0
  0
LINE
  5
15ECE
  8
01
 10
530.6073969568909
 20
-91.42571766315814
 30
0.0
 11
530.527629664004
 21
-91.30868611604365
 31
0.0
  0
LINE
  5
15ECF
  8
01
 10
530.527629664004
 20
-91.30868611604365
 30
0.0
 11
530.4496398780113
 21
-91.18945572290704
 31
0.0
  0
LINE
  5
15ED0
  8
01
 10
530.4496398780113
 20
-91.18945572290704
 30
0.0
 11
530.3734216832418
 21
-91.06804523917799
 31
0.0
  0
LINE
  5
15ED1
  8
01
 10
530.3734216832418
 20
-91.06804523917799
 30
0.0
 11
530.2989691640239
 21
-90.94447342028798
 31
0.0
  0
LINE
  5
15ED2
  8
01
 10
530.2989691640239
 20
-90.94447342028798
 30
0.0
 11
530.2262764046866
 21
-90.8187590216694
 31
0.0
  0
LINE
  5
15ED3
  8
01
 10
530.2262764046866
 20
-90.8187590216694
 30
0.0
 11
530.1553374895584
 21
-90.6909207987519
 31
0.0
  0
LINE
  5
15ED4
  8
01
 10
530.1553374895584
 20
-90.6909207987519
 30
0.0
 11
530.0186975292452
 21
-90.42894790174614
 31
0.0
  0
LINE
  5
15ED5
  8
01
 10
530.0186975292452
 20
-90.42894790174614
 30
0.0
 11
529.8890019577143
 21
-90.15870477272165
 31
0.0
  0
LINE
  5
15ED6
  8
01
 10
529.8890019577143
 20
-90.15870477272165
 30
0.0
 11
529.7662034495961
 21
-89.88034145512665
 31
0.0
  0
LINE
  5
15ED7
  8
01
 10
529.7662034495961
 20
-89.88034145512665
 30
0.0
 11
529.6502546795207
 21
-89.5940079924112
 31
0.0
  0
LINE
  5
15ED8
  8
01
 10
529.6502546795207
 20
-89.5940079924112
 30
0.0
 11
529.5411083221184
 21
-89.29985442802445
 31
0.0
  0
LINE
  5
15ED9
  8
01
 10
529.5411083221184
 20
-89.29985442802445
 30
0.0
 11
529.4387170520195
 21
-88.99803080541551
 31
0.0
  0
LINE
  5
15EDA
  8
01
 10
529.4387170520195
 20
-88.99803080541551
 30
0.0
 11
529.3430335438536
 21
-88.68868716803263
 31
0.0
  0
LINE
  5
15EDB
  8
01
 10
529.3430335438536
 20
-88.68868716803263
 30
0.0
 11
529.2540104722516
 21
-88.37197355932767
 31
0.0
  0
LINE
  5
15EDC
  8
01
 10
535.7611632739565
 20
-94.11354704971382
 30
0.0
 11
622.6925643741279
 21
-94.11206707038218
 31
0.0
  0
LINE
  5
15EDD
  8
01
 10
535.6410591332881
 20
-94.10708775281728
 30
0.0
 11
535.7611632739565
 21
-94.11354704971382
 31
0.0
  0
LINE
  5
15EE7
  8
01
 10
608.9778492505018
 20
-104.6354581120231
 30
0.0
 11
608.9778491026686
 21
-96.13545808505762
 31
0.0
  0
ARC
  5
15EEB
  8
01
 10
604.3014266403306
 20
-100.9042998921975
 30
0.0
 40
1.939167440790158
 50
318.6861393395089
 51
23.06091525129783
  0
ARC
  5
15EEC
  8
01
 10
601.143266890218
 20
-98.25428921218759
 30
0.0
 40
1.939167447980344
 50
76.93908424145214
 51
141.313860629822
  0
ARC
  5
15EED
  8
01
 10
599.9983141437647
 20
-102.6907680172061
 30
0.0
 40
6.598323000257667
 50
22.69741948753852
 51
49.24701197877987
  0
ARC
  5
15EEE
  8
01
 10
600.1311668487738
 20
-102.802244717074
 30
0.0
 40
6.598323034062218
 50
50.75298803702901
 51
77.30258019496296
  0
ARC
  5
15EEF
  8
01
 10
548.9759180014485
 20
-166.8386735768789
 30
0.0
 40
1.93916743941238
 50
256.9390847330362
 51
321.3138606930796
  0
ARC
  5
15EF0
  8
01
 10
545.8177582446679
 20
-164.1886628894556
 30
0.0
 40
1.939167439563211
 50
138.6861393057091
 51
203.0609152601314
  0
ARC
  5
15EF1
  8
01
 10
549.9880180218693
 20
-162.2907180855011
 30
0.0
 40
6.598323007800885
 50
230.7529880289029
 51
257.3025804922127
  0
ARC
  5
15EF2
  8
01
 10
550.1208707486594
 20
-162.4021947596531
 30
0.0
 40
6.598323007729096
 50
202.6974195035976
 51
229.2470119671669
  0
LINE
  5
15EF3
  8
01
 10
589.1513601674601
 20
-111.0853950989567
 30
0.0
 11
593.7476268261166
 21
-114.9421207571439
 31
0.0
  0
LINE
  5
15EF4
  8
01
 10
590.6569456111383
 20
-120.1811750255609
 30
0.0
 11
570.7305297108505
 21
-143.9285527622556
 31
0.0
  0
LINE
  5
15EF5
  8
01
 10
570.7305295820656
 20
-143.9285529157352
 30
0.0
 11
550.4895965013638
 21
-168.0507576321211
 31
0.0
  0
LINE
  5
15EF6
  8
01
 10
564.6021741659556
 20
-138.7862518846953
 30
0.0
 11
584.5285900662434
 21
-115.0388741480007
 31
0.0
  0
LINE
  5
15EF7
  8
01
 10
589.0281033340484
 20
-109.6765630461686
 30
0.0
 11
599.629588384953
 21
-97.04220514991908
 31
0.0
  0
LINE
  5
15EF8
  8
01
 10
544.3612409565931
 20
-162.9084567544128
 30
0.0
 11
564.6021741659556
 21
-138.7862518846953
 31
0.0
  0
LINE
  5
15EF9
  8
01
 10
566.0110062187728
 20
-138.6629950512723
 30
0.0
 11
570.6072728774293
 21
-142.5197207094596
 31
0.0
  0
ARC
  5
15EFA
  8
01
 10
569.9644850268032
 20
-143.2857651736474
 30
0.0
 40
1.00000017101261
 50
320.0000098010332
 51
49.99999020083687
  0
ARC
  5
15EFB
  8
01
 10
594.3904145537713
 20
-114.1760763248898
 30
0.0
 40
1.000000067505464
 50
229.9999944221096
 51
240.4841165928612
  0
ARC
  5
15EFC
  8
01
 10
594.3904144958906
 20
-114.1760766216006
 30
0.0
 40
0.9999997562920583
 50
280.9278738571706
 51
320.0000002356496
  0
LINE
  5
15EFD
  8
01
 10
605.7579439300821
 20
-102.1845060271913
 30
0.0
 11
595.1564587549619
 21
-114.8188640714839
 31
0.0
  0
LINE
  5
15EFE
  8
01
 10
590.6569456111383
 20
-120.1811750255609
 30
0.0
 11
595.1092257268033
 21
-114.8751542024815
 31
0.0
  0
ARC
  5
15EFF
  8
01
 10
565.3682186090746
 20
-139.4290394943817
 30
0.0
 40
1.000000000000124
 50
49.99999999913526
 51
139.9999999999999
  0
ARC
  5
15F00
  8
01
 10
589.7941477771515
 20
-110.3193506558563
 30
0.0
 40
0.999999999988838
 50
139.999999999352
 51
229.9999999990954
  0
LINE
  5
15F01
  8
01
 10
588.9808701819088
 20
-109.7328533249208
 30
0.0
 11
584.5285900662434
 21
-115.0388741480007
 31
0.0
  0
LINE
  5
15F02
  8
01
 10
631.773415626104
 20
-113.5505370440466
 30
0.0
 11
631.773415626104
 21
-115.5505370440463
 31
0.0
  0
LINE
  5
15F03
  8
01
 10
606.273415626104
 20
-94.55053704404656
 30
0.0
 11
602.3730498182763
 21
-94.55053704404662
 31
0.0
  0
LINE
  5
15F04
  8
01
 10
602.3730498182763
 20
-94.55053704404662
 30
0.0
 11
601.7299650408709
 21
-94.55053704404662
 31
0.0
  0
ARC
  5
15F05
  8
01
 10
598.6775732013834
 20
-112.5463988536153
 30
0.0
 40
3.004138568005604
 50
230.0287262562449
 51
269.9712737437624
  0
LINE
  5
15F06
  8
01
 10
631.773415626104
 20
-115.5505370440464
 30
0.0
 11
598.6760670232429
 21
-115.5505370440463
 31
0.0
  0
LINE
  5
15F07
  8
01
 10
596.7477041941834
 20
-114.8486703734036
 30
0.0
 11
595.7992463005908
 21
-114.0528197047058
 31
0.0
  0
LINE
  5
15F08
  8
01
 10
599.798236521794
 20
-96.84121812695855
 30
0.0
 11
601.7203461736103
 21
-94.55053704404662
 31
0.0
  0
LINE
  5
15F09
  8
01
 10
631.7734156463039
 20
-112.5505370440466
 30
0.0
 11
611.7737772393325
 21
-112.5505370440542
 31
0.0
  0
LINE
  5
15F0A
  8
01
 10
606.7734156369243
 20
-107.5492466355171
 30
0.0
 11
606.7734156261718
 21
-94.55053704404656
 31
0.0
  0
LINE
  5
15F0B
  8
01
 10
631.773415631154
 20
-113.0505370440466
 30
0.0
 11
631.773415626104
 21
-113.5505370440466
 31
0.0
  0
LINE
  5
15F0C
  8
01
 10
606.7734156261713
 20
-94.55053704404656
 30
0.0
 11
606.273415626104
 21
-94.55053704404656
 31
0.0
  0
LINE
  5
15F0D
  8
01
 10
631.773415631154
 20
-113.0505370440466
 30
0.0
 11
631.7734156463039
 21
-112.5505370440466
 31
0.0
  0
ARC
  5
15F0E
  8
01
 10
611.7480793980053
 20
-107.5741819043825
 30
0.0
 40
4.966722450308392
 50
201.5276189000498
 51
245.6962945244966
  0
ARC
  5
15F0F
  8
01
 10
594.3904144769726
 20
-114.1760766012214
 30
0.0
 40
0.99999978388332
 50
309.5158758823583
 51
320.0000000379134
  0
ARC
  5
15F10
  8
01
 10
589.7941477771687
 20
-110.3193506558656
 30
0.0
 40
1.000000000007738
 50
139.9999999995924
 51
150.4841229804408
  0
ARC
  5
15F11
  8
01
 10
594.3904145421052
 20
-114.1760762470377
 30
0.0
 40
1.000000113933015
 50
240.4841193133163
 51
280.9278672006467
  0
LINE
  5
15F12
  8
01
 10
595.0220366542267
 20
-114.9423120336663
 30
0.0
 11
595.1336764280013
 21
-114.8400224989855
 31
0.0
  0
ARC
  5
15F13
  8
01
 10
611.7734155651815
 20
-107.550537078589
 30
0.0
 40
4.999999912831438
 50
180.5270613195772
 51
201.6732108732251
  0
ARC
  5
15F14
  8
01
 10
611.7734156802908
 20
-107.5505369548366
 30
0.0
 40
5.000000089330756
 50
245.5431601174935
 51
270.0000005843117
  0
CIRCLE
  5
15F16
  8
1PHANTOM
 10
556.3750241585103
 20
-168.077960854898
 30
0.0
 40
18.5
  0
CIRCLE
  5
15F17
  8
1PHANTOM
 10
556.3750241585103
 20
-168.077960854898
 30
0.0
 40
57.5
  0
LINE
  5
15F18
  8
1CENTER
 10
556.3750241585196
 20
-147.0646334730639
 30
0.0
 11
556.3750241585196
 21
-189.0912882367322
 31
0.0
  0
LINE
  5
15F19
  8
1CENTER
 10
536.1574083255321
 20
-168.077960854898
 30
0.0
 11
576.5926399914886
 21
-168.077960854898
 31
0.0
  0
LINE
  5
16016
  8
01
 10
1197.630093999733
 20
44.04930081362318
 30
0.0
 11
1175.839494066229
 21
44.04930305174412
 31
0.0
  0
ARC
  5
16017
  8
01
 10
1197.630093962276
 20
43.74930081270895
 30
0.0
 40
0.3000000000013642
 50
33.17579766518602
 51
56.82419525857567
  0
ARC
  5
16018
  8
01
 10
1138.230093962277
 20
43.74930691392501
 30
0.0
 40
0.3000000000003456
 50
123.1757956143854
 51
146.8241973091748
  0
ARC
  5
16019
  8
01
 10
1293.876975887551
 20
-43.62803144843974
 30
0.0
 40
15.09069935667995
 50
271.2547530293219
 51
358.7452469854028
  0
ARC
  5
1601A
  8
01
 10
1293.87697588755
 20
26.2657324762281
 30
0.0
 40
15.0906993566806
 50
1.254753014597214
 51
88.74524697067808
  0
ARC
  5
1601B
  8
01
 10
1041.984674161424
 20
26.26427027786895
 30
0.0
 40
15.09219328857916
 50
91.26018120222223
 51
178.7398188042801
  0
ARC
  5
1601C
  8
01
 10
1041.983211965216
 20
-43.62803144843974
 30
0.0
 40
15.09069935667979
 50
181.2547530145971
 51
268.7452469706781
  0
LINE
  5
1601D
  8
01
 10
1294.207163681567
 20
-58.71510719980188
 30
0.0
 11
1041.65298980714
 21
-58.71510993292986
 31
0.0
  0
LINE
  5
1601E
  8
01
 10
1308.964068072652
 20
26.59595331775245
 30
0.0
 11
1308.964048908362
 21
-43.95825588986327
 31
0.0
  0
LINE
  5
1601F
  8
01
 10
1026.896139174048
 20
-43.95825586321871
 30
0.0
 11
1026.896120600808
 21
26.59595311119256
 31
0.0
  0
LINE
  5
16020
  8
01
 10
1041.653024017996
 20
41.35281549849833
 30
0.0
 11
1294.207163392195
 21
41.35281239992719
 31
0.0
  0
LINE
  5
16021
  8
01
 10
1197.930093325061
 20
41.31885051346262
 30
0.0
 11
1197.930093256098
 21
41.65265685287022
 31
0.0
  0
LINE
  5
16022
  8
01
 10
1137.930094668455
 20
41.65265685287022
 30
0.0
 11
1137.930094599492
 21
41.31885051319796
 31
0.0
  0
LINE
  5
16023
  8
01
 10
1138.230093962276
 20
41.41320636808678
 30
0.0
 11
1138.230093962277
 21
41.31885051320796
 31
0.0
  0
LINE
  5
16024
  8
01
 10
1197.630093962277
 20
41.4132063680895
 30
0.0
 11
1138.230093962276
 21
41.41320636808678
 31
0.0
  0
LINE
  5
16025
  8
01
 10
1197.630093962277
 20
41.31885051346899
 30
0.0
 11
1197.630093962277
 21
41.4132063680895
 31
0.0
  0
LINE
  5
16026
  8
01
 10
1138.230093997013
 20
44.04930691392519
 30
0.0
 11
1175.839494066229
 21
44.04930305091102
 31
0.0
  0
LINE
  5
16027
  8
01
 10
1137.930093962277
 20
43.74930691392592
 30
0.0
 11
1137.930094682066
 21
41.7060163325782
 31
0.0
  0
LINE
  5
16028
  8
01
 10
1197.930093242487
 20
41.7060163325782
 30
0.0
 11
1197.930093962277
 21
43.74930081270986
 31
0.0
  0
ARC
  5
16029
  8
01
 10
1138.230093959916
 20
43.7493069168363
 30
0.0
 40
0.2999999970887758
 50
89.99999291505705
 51
123.1757957799309
  0
ARC
  5
1602A
  8
01
 10
1138.230093962204
 20
43.74930691520558
 30
0.0
 40
0.2999999999270386
 50
146.8241975922546
 51
180.0000002443969
  0
ARC
  5
1602B
  8
01
 10
1138.226835877237
 20
41.70995582707519
 30
0.0
 40
0.2967673441069294
 50
180.7606060514878
 51
270.6290391309845
  0
ARC
  5
1602C
  8
01
 10
1197.633350059278
 20
41.70995920028281
 30
0.0
 40
0.2967706952895708
 50
269.3713518145218
 51
359.2195379588764
  0
ARC
  5
1602D
  8
01
 10
1197.630093962276
 20
43.74930081270986
 30
0.0
 40
0.30000000000044
 50
0.0
 51
33.17579766488073
  0
ARC
  5
1602E
  8
01
 10
1197.630093962276
 20
43.74930081270986
 30
0.0
 40
0.3000000000005821
 50
56.82419525854336
 51
89.99999292356404
  0
LINE
  5
1602F
  8
01
 10
1294.188151359667
 20
-56.7489288351976
 30
0.0
 11
1041.67203662657
 21
-56.74892842027793
 31
0.0
  0
ARC
  5
16030
  8
01
 10
1041.912265568194
 20
-43.69897585073295
 30
0.0
 40
13.05216349927345
 50
181.0546955118029
 51
268.9453946312512
  0
LINE
  5
16031
  8
01
 10
1028.862072055912
 20
26.5769059747613
 30
0.0
 11
1028.862313376615
 21
-43.93922532375609
 31
0.0
  0
ARC
  5
16032
  8
01
 10
1041.913288938142
 20
26.33549108781926
 30
0.0
 40
13.05344947723145
 50
91.05898701280704
 51
178.9402921580716
  0
LINE
  5
16033
  8
01
 10
1294.188149338823
 20
39.3867060093512
 30
0.0
 11
1041.672038246509
 21
39.38671100621787
 31
0.0
  0
ARC
  5
16034
  8
01
 10
1293.94789111334
 20
26.33648263337682
 30
0.0
 40
13.0524347988314
 50
1.055435883203613
 51
88.94528798604577
  0
LINE
  5
16035
  8
01
 10
1306.998111452874
 20
26.57690573408263
 30
0.0
 11
1306.997881013159
 21
-43.93922615711244
 31
0.0
  0
ARC
  5
16036
  8
01
 10
1293.946934588279
 20
-43.69798190232132
 30
0.0
 40
13.0531759114612
 50
271.0588602939758
 51
358.9410190494142
  0
ARC
  5
16037
  8
01
 10
1144.430074030254
 20
-51.18114948610537
 30
0.0
 40
1.5
 50
90.0
 51
270.0
  0
ARC
  5
16038
  8
01
 10
1191.430074030254
 20
-51.18114948610537
 30
0.0
 40
1.499999999999999
 50
270.0
 51
90.0
  0
LINE
  5
16039
  8
01
 10
1191.430074030254
 20
-49.68114948610537
 30
0.0
 11
1144.430074030254
 21
-49.68114948610537
 31
0.0
  0
LINE
  5
1603A
  8
01
 10
1191.430074030254
 20
-52.68114948610537
 30
0.0
 11
1144.430074030254
 21
-52.68114948610537
 31
0.0
  0
LINE
  5
1603C
  8
01
 10
1169.985269561453
 20
34.39911545743371
 30
0.0
 11
1170.881029872992
 21
32.39667064773266
 31
0.0
  0
LINE
  5
1603D
  8
01
 10
1171.908729048105
 20
34.39909320804736
 30
0.0
 11
1171.430589726321
 21
34.39909320804736
 31
0.0
  0
LINE
  5
1603E
  8
01
 10
1170.331692513531
 20
34.39909320804736
 30
0.0
 11
1169.985269561453
 21
34.39909320804736
 31
0.0
  0
LINE
  5
1603F
  8
01
 10
1168.588898047487
 20
34.39909320804736
 30
0.0
 11
1168.242475095409
 21
34.39909320804736
 31
0.0
  0
LINE
  5
16049
  8
01
 10
1187.130074030254
 20
40.04930150178482
 30
0.0
 11
1187.130074030254
 21
41.04930150178482
 31
0.0
  0
LINE
  5
1604A
  8
01
 10
1187.130074030254
 20
41.04930150178482
 30
0.0
 11
1194.730074030253
 21
41.04930150178482
 31
0.0
  0
LINE
  5
1604B
  8
01
 10
1187.130074030254
 20
40.04930150178482
 30
0.0
 11
1194.730074030253
 21
40.04930150178482
 31
0.0
  0
LINE
  5
1604C
  8
01
 10
1190.93002749746
 20
75.04930150162247
 30
0.0
 11
1192.43002749746
 21
69.7493049917608
 31
0.0
  0
LINE
  5
1604D
  8
01
 10
1192.43002749746
 20
69.7493049917608
 30
0.0
 11
1192.43002749746
 21
41.04930499175308
 31
0.0
  0
LINE
  5
1604E
  8
01
 10
1190.93002749746
 20
75.04930150162247
 30
0.0
 11
1189.43002749746
 21
69.74929801137714
 31
0.0
  0
LINE
  5
1604F
  8
01
 10
1194.430074033358
 20
40.04930964556699
 30
0.0
 11
1187.430074033358
 21
40.04929335800265
 31
0.0
  0
LINE
  5
16050
  8
01
 10
1189.43002749746
 20
69.74929801137714
 30
0.0
 11
1189.43002749746
 21
41.04930150178482
 31
0.0
  0
LINE
  5
16051
  8
01
 10
1194.430074033358
 20
40.04930964556699
 30
0.0
 11
1194.430074033358
 21
38.94930615537167
 31
0.0
  0
ARC
  5
16052
  8
01
 10
1192.930074033358
 20
38.94930615537167
 30
0.0
 40
1.5
 50
270.0001333155316
 51
0.0
  0
LINE
  5
16053
  8
01
 10
1187.430074033358
 20
40.04929335800265
 30
0.0
 11
1187.430074033358
 21
38.94929684819207
 31
0.0
  0
LINE
  5
16054
  8
01
 10
1192.93007752355
 20
37.44930615537576
 30
0.0
 11
1188.93007752355
 21
37.44929684819611
 31
0.0
  0
ARC
  5
16055
  8
01
 10
1188.930074033358
 20
38.94929684819207
 30
0.0
 40
1.5
 50
180.0
 51
270.0001333155316
  0
LINE
  5
16056
  8
1CENTER
 10
1190.930074033358
 20
76.48009641908786
 30
0.0
 11
1190.930074033358
 21
36.37902509247599
 31
0.0
  0
LINE
  5
16057
  8
01
 10
1192.024397847353
 20
72.94930404794465
 30
0.0
 11
1190.062062758478
 21
73.74929948199562
 31
0.0
  0
LINE
  5
16058
  8
01
 10
1190.062062758478
 20
73.74929948199562
 30
0.0
 11
1190.65033933352
 21
74.06106933824773
 31
0.0
  0
LINE
  5
16059
  8
01
 10
1192.93002749746
 20
50.54930615515465
 30
0.0
 11
1188.93002749746
 21
51.34929684797291
 31
0.0
  0
LINE
  5
1605A
  8
01
 10
1192.93002749746
 20
61.74930615515902
 30
0.0
 11
1188.93002749746
 21
62.54929684798159
 31
0.0
  0
LINE
  5
1605B
  8
01
 10
1192.93002749746
 20
64.94930615515906
 30
0.0
 11
1188.93002749746
 21
65.74929684798164
 31
0.0
  0
LINE
  5
1605C
  8
01
 10
1188.93002749746
 20
65.74929684798164
 30
0.0
 11
1189.43002749746
 21
65.84929801137886
 31
0.0
  0
LINE
  5
1605D
  8
01
 10
1192.43002749746
 20
66.44930499176186
 30
0.0
 11
1192.93002749746
 21
66.54930615515909
 31
0.0
  0
LINE
  5
1605E
  8
01
 10
1188.93002749746
 20
62.54929684798159
 30
0.0
 11
1189.43002749746
 21
62.64929801137882
 31
0.0
  0
LINE
  5
1605F
  8
01
 10
1188.93002749746
 20
64.14929684798173
 30
0.0
 11
1189.43002749746
 21
64.24929801137884
 31
0.0
  0
LINE
  5
16060
  8
01
 10
1192.43002749746
 20
64.84930499176195
 30
0.0
 11
1192.93002749746
 21
64.94930615515906
 31
0.0
  0
LINE
  5
16061
  8
01
 10
1192.43002749746
 20
63.24930499176205
 30
0.0
 11
1192.93002749746
 21
63.34930615515916
 31
0.0
  0
LINE
  5
16062
  8
01
 10
1192.93002749746
 20
63.34930615515916
 30
0.0
 11
1188.93002749746
 21
64.14929684798173
 31
0.0
  0
LINE
  5
16063
  8
01
 10
1189.609248654071
 20
72.14929842838998
 30
0.0
 11
1190.160998117874
 21
72.33206257101799
 31
0.0
  0
LINE
  5
16064
  8
01
 10
1188.93002749746
 20
68.94929684798169
 30
0.0
 11
1189.43002749746
 21
69.0492980113788
 31
0.0
  0
LINE
  5
16065
  8
01
 10
1188.93002749746
 20
67.34929684798166
 30
0.0
 11
1189.43002749746
 21
67.44929801137866
 31
0.0
  0
LINE
  5
16066
  8
01
 10
1189.156434549664
 20
70.54929737478435
 30
0.0
 11
1189.693028284935
 21
70.67856807241421
 31
0.0
  0
LINE
  5
16067
  8
01
 10
1192.009112900251
 20
71.23653558919884
 30
0.0
 11
1192.477211355401
 21
71.34930510154888
 31
0.0
  0
LINE
  5
16068
  8
01
 10
1192.43002749746
 20
68.049304991762
 30
0.0
 11
1192.93002749746
 21
68.14930615515911
 31
0.0
  0
LINE
  5
16069
  8
01
 10
1192.43002749746
 20
69.64930499176191
 30
0.0
 11
1192.93002749746
 21
69.74930615515902
 31
0.0
  0
LINE
  5
1606A
  8
01
 10
1191.567226006722
 20
72.79786825150424
 30
0.0
 11
1192.024397847353
 21
72.94930404794465
 31
0.0
  0
LINE
  5
1606B
  8
01
 10
1192.477211355401
 20
71.34930510154888
 30
0.0
 11
1189.609248654071
 21
72.14929842838998
 31
0.0
  0
LINE
  5
1606C
  8
01
 10
1192.93002749746
 20
68.14930615515911
 30
0.0
 11
1188.93002749746
 21
68.94929684798169
 31
0.0
  0
LINE
  5
1606D
  8
01
 10
1192.93002749746
 20
69.74930615515902
 30
0.0
 11
1189.156434549664
 21
70.54929737478435
 31
0.0
  0
LINE
  5
1606E
  8
01
 10
1192.93002749746
 20
66.54930615515909
 30
0.0
 11
1188.93002749746
 21
67.34929684798166
 31
0.0
  0
LINE
  5
1606F
  8
01
 10
1192.93002749746
 20
53.7493061551547
 30
0.0
 11
1188.93002749746
 21
54.54929684797295
 31
0.0
  0
LINE
  5
16070
  8
01
 10
1188.93002749746
 20
54.54929684797295
 30
0.0
 11
1189.43002749746
 21
54.64929801137063
 31
0.0
  0
LINE
  5
16071
  8
01
 10
1192.43002749746
 20
55.24930499176136
 30
0.0
 11
1192.93002749746
 21
55.34930615515904
 31
0.0
  0
LINE
  5
16072
  8
01
 10
1188.93002749746
 20
52.94929684797282
 30
0.0
 11
1189.43002749746
 21
53.0492980113705
 31
0.0
  0
LINE
  5
16073
  8
01
 10
1188.93002749746
 20
51.34929684797291
 30
0.0
 11
1189.43002749746
 21
51.44929801137059
 31
0.0
  0
LINE
  5
16074
  8
01
 10
1192.43002749746
 20
53.64930499175702
 30
0.0
 11
1192.93002749746
 21
53.7493061551547
 31
0.0
  0
LINE
  5
16075
  8
01
 10
1192.43002749746
 20
52.04930499175688
 30
0.0
 11
1192.93002749746
 21
52.14930615515456
 31
0.0
  0
LINE
  5
16076
  8
01
 10
1192.93002749746
 20
52.14930615515456
 30
0.0
 11
1188.93002749746
 21
52.94929684797282
 31
0.0
  0
LINE
  5
16077
  8
01
 10
1188.93002749746
 20
59.34929684797734
 30
0.0
 11
1189.43002749746
 21
59.44929801137502
 31
0.0
  0
LINE
  5
16078
  8
01
 10
1188.93002749746
 20
60.94929684798169
 30
0.0
 11
1189.43002749746
 21
61.0492980113788
 31
0.0
  0
LINE
  5
16079
  8
01
 10
1188.93002749746
 20
56.1492968479773
 30
0.0
 11
1189.43002749746
 21
56.24929801137498
 31
0.0
  0
LINE
  5
1607A
  8
01
 10
1188.93002749746
 20
57.74929684797721
 30
0.0
 11
1189.43002749746
 21
57.84929801137488
 31
0.0
  0
LINE
  5
1607B
  8
01
 10
1192.43002749746
 20
61.64930499176191
 30
0.0
 11
1192.93002749746
 21
61.74930615515902
 31
0.0
  0
LINE
  5
1607C
  8
01
 10
1192.43002749746
 20
60.04930499176132
 30
0.0
 11
1192.93002749746
 21
60.14930615515911
 31
0.0
  0
LINE
  5
1607D
  8
01
 10
1192.43002749746
 20
56.84930499176127
 30
0.0
 11
1192.93002749746
 21
56.94930615515895
 31
0.0
  0
LINE
  5
1607E
  8
01
 10
1192.43002749746
 20
58.44930499176141
 30
0.0
 11
1192.93002749746
 21
58.54930615515909
 31
0.0
  0
LINE
  5
1607F
  8
01
 10
1192.93002749746
 20
58.54930615515909
 30
0.0
 11
1188.93002749746
 21
59.34929684797734
 31
0.0
  0
LINE
  5
16080
  8
01
 10
1192.93002749746
 20
60.14930615515911
 30
0.0
 11
1188.93002749746
 21
60.94929684798169
 31
0.0
  0
LINE
  5
16081
  8
01
 10
1192.93002749746
 20
56.94930615515895
 30
0.0
 11
1188.93002749746
 21
57.74929684797721
 31
0.0
  0
LINE
  5
16082
  8
01
 10
1192.93002749746
 20
55.34930615515904
 30
0.0
 11
1188.93002749746
 21
56.1492968479773
 31
0.0
  0
LINE
  5
16083
  8
01
 10
1192.43002749746
 20
45.64930499175281
 30
0.0
 11
1192.93002749746
 21
45.74930615515049
 31
0.0
  0
LINE
  5
16084
  8
01
 10
1192.93002749746
 20
45.74930615515049
 30
0.0
 11
1188.93002749746
 21
46.54929684796875
 31
0.0
  0
LINE
  5
16085
  8
01
 10
1188.93002749746
 20
46.54929684796875
 30
0.0
 11
1189.43002749746
 21
46.64929801136643
 31
0.0
  0
LINE
  5
16086
  8
01
 10
1192.43002749746
 20
47.24930499175272
 30
0.0
 11
1192.93002749746
 21
47.3493061551504
 31
0.0
  0
LINE
  5
16087
  8
01
 10
1192.43002749746
 20
48.84930499175263
 30
0.0
 11
1192.93002749746
 21
48.94930615515031
 31
0.0
  0
LINE
  5
16088
  8
01
 10
1192.93002749746
 20
48.94930615515031
 30
0.0
 11
1188.93002749746
 21
49.74929684796857
 31
0.0
  0
LINE
  5
16089
  8
01
 10
1188.93002749746
 20
48.14929684796866
 30
0.0
 11
1189.43002749746
 21
48.24929801136634
 31
0.0
  0
LINE
  5
1608A
  8
01
 10
1188.93002749746
 20
49.74929684796857
 30
0.0
 11
1189.43002749746
 21
49.84929801136624
 31
0.0
  0
LINE
  5
1608B
  8
01
 10
1192.93002749746
 20
47.3493061551504
 30
0.0
 11
1188.93002749746
 21
48.14929684796866
 31
0.0
  0
LINE
  5
1608C
  8
01
 10
1192.43002749746
 20
50.44930499175697
 30
0.0
 11
1192.93002749746
 21
50.54930615515465
 31
0.0
  0
LINE
  5
1608D
  8
01
 10
1192.43002749746
 20
44.04930499175291
 30
0.0
 11
1192.93002749746
 21
44.14930615515059
 31
0.0
  0
LINE
  5
1608E
  8
01
 10
1192.93002749746
 20
44.14930615515059
 30
0.0
 11
1188.93002749746
 21
44.94929684796884
 31
0.0
  0
LINE
  5
1608F
  8
01
 10
1188.93002749746
 20
44.94929684796884
 30
0.0
 11
1189.43002749746
 21
45.04929801136652
 31
0.0
  0
LINE
  5
16090
  8
01
 10
1192.43002749746
 20
42.449304991753
 30
0.0
 11
1192.93002749746
 21
42.54930615515068
 31
0.0
  0
LINE
  5
16091
  8
01
 10
1192.93002749746
 20
42.54930615515068
 30
0.0
 11
1188.93002749746
 21
43.34929684796888
 31
0.0
  0
LINE
  5
16092
  8
01
 10
1188.93002749746
 20
43.34929684796888
 30
0.0
 11
1189.43002749746
 21
43.44929801136656
 31
0.0
  0
LINE
  5
16093
  8
01
 10
1192.430044947504
 20
41.04930150178482
 30
0.0
 11
1188.93002749746
 21
41.74929684796897
 31
0.0
  0
LINE
  5
16094
  8
01
 10
1188.93002749746
 20
41.74929684796897
 30
0.0
 11
1189.43002749746
 21
41.84929801136665
 31
0.0
  0
LINE
  5
16095
  8
01
 10
1194.730074036462
 20
40.04930150178482
 30
0.0
 11
1194.730074036462
 21
41.04930150178482
 31
0.0
  0
LINE
  5
16096
  8
01
 10
1148.730113379938
 20
40.04930150178482
 30
0.0
 11
1148.730113379938
 21
41.04930150178482
 31
0.0
  0
LINE
  5
16097
  8
01
 10
1148.730113379938
 20
41.04930150178482
 30
0.0
 11
1141.130113379938
 21
41.04930150178482
 31
0.0
  0
LINE
  5
16098
  8
01
 10
1148.730113379938
 20
40.04930150178482
 30
0.0
 11
1141.130113379938
 21
40.04930150178482
 31
0.0
  0
LINE
  5
16099
  8
01
 10
1144.930159912732
 20
75.04930150162247
 30
0.0
 11
1143.430159912732
 21
69.7493049917608
 31
0.0
  0
LINE
  5
1609A
  8
01
 10
1143.430159912732
 20
69.7493049917608
 30
0.0
 11
1143.430159912732
 21
41.04930499175308
 31
0.0
  0
LINE
  5
1609B
  8
01
 10
1144.930159912732
 20
75.04930150162247
 30
0.0
 11
1146.430159912732
 21
69.74929801137714
 31
0.0
  0
LINE
  5
1609C
  8
01
 10
1141.430113376834
 20
40.04930964556699
 30
0.0
 11
1148.430113376834
 21
40.04929335800265
 31
0.0
  0
LINE
  5
1609D
  8
01
 10
1146.430159912732
 20
69.74929801137714
 30
0.0
 11
1146.430159912732
 21
41.04930150178482
 31
0.0
  0
LINE
  5
1609E
  8
01
 10
1141.430113376834
 20
40.04930964556699
 30
0.0
 11
1141.430113376834
 21
38.94930615537167
 31
0.0
  0
ARC
  5
1609F
  8
01
 10
1142.930113376834
 20
38.94930615537167
 30
0.0
 40
1.5
 50
180.0
 51
269.9998666844684
  0
LINE
  5
160A0
  8
01
 10
1148.430113376834
 20
40.04929335800265
 30
0.0
 11
1148.430113376834
 21
38.94929684819207
 31
0.0
  0
LINE
  5
160A1
  8
01
 10
1142.930109886641
 20
37.44930615537576
 30
0.0
 11
1146.930109886641
 21
37.44929684819611
 31
0.0
  0
ARC
  5
160A2
  8
01
 10
1146.930113376834
 20
38.94929684819207
 30
0.0
 40
1.5
 50
269.9998666844684
 51
0.0
  0
LINE
  5
160A3
  8
1CENTER
 10
1144.930113376834
 20
76.48009641908786
 30
0.0
 11
1144.930113376834
 21
36.37902509247599
 31
0.0
  0
LINE
  5
160A4
  8
01
 10
1143.835789562838
 20
72.94930404794465
 30
0.0
 11
1145.798124651714
 21
73.74929948199562
 31
0.0
  0
LINE
  5
160A5
  8
01
 10
1145.798124651714
 20
73.74929948199562
 30
0.0
 11
1145.209848076672
 21
74.06106933824773
 31
0.0
  0
LINE
  5
160A6
  8
01
 10
1142.930159912732
 20
50.54930615515465
 30
0.0
 11
1146.930159912732
 21
51.34929684797291
 31
0.0
  0
LINE
  5
160A7
  8
01
 10
1142.930159912732
 20
61.74930615515902
 30
0.0
 11
1146.930159912732
 21
62.54929684798159
 31
0.0
  0
LINE
  5
160A8
  8
01
 10
1142.930159912732
 20
64.94930615515906
 30
0.0
 11
1146.930159912732
 21
65.74929684798164
 31
0.0
  0
LINE
  5
160A9
  8
01
 10
1146.930159912732
 20
65.74929684798164
 30
0.0
 11
1146.430159912732
 21
65.84929801137886
 31
0.0
  0
LINE
  5
160AA
  8
01
 10
1143.430159912732
 20
66.44930499176186
 30
0.0
 11
1142.930159912732
 21
66.54930615515909
 31
0.0
  0
LINE
  5
160AB
  8
01
 10
1146.930159912732
 20
62.54929684798159
 30
0.0
 11
1146.430159912732
 21
62.64929801137882
 31
0.0
  0
LINE
  5
160AC
  8
01
 10
1146.930159912732
 20
64.14929684798173
 30
0.0
 11
1146.430159912732
 21
64.24929801137884
 31
0.0
  0
LINE
  5
160AD
  8
01
 10
1143.430159912732
 20
64.84930499176195
 30
0.0
 11
1142.930159912732
 21
64.94930615515906
 31
0.0
  0
LINE
  5
160AE
  8
01
 10
1143.430159912732
 20
63.24930499176205
 30
0.0
 11
1142.930159912732
 21
63.34930615515916
 31
0.0
  0
LINE
  5
160AF
  8
01
 10
1142.930159912732
 20
63.34930615515916
 30
0.0
 11
1146.930159912732
 21
64.14929684798173
 31
0.0
  0
LINE
  5
160B0
  8
01
 10
1146.250938756121
 20
72.14929842838998
 30
0.0
 11
1145.699189292317
 21
72.33206257101799
 31
0.0
  0
LINE
  5
160B1
  8
01
 10
1146.930159912732
 20
68.94929684798169
 30
0.0
 11
1146.430159912732
 21
69.0492980113788
 31
0.0
  0
LINE
  5
160B2
  8
01
 10
1146.930159912732
 20
67.34929684798166
 30
0.0
 11
1146.430159912732
 21
67.44929801137866
 31
0.0
  0
LINE
  5
160B3
  8
01
 10
1146.703752860528
 20
70.54929737478435
 30
0.0
 11
1146.167159125256
 21
70.67856807241421
 31
0.0
  0
LINE
  5
160B4
  8
01
 10
1143.85107450994
 20
71.23653558919884
 30
0.0
 11
1143.38297605479
 21
71.34930510154888
 31
0.0
  0
LINE
  5
160B5
  8
01
 10
1143.430159912732
 20
68.049304991762
 30
0.0
 11
1142.930159912732
 21
68.14930615515911
 31
0.0
  0
LINE
  5
160B6
  8
01
 10
1143.430159912732
 20
69.64930499176191
 30
0.0
 11
1142.930159912732
 21
69.74930615515902
 31
0.0
  0
LINE
  5
160B7
  8
01
 10
1144.29296140347
 20
72.79786825150424
 30
0.0
 11
1143.835789562838
 21
72.94930404794465
 31
0.0
  0
LINE
  5
160B8
  8
01
 10
1143.38297605479
 20
71.34930510154888
 30
0.0
 11
1146.250938756121
 21
72.14929842838998
 31
0.0
  0
LINE
  5
160B9
  8
01
 10
1142.930159912732
 20
68.14930615515911
 30
0.0
 11
1146.930159912732
 21
68.94929684798169
 31
0.0
  0
LINE
  5
160BA
  8
01
 10
1142.930159912732
 20
69.74930615515902
 30
0.0
 11
1146.703752860528
 21
70.54929737478435
 31
0.0
  0
LINE
  5
160BB
  8
01
 10
1142.930159912732
 20
66.54930615515909
 30
0.0
 11
1146.930159912732
 21
67.34929684798166
 31
0.0
  0
LINE
  5
160BC
  8
01
 10
1142.930159912732
 20
53.7493061551547
 30
0.0
 11
1146.930159912732
 21
54.54929684797295
 31
0.0
  0
LINE
  5
160BD
  8
01
 10
1146.930159912732
 20
54.54929684797295
 30
0.0
 11
1146.430159912732
 21
54.64929801137063
 31
0.0
  0
LINE
  5
160BE
  8
01
 10
1143.430159912732
 20
55.24930499176136
 30
0.0
 11
1142.930159912732
 21
55.34930615515904
 31
0.0
  0
LINE
  5
160BF
  8
01
 10
1146.930159912732
 20
52.94929684797282
 30
0.0
 11
1146.430159912732
 21
53.0492980113705
 31
0.0
  0
LINE
  5
160C0
  8
01
 10
1146.930159912732
 20
51.34929684797291
 30
0.0
 11
1146.430159912732
 21
51.44929801137059
 31
0.0
  0
LINE
  5
160C1
  8
01
 10
1143.430159912732
 20
53.64930499175702
 30
0.0
 11
1142.930159912732
 21
53.7493061551547
 31
0.0
  0
LINE
  5
160C2
  8
01
 10
1143.430159912732
 20
52.04930499175688
 30
0.0
 11
1142.930159912732
 21
52.14930615515456
 31
0.0
  0
LINE
  5
160C3
  8
01
 10
1142.930159912732
 20
52.14930615515456
 30
0.0
 11
1146.930159912732
 21
52.94929684797282
 31
0.0
  0
LINE
  5
160C4
  8
01
 10
1146.930159912732
 20
59.34929684797734
 30
0.0
 11
1146.430159912732
 21
59.44929801137502
 31
0.0
  0
LINE
  5
160C5
  8
01
 10
1146.930159912732
 20
60.94929684798169
 30
0.0
 11
1146.430159912732
 21
61.0492980113788
 31
0.0
  0
LINE
  5
160C6
  8
01
 10
1146.930159912732
 20
56.1492968479773
 30
0.0
 11
1146.430159912732
 21
56.24929801137498
 31
0.0
  0
LINE
  5
160C7
  8
01
 10
1146.930159912732
 20
57.74929684797721
 30
0.0
 11
1146.430159912732
 21
57.84929801137488
 31
0.0
  0
LINE
  5
160C8
  8
01
 10
1143.430159912732
 20
61.64930499176191
 30
0.0
 11
1142.930159912732
 21
61.74930615515902
 31
0.0
  0
LINE
  5
160C9
  8
01
 10
1143.430159912732
 20
60.04930499176132
 30
0.0
 11
1142.930159912732
 21
60.14930615515911
 31
0.0
  0
LINE
  5
160CA
  8
01
 10
1143.430159912732
 20
56.84930499176127
 30
0.0
 11
1142.930159912732
 21
56.94930615515895
 31
0.0
  0
LINE
  5
160CB
  8
01
 10
1143.430159912732
 20
58.44930499176141
 30
0.0
 11
1142.930159912732
 21
58.54930615515909
 31
0.0
  0
LINE
  5
160CC
  8
01
 10
1142.930159912732
 20
58.54930615515909
 30
0.0
 11
1146.930159912732
 21
59.34929684797734
 31
0.0
  0
LINE
  5
160CD
  8
01
 10
1142.930159912732
 20
60.14930615515911
 30
0.0
 11
1146.930159912732
 21
60.94929684798169
 31
0.0
  0
LINE
  5
160CE
  8
01
 10
1142.930159912732
 20
56.94930615515895
 30
0.0
 11
1146.930159912732
 21
57.74929684797721
 31
0.0
  0
LINE
  5
160CF
  8
01
 10
1142.930159912732
 20
55.34930615515904
 30
0.0
 11
1146.930159912732
 21
56.1492968479773
 31
0.0
  0
LINE
  5
160D0
  8
01
 10
1143.430159912732
 20
45.64930499175281
 30
0.0
 11
1142.930159912732
 21
45.74930615515049
 31
0.0
  0
LINE
  5
160D1
  8
01
 10
1142.930159912732
 20
45.74930615515049
 30
0.0
 11
1146.930159912732
 21
46.54929684796875
 31
0.0
  0
LINE
  5
160D2
  8
01
 10
1146.930159912732
 20
46.54929684796875
 30
0.0
 11
1146.430159912732
 21
46.64929801136643
 31
0.0
  0
LINE
  5
160D3
  8
01
 10
1143.430159912732
 20
47.24930499175272
 30
0.0
 11
1142.930159912732
 21
47.3493061551504
 31
0.0
  0
LINE
  5
160D4
  8
01
 10
1143.430159912732
 20
48.84930499175263
 30
0.0
 11
1142.930159912732
 21
48.94930615515031
 31
0.0
  0
LINE
  5
160D5
  8
01
 10
1142.930159912732
 20
48.94930615515031
 30
0.0
 11
1146.930159912732
 21
49.74929684796857
 31
0.0
  0
LINE
  5
160D6
  8
01
 10
1146.930159912732
 20
48.14929684796866
 30
0.0
 11
1146.430159912732
 21
48.24929801136634
 31
0.0
  0
LINE
  5
160D7
  8
01
 10
1146.930159912732
 20
49.74929684796857
 30
0.0
 11
1146.430159912732
 21
49.84929801136624
 31
0.0
  0
LINE
  5
160D8
  8
01
 10
1142.930159912732
 20
47.3493061551504
 30
0.0
 11
1146.930159912732
 21
48.14929684796866
 31
0.0
  0
LINE
  5
160D9
  8
01
 10
1143.430159912732
 20
50.44930499175697
 30
0.0
 11
1142.930159912732
 21
50.54930615515465
 31
0.0
  0
LINE
  5
160DA
  8
01
 10
1143.430159912732
 20
44.04930499175291
 30
0.0
 11
1142.930159912732
 21
44.14930615515059
 31
0.0
  0
LINE
  5
160DB
  8
01
 10
1142.930159912732
 20
44.14930615515059
 30
0.0
 11
1146.930159912732
 21
44.94929684796884
 31
0.0
  0
LINE
  5
160DC
  8
01
 10
1146.930159912732
 20
44.94929684796884
 30
0.0
 11
1146.430159912732
 21
45.04929801136652
 31
0.0
  0
LINE
  5
160DD
  8
01
 10
1143.430159912732
 20
42.449304991753
 30
0.0
 11
1142.930159912732
 21
42.54930615515068
 31
0.0
  0
LINE
  5
160DE
  8
01
 10
1142.930159912732
 20
42.54930615515068
 30
0.0
 11
1146.930159912732
 21
43.34929684796888
 31
0.0
  0
LINE
  5
160DF
  8
01
 10
1146.930159912732
 20
43.34929684796888
 30
0.0
 11
1146.430159912732
 21
43.44929801136656
 31
0.0
  0
LINE
  5
160E0
  8
01
 10
1143.430142462687
 20
41.04930150178482
 30
0.0
 11
1146.930159912732
 21
41.74929684796897
 31
0.0
  0
LINE
  5
160E1
  8
01
 10
1146.930159912732
 20
41.74929684796897
 30
0.0
 11
1146.430159912732
 21
41.84929801136665
 31
0.0
  0
LINE
  5
160E2
  8
01
 10
1141.130113373729
 20
40.04930150178482
 30
0.0
 11
1141.130113373729
 21
41.04930150178482
 31
0.0
  0
LINE
  5
16403
  8
01
 10
325.837644500359
 20
29.24848367624145
 30
0.0
 11
325.5059061435519
 21
29.24848367624145
 31
0.0
  0
LINE
  5
16404
  8
01
 10
325.5059061435519
 20
29.24848367624145
 30
0.0
 11
324.9955052109459
 21
30.46047452200673
 31
0.0
  0
LINE
  5
16405
  8
01
 10
324.9955052109459
 20
30.46047452200673
 30
0.0
 11
324.5200358155754
 21
29.19579712836003
 31
0.0
  0
LINE
  5
16406
  8
01
 10
324.5200358155754
 20
29.19579712836003
 30
0.0
 11
324.0445664202056
 21
30.46047452200673
 31
0.0
  0
LINE
  5
16407
  8
01
 10
324.0445664202056
 20
30.46047452200673
 30
0.0
 11
323.5343879814671
 21
29.24848367624145
 31
0.0
  0
LINE
  5
16408
  8
01
 10
323.5343879814671
 20
29.24848367624145
 30
0.0
 11
323.2026496246599
 21
29.24848367624145
 31
0.0
  0
LINE
  5
16409
  8
01
 10
323.2026496246599
 20
29.24848367624145
 30
0.0
 11
324.0459013834119
 21
31.2509284859425
 31
0.0
  0
LINE
  5
1640A
  8
01
 10
324.0459013834119
 20
31.2509284859425
 30
0.0
 11
324.5200358155754
 21
29.98943275460442
 31
0.0
  0
LINE
  5
1640B
  8
01
 10
324.5200358155754
 20
29.98943275460442
 30
0.0
 11
324.9943927416069
 21
31.2509284859425
 31
0.0
  0
LINE
  5
1640C
  8
01
 10
324.9943927416069
 20
31.2509284859425
 30
0.0
 11
325.837644500359
 21
29.24848367624145
 31
0.0
  0
LINE
  5
1640D
  8
01
 10
322.6255005317305
 20
30.67126521230784
 30
0.0
 11
322.3931822985968
 21
31.19085514165454
 31
0.0
  0
LINE
  5
1640E
  8
01
 10
322.3931822985968
 20
31.19085514165454
 30
0.0
 11
321.863236540838
 21
31.19085514165454
 31
0.0
  0
ARC
  5
1640F
  8
01
 10
321.8632365408386
 20
30.67021949113104
 30
0.0
 40
0.5206356505235021
 50
90.0
 51
180.0
  0
LINE
  5
16410
  8
01
 10
321.3426008903151
 20
30.67021949113041
 30
0.0
 11
321.3426008903151
 21
29.24848367624145
 31
0.0
  0
LINE
  5
16411
  8
01
 10
321.3426008903151
 20
29.24848367624145
 30
0.0
 11
321.6629920598676
 21
29.24848367624145
 31
0.0
  0
LINE
  5
16412
  8
01
 10
321.6629920598676
 20
29.24848367624145
 30
0.0
 11
321.6629920598676
 21
30.69024393922791
 31
0.0
  0
ARC
  5
16413
  8
01
 10
321.863236540838
 20
30.69024393922797
 30
0.0
 40
0.2002444809704116
 50
90.0
 51
180.0
  0
LINE
  5
16414
  8
01
 10
321.863236540838
 20
30.89048842019838
 30
0.0
 11
322.1810492449146
 21
30.89048842019838
 31
0.0
  0
LINE
  5
16415
  8
01
 10
322.1810492449146
 20
30.89048842019838
 30
0.0
 11
322.9392168852504
 21
29.19579712836003
 31
0.0
  0
LINE
  5
16416
  8
01
 10
322.9392168852504
 20
29.19579712836003
 30
0.0
 11
323.8351996906576
 21
31.19824193806107
 31
0.0
  0
LINE
  5
16417
  8
01
 10
320.1211095563964
 20
29.24848367624145
 30
0.0
 11
320.1211095563966
 21
30.64607458499722
 31
0.0
  0
ARC
  5
16418
  8
01
 10
320.3814273816578
 20
30.64607458499712
 30
0.0
 40
0.2603178252611908
 50
119.9999999999701
 51
180.0
  0
ARC
  5
16419
  8
01
 10
320.4715373980945
 20
30.48999945825786
 30
0.0
 40
0.4405378581346286
 50
60.00000000002957
 51
119.9999999999704
  0
ARC
  5
1641A
  8
01
 10
320.5616474145313
 20
30.64607458499702
 30
0.0
 40
0.260317825261253
 50
0.0000000000455964
 51
60.00000000007412
  0
LINE
  5
1641B
  8
01
 10
320.8219652397926
 20
30.64607458499722
 30
0.0
 11
320.8219652397926
 21
29.24848367624145
 31
0.0
  0
LINE
  5
1641C
  8
01
 10
320.8219652397926
 20
29.24848367624145
 30
0.0
 11
321.1423564093452
 21
29.24848367624145
 31
0.0
  0
LINE
  5
1641D
  8
01
 10
321.1423564093452
 20
29.24848367624145
 30
0.0
 11
321.1423564093452
 21
30.64607458499722
 31
0.0
  0
ARC
  5
1641E
  8
01
 10
320.5616474145312
 20
30.64607458499706
 30
0.0
 40
0.580708994814036
 50
0.0
 51
60.00000000002854
  0
ARC
  5
1641F
  8
01
 10
320.4715373980953
 20
30.48999945825762
 30
0.0
 40
0.760929027687194
 50
60.00000000009737
 51
120.0000000000396
  0
ARC
  5
16420
  8
01
 10
320.3814273816571
 20
30.64607458499671
 30
0.0
 40
0.5807089948131916
 50
119.9999999999206
 51
179.9999999999491
  0
LINE
  5
16421
  8
01
 10
319.800718386844
 20
30.64607458499722
 30
0.0
 11
319.8007183868442
 21
29.24848367624145
 31
0.0
  0
LINE
  5
16422
  8
01
 10
319.8007183868442
 20
29.24848367624145
 30
0.0
 11
320.1211095563964
 21
29.24848367624145
 31
0.0
  0
LINE
  5
16423
  8
01
 10
319.5931316082397
 20
29.19577487897368
 30
0.0
 11
319.5931316082397
 21
31.19821968867473
 31
0.0
  0
LINE
  5
16424
  8
01
 10
319.5931316082397
 20
31.19821968867473
 30
0.0
 11
319.2769678221745
 21
31.19821968867473
 31
0.0
  0
LINE
  5
16425
  8
01
 10
319.2769678221745
 20
31.19821968867473
 30
0.0
 11
319.2769678221745
 21
30.00970194595629
 31
0.0
  0
LINE
  5
16426
  8
01
 10
319.2769678221745
 20
30.00970194595629
 30
0.0
 11
318.170283324013
 21
31.2509284859425
 31
0.0
  0
LINE
  5
16427
  8
01
 10
318.170283324013
 20
31.2509284859425
 30
0.0
 11
318.170283324013
 21
29.24848367624145
 31
0.0
  0
LINE
  5
16428
  8
01
 10
318.170283324013
 20
29.24848367624145
 30
0.0
 11
318.486447110078
 21
29.24848367624145
 31
0.0
  0
LINE
  5
16429
  8
01
 10
318.486447110078
 20
29.24848367624145
 30
0.0
 11
318.486447110078
 21
30.43702366834623
 31
0.0
  0
LINE
  5
1642A
  8
01
 10
318.486447110078
 20
30.43702366834623
 30
0.0
 11
319.5931316082397
 21
29.19579712836003
 31
0.0
  0
LINE
  5
1642B
  8
01
 10
323.1232193138753
 20
30.38144470018415
 30
0.0
 11
322.7552144566253
 21
30.38144470018415
 31
0.0
  0
LINE
  5
1642C
  8
01
 10
322.7552144566253
 20
30.38144470018415
 30
0.0
 11
322.9392168852504
 21
29.97003128933738
 31
0.0
  0
LINE
  5
1642D
  8
01
 10
322.9392168852504
 20
29.97003128933738
 30
0.0
 11
323.1232193138753
 21
30.38144470018415
 31
0.0
  0
LINE
  5
1642E
  8
01
 10
326.1273315161627
 20
29.97003128933738
 30
0.0
 11
326.3113339447873
 21
30.38144470018415
 31
0.0
  0
LINE
  5
1642F
  8
01
 10
326.3113339447873
 20
30.38144470018415
 30
0.0
 11
325.9433290875377
 21
30.38144470018415
 31
0.0
  0
LINE
  5
16430
  8
01
 10
325.9433290875377
 20
30.38144470018415
 30
0.0
 11
326.1273315161627
 21
29.97003128933738
 31
0.0
  0
LINE
  5
16431
  8
01
 10
323.4887767385795
 20
31.19824193806107
 30
0.0
 11
323.2529332387702
 21
30.67126521230784
 31
0.0
  0
LINE
  5
16432
  8
01
 10
323.2529332387702
 20
30.67126521230784
 30
0.0
 11
322.6255005317305
 21
30.67126521230784
 31
0.0
  0
LINE
  5
16433
  8
01
 10
327.1550306912748
 20
31.19824193806107
 30
0.0
 11
327.8663435864543
 21
30.14431073594187
 31
0.0
  0
LINE
  5
16434
  8
01
 10
327.8663435864543
 20
30.14431073594187
 30
0.0
 11
327.1550306912748
 21
29.24848367624145
 31
0.0
  0
LINE
  5
16435
  8
01
 10
327.1550306912748
 20
29.24848367624145
 30
0.0
 11
326.7512043213183
 21
29.24848367624145
 31
0.0
  0
LINE
  5
16436
  8
01
 10
326.7512043213183
 20
29.24848367624145
 30
0.0
 11
327.474531885356
 21
30.15948481772193
 31
0.0
  0
LINE
  5
16437
  8
01
 10
327.474531885356
 20
30.15948481772193
 30
0.0
 11
326.9236370688204
 21
30.97572582093017
 31
0.0
  0
LINE
  5
16438
  8
01
 10
326.9236370688204
 20
30.97572582093017
 30
0.0
 11
326.1273315161627
 21
29.19577487897368
 31
0.0
  0
LINE
  5
16439
  8
01
 10
327.8663435864543
 20
31.19821968867473
 30
0.0
 11
328.1825073725192
 21
31.19821968867473
 31
0.0
  0
LINE
  5
1643A
  8
01
 10
328.1825073725192
 20
31.19821968867473
 30
0.0
 11
328.1825073725192
 21
29.24848367624145
 31
0.0
  0
LINE
  5
1643B
  8
01
 10
328.1825073725192
 20
29.24848367624145
 30
0.0
 11
327.8663435864543
 21
29.24848367624145
 31
0.0
  0
LINE
  5
1643C
  8
01
 10
327.8663435864543
 20
29.24848367624145
 30
0.0
 11
327.8663435864543
 21
31.19821968867473
 31
0.0
  0
LINE
  5
1643D
  8
01
 10
326.6768913694915
 20
31.19824193806107
 30
0.0
 11
326.4410478696823
 21
30.67126521230784
 31
0.0
  0
LINE
  5
1643E
  8
01
 10
326.4410478696823
 20
30.67126521230784
 30
0.0
 11
325.8136151626427
 21
30.67126521230784
 31
0.0
  0
LINE
  5
1643F
  8
01
 10
325.8136151626427
 20
30.67126521230784
 30
0.0
 11
325.5779941567013
 21
31.19824193806107
 31
0.0
  0
LINE
  5
16440
  8
01
 10
627.9778488609181
 20
-104.185458112023
 30
0.0
 11
627.9778488609181
 21
-96.58545811202282
 31
0.0
  0
LINE
  5
16441
  8
01
 10
627.9778488609181
 20
-104.185458112023
 30
0.0
 11
628.9778488609181
 21
-104.185458112023
 31
0.0
  0
LINE
  5
16442
  8
01
 10
628.9778488609181
 20
-104.185458112023
 30
0.0
 11
628.9778488609181
 21
-96.58545811202282
 31
0.0
  0
LINE
  5
16443
  8
01
 10
627.9778488609181
 20
-96.58545811202282
 30
0.0
 11
628.9778488609181
 21
-96.58545811202282
 31
0.0
  0
TEXT
  5
16444
  8
01
  6
CONTINUOUS
 10
639.802743109599
 20
-66.36627164817583
 30
0.0
 40
3.5
  1
PB
  0
TEXT
  5
16445
  8
01
  6
CONTINUOUS
 10
652.9381612547642
 20
-60.52807720373138
 30
0.0
 40
3.5
  1
Plywood 9mm
  0
TEXT
  5
16446
  8
01
  6
CONTINUOUS
 10
652.9381612547642
 20
-66.36141053706471
 30
0.0
 40
3.5
  1
and above
  0
LINE
  5
16448
  8
1CENTER
 10
623.9781196685699
 20
-101.5890239640653
 30
0.0
 11
623.9778506795724
 21
-117.4902603659442
 31
0.0
  0
LINE
  5
16449
  8
1HATCH
 10
622.3281014127034
 20
-103.5504984201713
 30
0.0
 11
622.3278933974507
 21
-112.9004757329557
 31
0.0
  0
LINE
  5
1644A
  8
1HATCH
 10
625.6281014126471
 20
-103.5505198266843
 30
0.0
 11
625.627893397074
 21
-112.900531576135
 31
0.0
  0
LINE
  5
1644B
  8
1HATCH
 10
625.9780987431177
 20
-103.900523084187
 30
0.0
 11
621.9780987432049
 21
-103.9004951626483
 31
0.0
  0
LINE
  5
1644C
  8
01
 10
627.9778715252529
 20
-115.2505370440585
 30
0.0
 11
619.977871525426
 21
-115.250481200981
 31
0.0
  0
LINE
  5
1644D
  8
1HATCH
 10
625.627893397074
 20
-112.900531576135
 30
0.0
 11
625.9778901395687
 21
-113.2505323905067
 31
0.0
  0
LINE
  5
1644E
  8
1HATCH
 10
622.3278933974507
 20
-112.9004757329557
 30
0.0
 11
621.9778901399152
 21
-113.2504765473424
 31
0.0
  0
LINE
  5
1644F
  8
01
 10
1170.591342857189
 20
32.44935719561408
 30
0.0
 11
1170.259604500382
 21
32.44935719561408
 31
0.0
  0
LINE
  5
16450
  8
01
 10
1170.259604500382
 20
32.44935719561408
 30
0.0
 11
1169.749203567776
 21
33.66134804137937
 31
0.0
  0
LINE
  5
16451
  8
01
 10
1169.749203567776
 20
33.66134804137937
 30
0.0
 11
1169.273734172405
 21
32.39667064773266
 31
0.0
  0
LINE
  5
16452
  8
01
 10
1169.273734172405
 20
32.39667064773266
 30
0.0
 11
1168.798264777035
 21
33.66134804137937
 31
0.0
  0
LINE
  5
16453
  8
01
 10
1168.798264777035
 20
33.66134804137937
 30
0.0
 11
1168.288086338297
 21
32.44935719561408
 31
0.0
  0
LINE
  5
16454
  8
01
 10
1168.288086338297
 20
32.44935719561408
 30
0.0
 11
1167.95634798149
 21
32.44935719561408
 31
0.0
  0
LINE
  5
16455
  8
01
 10
1167.95634798149
 20
32.44935719561408
 30
0.0
 11
1168.799599740242
 21
34.45180200531513
 31
0.0
  0
LINE
  5
16456
  8
01
 10
1168.799599740242
 20
34.45180200531513
 30
0.0
 11
1169.273734172405
 21
33.19030627397706
 31
0.0
  0
LINE
  5
16457
  8
01
 10
1169.273734172405
 20
33.19030627397706
 30
0.0
 11
1169.748091098437
 21
34.45180200531513
 31
0.0
  0
LINE
  5
16458
  8
01
 10
1169.748091098437
 20
34.45180200531513
 30
0.0
 11
1170.591342857189
 21
32.44935719561408
 31
0.0
  0
LINE
  5
16459
  8
01
 10
1167.37919888856
 20
33.87213873168048
 30
0.0
 11
1167.146880655427
 21
34.39172866102717
 31
0.0
  0
LINE
  5
1645A
  8
01
 10
1167.146880655427
 20
34.39172866102717
 30
0.0
 11
1166.616934897668
 21
34.39172866102717
 31
0.0
  0
ARC
  5
1645B
  8
01
 10
1166.616934897668
 20
33.87109301050373
 30
0.0
 40
0.5206356505234453
 50
90.0
 51
180.0
  0
LINE
  5
1645C
  8
01
 10
1166.096299247145
 20
33.87109301050305
 30
0.0
 11
1166.096299247145
 21
32.44935719561408
 31
0.0
  0
LINE
  5
1645D
  8
01
 10
1166.096299247145
 20
32.44935719561408
 30
0.0
 11
1166.416690416697
 21
32.44935719561408
 31
0.0
  0
LINE
  5
1645E
  8
01
 10
1166.416690416697
 20
32.44935719561408
 30
0.0
 11
1166.416690416697
 21
33.89111745860055
 31
0.0
  0
ARC
  5
1645F
  8
01
 10
1166.616934897668
 20
33.89111745860055
 30
0.0
 40
0.2002444809704684
 50
90.0
 51
180.0
  0
LINE
  5
16460
  8
01
 10
1166.616934897668
 20
34.09136193957102
 30
0.0
 11
1166.934747601744
 21
34.09136193957102
 31
0.0
  0
LINE
  5
16461
  8
01
 10
1166.934747601744
 20
34.09136193957102
 30
0.0
 11
1167.69291524208
 21
32.39667064773266
 31
0.0
  0
LINE
  5
16462
  8
01
 10
1167.69291524208
 20
32.39667064773266
 30
0.0
 11
1168.588898047487
 21
34.39911545743371
 31
0.0
  0
LINE
  5
16463
  8
01
 10
1164.874807913226
 20
32.44935719561408
 30
0.0
 11
1164.874807913227
 21
33.84694810436986
 31
0.0
  0
ARC
  5
16464
  8
01
 10
1165.135125738488
 20
33.84694810436995
 30
0.0
 40
0.2603178252610771
 50
119.9999999999701
 51
180.0
  0
ARC
  5
16465
  8
01
 10
1165.225235754924
 20
33.6908729776304
 30
0.0
 40
0.4405378581347423
 50
60.00000000002957
 51
119.9999999999704
  0
ARC
  5
16466
  8
01
 10
1165.315345771361
 20
33.84694810436975
 30
0.0
 40
0.2603178252611962
 50
0.0000000000239305
 51
60.00000000005247
  0
LINE
  5
16467
  8
01
 10
1165.575663596622
 20
33.84694810436986
 30
0.0
 11
1165.575663596622
 21
32.44935719561408
 31
0.0
  0
LINE
  5
16468
  8
01
 10
1165.575663596622
 20
32.44935719561408
 30
0.0
 11
1165.896054766175
 21
32.44935719561408
 31
0.0
  0
LINE
  5
16469
  8
01
 10
1165.896054766175
 20
32.44935719561408
 30
0.0
 11
1165.896054766175
 21
33.84694810436986
 31
0.0
  0
ARC
  5
1646A
  8
01
 10
1165.315345771361
 20
33.8469481043697
 30
0.0
 40
0.580708994814036
 50
0.0
 51
60.00000000002854
  0
ARC
  5
1646B
  8
01
 10
1165.225235754925
 20
33.69087297763036
 30
0.0
 40
0.7609290276870803
 50
60.00000000009737
 51
120.0000000000396
  0
ARC
  5
1646C
  8
01
 10
1165.135125738487
 20
33.84694810436925
 30
0.0
 40
0.5807089948132483
 50
119.9999999999109
 51
179.9999999999394
  0
LINE
  5
1646D
  8
01
 10
1164.554416743674
 20
33.84694810436986
 30
0.0
 11
1164.554416743674
 21
32.44935719561408
 31
0.0
  0
LINE
  5
1646E
  8
01
 10
1164.554416743674
 20
32.44935719561408
 30
0.0
 11
1164.874807913226
 21
32.44935719561408
 31
0.0
  0
LINE
  5
1646F
  8
01
 10
1164.346829965069
 20
32.39664839834631
 30
0.0
 11
1164.346829965069
 21
34.39909320804736
 31
0.0
  0
LINE
  5
16470
  8
01
 10
1164.346829965069
 20
34.39909320804736
 30
0.0
 11
1164.030666179004
 21
34.39909320804736
 31
0.0
  0
LINE
  5
16471
  8
01
 10
1164.030666179004
 20
34.39909320804736
 30
0.0
 11
1164.030666179004
 21
33.21057546532893
 31
0.0
  0
LINE
  5
16472
  8
01
 10
1164.030666179004
 20
33.21057546532893
 30
0.0
 11
1162.923981680843
 21
34.45180200531513
 31
0.0
  0
LINE
  5
16473
  8
01
 10
1162.923981680843
 20
34.45180200531513
 30
0.0
 11
1162.923981680843
 21
32.44935719561408
 31
0.0
  0
LINE
  5
16474
  8
01
 10
1162.923981680843
 20
32.44935719561408
 30
0.0
 11
1163.240145466908
 21
32.44935719561408
 31
0.0
  0
LINE
  5
16475
  8
01
 10
1163.240145466908
 20
32.44935719561408
 30
0.0
 11
1163.240145466908
 21
33.63789718771886
 31
0.0
  0
LINE
  5
16476
  8
01
 10
1163.240145466908
 20
33.63789718771886
 30
0.0
 11
1164.346829965069
 21
32.39667064773266
 31
0.0
  0
LINE
  5
16477
  8
01
 10
1167.876917670705
 20
33.58231821955678
 30
0.0
 11
1167.508912813455
 21
33.58231821955678
 31
0.0
  0
LINE
  5
16478
  8
01
 10
1167.508912813455
 20
33.58231821955678
 30
0.0
 11
1167.69291524208
 21
33.17090480871002
 31
0.0
  0
LINE
  5
16479
  8
01
 10
1167.69291524208
 20
33.17090480871002
 30
0.0
 11
1167.876917670705
 21
33.58231821955678
 31
0.0
  0
LINE
  5
1647A
  8
01
 10
1170.881029872992
 20
33.17090480871002
 30
0.0
 11
1171.065032301617
 21
33.58231821955678
 31
0.0
  0
LINE
  5
1647B
  8
01
 10
1171.065032301617
 20
33.58231821955678
 30
0.0
 11
1170.697027444367
 21
33.58231821955678
 31
0.0
  0
LINE
  5
1647C
  8
01
 10
1170.697027444367
 20
33.58231821955678
 30
0.0
 11
1170.881029872992
 21
33.17090480871002
 31
0.0
  0
LINE
  5
1647D
  8
01
 10
1168.242475095409
 20
34.39911545743371
 30
0.0
 11
1168.0066315956
 21
33.87213873168048
 31
0.0
  0
LINE
  5
1647E
  8
01
 10
1168.0066315956
 20
33.87213873168048
 30
0.0
 11
1167.37919888856
 21
33.87213873168048
 31
0.0
  0
LINE
  5
1647F
  8
01
 10
1171.908729048105
 20
34.39911545743371
 30
0.0
 11
1172.620041943284
 21
33.34518425531451
 31
0.0
  0
LINE
  5
16480
  8
01
 10
1172.620041943284
 20
33.34518425531451
 30
0.0
 11
1171.908729048105
 21
32.44935719561408
 31
0.0
  0
LINE
  5
16481
  8
01
 10
1171.908729048105
 20
32.44935719561408
 30
0.0
 11
1171.504902678148
 21
32.44935719561408
 31
0.0
  0
LINE
  5
16482
  8
01
 10
1171.504902678148
 20
32.44935719561408
 30
0.0
 11
1172.228230242186
 21
33.36035833709457
 31
0.0
  0
LINE
  5
16483
  8
01
 10
1172.228230242186
 20
33.36035833709457
 30
0.0
 11
1171.67733542565
 21
34.1765993403028
 31
0.0
  0
LINE
  5
16484
  8
01
 10
1171.67733542565
 20
34.1765993403028
 30
0.0
 11
1170.881029872992
 21
32.39664839834631
 31
0.0
  0
LINE
  5
16485
  8
01
 10
1172.620041943284
 20
34.39909320804736
 30
0.0
 11
1172.936205729349
 21
34.39909320804736
 31
0.0
  0
LINE
  5
16486
  8
01
 10
1172.936205729349
 20
34.39909320804736
 30
0.0
 11
1172.936205729349
 21
32.44935719561408
 31
0.0
  0
LINE
  5
16487
  8
01
 10
1172.936205729349
 20
32.44935719561408
 30
0.0
 11
1172.620041943284
 21
32.44935719561408
 31
0.0
  0
LINE
  5
16488
  8
01
 10
1172.620041943284
 20
32.44935719561408
 30
0.0
 11
1172.620041943284
 21
34.39909320804736
 31
0.0
  0
LINE
  5
16489
  8
01
 10
1171.430589726321
 20
34.39911545743371
 30
0.0
 11
1171.194746226512
 21
33.87213873168048
 31
0.0
  0
LINE
  5
1648A
  8
01
 10
1171.194746226512
 20
33.87213873168048
 30
0.0
 11
1170.567313519472
 21
33.87213873168048
 31
0.0
  0
LINE
  5
1648B
  8
01
 10
1170.567313519472
 20
33.87213873168048
 30
0.0
 11
1170.331692513531
 21
34.39911545743371
 31
0.0
  0
LINE
  5
1648C
  8
01
 10
621.9780987432049
 20
-103.9004951626483
 30
0.0
 11
621.9778901399152
 21
-113.2504765473424
 31
0.0
  0
LINE
  5
1648D
  8
01
 10
621.9778901399152
 20
-113.2504765473424
 30
0.0
 11
619.977871525426
 21
-115.250481200981
 31
0.0
  0
LINE
  5
1648E
  8
01
 10
619.977871525426
 20
-115.250481200981
 30
0.0
 11
619.9778687332722
 21
-115.5504812009688
 31
0.0
  0
LINE
  5
1648F
  8
01
 10
619.9778687332722
 20
-115.5504812009688
 30
0.0
 11
627.9778687330991
 21
-115.5505370440464
 31
0.0
  0
LINE
  5
16490
  8
01
 10
627.9778687330991
 20
-115.5505370440464
 30
0.0
 11
627.9778715252529
 21
-115.2505370440585
 31
0.0
  0
LINE
  5
16491
  8
01
 10
627.9778715252529
 20
-115.2505370440585
 30
0.0
 11
625.9778901395687
 21
-113.2505323905067
 31
0.0
  0
LINE
  5
16492
  8
01
 10
625.9778901395687
 20
-113.2505323905067
 30
0.0
 11
625.9780987431177
 21
-103.900523084187
 31
0.0
  0
LINE
  5
16493
  8
01
 10
625.9780987431177
 20
-103.900523084187
 30
0.0
 11
625.6281014126405
 21
-103.5505206410625
 31
0.0
  0
LINE
  5
16494
  8
01
 10
625.6281014126405
 20
-103.5505206410625
 30
0.0
 11
622.3281014127101
 21
-103.5504976057931
 31
0.0
  0
LINE
  5
16495
  8
01
 10
622.3281014127101
 20
-103.5504976057931
 30
0.0
 11
621.9780987432049
 21
-103.9004951626483
 31
0.0
  0
LINE
  5
16496
  8
1DIM
 10
352.8763956429036
 20
40.84842729425054
 30
0.0
 11
496.3020775781847
 21
40.84842729425053
 31
0.0
1001
ACAD
1000
DSTYLE
1002
{
1070
   271
1070
     1
1070
    40
1040
1.3
1002
}
  0
LINE
  5
16497
  8
1DIM
 10
449.4534653247372
 20
-61.91598071917451
 30
0.0
 11
496.3020775781847
 21
-61.91598071917451
 31
0.0
1001
ACAD
1000
DSTYLE
1002
{
1070
   271
1070
     1
1070
    40
1040
1.3
1002
}
  0
LINE
  5
16498
  8
1DIM
 10
495.0020775781846
 20
38.24842729425053
 30
0.0
 11
495.0020775781846
 21
-59.31598071917451
 31
0.0
1001
ACAD
1000
DSTYLE
1002
{
1070
   271
1070
     1
1070
    40
1040
1.3
1002
}
  0
SOLID
  5
1649C
  8
1DIM
 10
407.0512645129774
 20
-85.21825860042925
 30
0.0
 11
408.2225270056052
 21
-86.87332817131573
 31
0.0
 12
406.5777966787779
 22
-85.68759073700511
 32
0.0
 13
406.5777966787779
 23
-85.68759073700511
 33
0.0
1001
ACAD
1000
DSTYLE
1002
{
1070
    45
1040
0.5
1002
}
  0
LINE
  5
1649D
  8
1DIM
 10
406.8145305958777
 20
-85.45292466871717
 30
0.0
 11
401.4035585970771
 21
-79.99427184371025
 31
0.0
1001
ACAD
1000
DSTYLE
1002
{
1070
    45
1040
0.5
1002
}
  0
LINE
  5
1649E
  8
1DIM
 10
401.4035585970771
 20
-79.99427184371025
 30
0.0
 11
346.0702252637437
 21
-79.99427184371025
 31
0.0
1001
ACAD
1000
DSTYLE
1002
{
1070
    45
1040
0.5
1002
}
  0
TEXT
  5
1649F
  8
1DIM
  6
CONTINUOUS
 10
346.728558597077
 20
-73.45607739926581
 30
0.0
 40
3.5
  1
Material\U+FF1AAluminium
  0
TEXT
  5
164A0
  8
1DIM
  6
CONTINUOUS
 10
338.7692993378178
 20
-79.28941073259914
 30
0.0
 40
3.5
  1
Finish\U+FF1ABlasted black
  0
LINE
  5
164A1
  8
1DIM
 10
1026.897759250762
 20
-88.35487635086929
 30
0.0
 11
1026.897759250762
 21
-201.0277109057504
 31
0.0
  0
LINE
  5
164A2
  8
1DIM
 10
1308.964056705337
 20
-88.32749660998297
 30
0.0
 11
1308.964056705337
 21
-201.0277109057504
 31
0.0
  0
LINE
  5
164A3
  8
1DIM
 10
1028.897759250762
 20
-200.0277109057504
 30
0.0
 11
1306.964056705337
 21
-200.0277109057504
 31
0.0
  0
LINE
  5
164A7
  8
1DIM
 10
1144.930074030254
 20
-103.643578774143
 30
0.0
 11
1144.930074030254
 21
-139.4351297639632
 31
0.0
  0
LINE
  5
164A8
  8
1DIM
 10
1190.930074030254
 20
-103.643578774143
 30
0.0
 11
1190.930074030254
 21
-139.4351297639632
 31
0.0
  0
LINE
  5
164A9
  8
1DIM
 10
1146.930074030254
 20
-138.4351297639632
 30
0.0
 11
1188.930074030254
 21
-138.4351297639632
 31
0.0
  0
SOLID
  5
164AD
  8
1DIM
 10
636.7198339031768
 20
-79.9114395578601
 30
0.0
 11
635.9788991764839
 21
-81.79879931209132
 31
0.0
 12
636.0676667003617
 22
-79.77315584943167
 32
0.0
 13
636.0676667003617
 23
-79.77315584943167
 33
0.0
1001
ACAD
1000
DSTYLE
1002
{
1070
    45
1040
0.5
1002
}
  0
LINE
  5
164AE
  8
1DIM
 10
636.3937503017692
 20
-79.8422977036459
 30
0.0
 11
639.1027431095989
 21
-67.06627164817583
 31
0.0
1001
ACAD
1000
DSTYLE
1002
{
1070
    45
1040
0.5
1002
}
  0
SOLID
  5
164AF
  8
1DIM
 10
649.855252048342
 20
-79.9114395578601
 30
0.0
 11
649.1143173216491
 21
-81.79879931209132
 31
0.0
 12
649.2030848455269
 22
-79.77315584943167
 32
0.0
 13
649.2030848455269
 23
-79.77315584943167
 33
0.0
1001
ACAD
1000
DSTYLE
1002
{
1070
    45
1040
0.5
1002
}
  0
LINE
  5
164B0
  8
1DIM
 10
649.5291684469344
 20
-79.8422977036459
 30
0.0
 11
652.2381612547641
 21
-67.06627164817583
 31
0.0
1001
ACAD
1000
DSTYLE
1002
{
1070
    45
1040
0.5
1002
}
  0
LINE
  5
164B1
  8
1DIM
 10
666.9109149201017
 20
-100.3854581120231
 30
0.0
 11
673.1737376529694
 21
-100.3854581120231
 31
0.0
1001
ACAD
1000
DSTYLE
1002
{
1070
    45
1040
0.5
1070
   271
1070
     0
1002
}
  0
LINE
  5
164B2
  8
1DIM
 10
631.9778506367242
 20
-88.40861683621199
 30
0.0
 11
673.1737376529694
 21
-88.408616836212
 31
0.0
1001
ACAD
1000
DSTYLE
1002
{
1070
    45
1040
0.5
1070
   271
1070
     0
1002
}
  0
LINE
  5
164B3
  8
1DIM
 10
672.1737376529694
 20
-98.38545811202313
 30
0.0
 11
672.1737376529694
 21
-90.408616836212
 31
0.0
1001
ACAD
1000
DSTYLE
1002
{
1070
    45
1040
0.5
1070
   271
1070
     0
1002
}
  0
LINE
  5
164B7
  8
1DIM
 10
631.773415626104
 20
-115.5505370440464
 30
0.0
 11
684.8013582739716
 21
-115.5505370440464
 31
0.0
1001
ACAD
1000
DSTYLE
1002
{
1070
    45
1040
0.5
1002
}
  0
LINE
  5
164B8
  8
1DIM
 10
672.1737376529694
 20
-88.4086168365912
 30
0.0
 11
684.8013582739716
 21
-88.4086168365912
 31
0.0
1001
ACAD
1000
DSTYLE
1002
{
1070
    45
1040
0.5
1002
}
  0
LINE
  5
164B9
  8
1DIM
 10
683.8013582739716
 20
-113.5505370440464
 30
0.0
 11
683.8013582739716
 21
-90.4086168365912
 31
0.0
1001
ACAD
1000
DSTYLE
1002
{
1070
    45
1040
0.5
1002
}
  0
LINE
  5
164BD
  8
1DIM
 10
623.9778506795724
 20
-114.115569706871
 30
0.0
 11
623.9778506795724
 21
-125.6462696449589
 31
0.0
  0
LINE
  5
164BE
  8
1DIM
 10
631.9778506795724
 20
-122.3070243895086
 30
0.0
 11
631.9778506795724
 21
-125.6462696449589
 31
0.0
  0
LINE
  5
164BF
  8
1DIM
 10
625.9778506795724
 20
-124.6462696449589
 30
0.0
 11
629.9778506795724
 21
-124.6462696449589
 31
0.0
  0
LINE
  5
164C3
  8
1DIM
 10
498.8750241585103
 20
-168.077960854898
 30
0.0
 11
498.8750241585103
 21
-68.7989720140381
 31
0.0
1001
ACADSTRINGINFO
1000
MIFCodePage
1070
     1
1001
ACAD
1000
DSTYLE
1002
{
1070
    45
1040
0.5
1070
   271
1070
     0
1002
}
  0
LINE
  5
164C4
  8
1DIM
 10
631.9778506222797
 20
-77.31006357030469
 30
0.0
 11
631.9778506222797
 21
-68.7989720140381
 31
0.0
1001
ACADSTRINGINFO
1000
MIFCodePage
1070
     1
1001
ACAD
1000
DSTYLE
1002
{
1070
    45
1040
0.5
1070
   271
1070
     0
1002
}
  0
LINE
  5
164C5
  8
1DIM
 10
500.8750241585103
 20
-69.7989720140381
 30
0.0
 11
629.9778506222797
 21
-69.7989720140381
 31
0.0
1001
ACADSTRINGINFO
1000
MIFCodePage
1070
     1
1001
ACAD
1000
DSTYLE
1002
{
1070
    45
1040
0.5
1070
   271
1070
     0
1002
}
  0
LINE
  5
164C9
  8
0
  6
BYBLOCK
 10
494.3054096841847
 20
38.24842729425053
 30
0.0
 11
495.0020775781846
 21
40.84842729425053
 31
0.0
  0
LINE
  5
164CA
  8
0
  6
BYBLOCK
 10
495.0020775781846
 20
40.84842729425053
 30
0.0
 11
495.6987454721846
 21
38.24842729425053
 31
0.0
  0
LINE
  5
164CB
  8
0
  6
BYBLOCK
 10
495.0020775781846
 20
40.84842729425053
 30
0.0
 11
495.0020775781846
 21
38.24842729425053
 31
0.0
  0
LINE
  5
164CC
  8
0
  6
BYBLOCK
 10
495.6987454721846
 20
-59.31598071917451
 30
0.0
 11
495.0020775781846
 21
-61.91598071917451
 31
0.0
  0
LINE
  5
164CD
  8
0
  6
BYBLOCK
 10
495.0020775781846
 20
-61.91598071917451
 30
0.0
 11
494.3054096841847
 21
-59.31598071917451
 31
0.0
  0
LINE
  5
164CE
  8
0
  6
BYBLOCK
 10
495.0020775781846
 20
-61.91598071917451
 30
0.0
 11
495.0020775781846
 21
-59.31598071917451
 31
0.0
  0
TEXT
  5
164CF
  8
1DIM
  6
CONTINUOUS
 10
494.0920775781846
 20
-18.49627671246196
 30
0.0
 40
4.55
  1
102.8
 50
90.0
1001
ACAD
1000
DSTYLE
1002
{
1070
   271
1070
     1
1070
    40
1040
1.3
1002
}
  0
LINE
  5
164D0
  8
0
  6
BYBLOCK
 10
1028.897759250762
 20
-200.5636092857504
 30
0.0
 11
1026.897759250762
 21
-200.0277109057504
 31
0.0
  0
LINE
  5
164D1
  8
0
  6
BYBLOCK
 10
1026.897759250762
 20
-200.0277109057504
 30
0.0
 11
1028.897759250762
 21
-199.4918125257504
 31
0.0
  0
LINE
  5
164D2
  8
0
  6
BYBLOCK
 10
1026.897759250762
 20
-200.0277109057504
 30
0.0
 11
1028.897759250762
 21
-200.0277109057504
 31
0.0
  0
LINE
  5
164D3
  8
0
  6
BYBLOCK
 10
1306.964056705337
 20
-199.4918125257504
 30
0.0
 11
1308.964056705337
 21
-200.0277109057504
 31
0.0
  0
LINE
  5
164D4
  8
0
  6
BYBLOCK
 10
1308.964056705337
 20
-200.0277109057504
 30
0.0
 11
1306.964056705337
 21
-200.5636092857504
 31
0.0
  0
LINE
  5
164D5
  8
0
  6
BYBLOCK
 10
1308.964056705337
 20
-200.0277109057504
 30
0.0
 11
1306.964056705337
 21
-200.0277109057504
 31
0.0
  0
TEXT
  5
164D6
  8
1DIM
  6
CONTINUOUS
 10
1153.930907978049
 20
-199.3277109057504
 30
0.0
 40
10.5
  1
282
  0
LINE
  5
164D7
  8
0
  6
BYBLOCK
 10
1146.930074030254
 20
-138.9710281439632
 30
0.0
 11
1144.930074030254
 21
-138.4351297639632
 31
0.0
  0
LINE
  5
164D8
  8
0
  6
BYBLOCK
 10
1144.930074030254
 20
-138.4351297639632
 30
0.0
 11
1146.930074030254
 21
-137.8992313839632
 31
0.0
  0
LINE
  5
164D9
  8
0
  6
BYBLOCK
 10
1144.930074030254
 20
-138.4351297639632
 30
0.0
 11
1146.930074030254
 21
-138.4351297639632
 31
0.0
  0
LINE
  5
164DA
  8
0
  6
BYBLOCK
 10
1188.930074030254
 20
-137.8992313839632
 30
0.0
 11
1190.930074030254
 21
-138.4351297639632
 31
0.0
  0
LINE
  5
164DB
  8
0
  6
BYBLOCK
 10
1190.930074030254
 20
-138.4351297639632
 30
0.0
 11
1188.930074030254
 21
-138.9710281439632
 31
0.0
  0
LINE
  5
164DC
  8
0
  6
BYBLOCK
 10
1190.930074030254
 20
-138.4351297639632
 30
0.0
 11
1188.930074030254
 21
-138.4351297639632
 31
0.0
  0
TEXT
  5
164DD
  8
1DIM
  6
CONTINUOUS
 10
1153.930074030254
 20
-137.7351297639632
 30
0.0
 40
10.5
  1
P46
  0
LINE
  5
164DE
  8
0
  6
BYBLOCK
 10
672.7096360329695
 20
-98.38545811202313
 30
0.0
 11
672.1737376529694
 21
-100.3854581120231
 31
0.0
  0
LINE
  5
164DF
  8
0
  6
BYBLOCK
 10
672.1737376529694
 20
-100.3854581120231
 30
0.0
 11
671.6378392729694
 21
-98.38545811202313
 31
0.0
  0
LINE
  5
164E0
  8
0
  6
BYBLOCK
 10
672.1737376529694
 20
-100.3854581120231
 30
0.0
 11
672.1737376529694
 21
-98.38545811202313
 31
0.0
  0
LINE
  5
164E1
  8
0
  6
BYBLOCK
 10
671.6378392729694
 20
-90.408616836212
 30
0.0
 11
672.1737376529694
 21
-88.408616836212
 31
0.0
  0
LINE
  5
164E2
  8
0
  6
BYBLOCK
 10
672.1737376529694
 20
-88.408616836212
 30
0.0
 11
672.7096360329695
 21
-90.408616836212
 31
0.0
  0
LINE
  5
164E3
  8
0
  6
BYBLOCK
 10
672.1737376529694
 20
-88.408616836212
 30
0.0
 11
672.1737376529694
 21
-90.408616836212
 31
0.0
  0
TEXT
  5
164E4
  8
1DIM
  6
CONTINUOUS
 10
671.4737376529694
 20
-96.73037080745087
 30
0.0
 40
3.5
  1
12
 50
90.0
1001
ACAD
1000
DSTYLE
1002
{
1070
    45
1040
0.5
1070
   271
1070
     0
1002
}
  0
LINE
  5
164E5
  8
0
  6
BYBLOCK
 10
684.3372566539716
 20
-113.5505370440464
 30
0.0
 11
683.8013582739716
 21
-115.5505370440464
 31
0.0
  0
LINE
  5
164E6
  8
0
  6
BYBLOCK
 10
683.8013582739716
 20
-115.5505370440464
 30
0.0
 11
683.2654598939715
 21
-113.5505370440464
 31
0.0
  0
LINE
  5
164E7
  8
0
  6
BYBLOCK
 10
683.8013582739716
 20
-115.5505370440464
 30
0.0
 11
683.8013582739716
 21
-113.5505370440464
 31
0.0
  0
LINE
  5
164E8
  8
0
  6
BYBLOCK
 10
683.2654598939715
 20
-90.4086168365912
 30
0.0
 11
683.8013582739716
 21
-88.4086168365912
 31
0.0
  0
LINE
  5
164E9
  8
0
  6
BYBLOCK
 10
683.8013582739716
 20
-88.4086168365912
 30
0.0
 11
684.3372566539716
 21
-90.4086168365912
 31
0.0
  0
LINE
  5
164EA
  8
0
  6
BYBLOCK
 10
683.8013582739716
 20
-88.4086168365912
 30
0.0
 11
683.8013582739716
 21
-90.4086168365912
 31
0.0
  0
TEXT
  5
164EB
  8
1DIM
  6
CONTINUOUS
 10
683.1013582739715
 20
-104.8962436069853
 30
0.0
 40
3.5
  1
27
 50
90.0
1001
ACAD
1000
DSTYLE
1002
{
1070
    45
1040
0.5
1002
}
  0
LINE
  5
164EC
  8
0
  6
BYBLOCK
 10
625.9778506795724
 20
-125.1821680249589
 30
0.0
 11
623.9778506795724
 21
-124.6462696449589
 31
0.0
  0
LINE
  5
164ED
  8
0
  6
BYBLOCK
 10
623.9778506795724
 20
-124.6462696449589
 30
0.0
 11
625.9778506795724
 21
-124.1103712649589
 31
0.0
  0
LINE
  5
164EE
  8
0
  6
BYBLOCK
 10
623.9778506795724
 20
-124.6462696449589
 30
0.0
 11
625.9778506795724
 21
-124.6462696449589
 31
0.0
  0
LINE
  5
164EF
  8
0
  6
BYBLOCK
 10
629.9778506795724
 20
-124.1103712649589
 30
0.0
 11
631.9778506795724
 21
-124.6462696449589
 31
0.0
  0
LINE
  5
164F0
  8
0
  6
BYBLOCK
 10
631.9778506795724
 20
-124.6462696449589
 30
0.0
 11
629.9778506795724
 21
-125.1821680249589
 31
0.0
  0
LINE
  5
164F1
  8
0
  6
BYBLOCK
 10
631.9778506795724
 20
-124.6462696449589
 30
0.0
 11
629.9778506795724
 21
-124.6462696449589
 31
0.0
  0
TEXT
  5
164F2
  8
1DIM
  6
CONTINUOUS
 10
626.8111840129058
 20
-123.9462696449589
 30
0.0
 40
3.5
  1
8
  0
LINE
  5
164F3
  8
0
  6
BYBLOCK
 10
500.8750241585103
 20
-70.3348703940381
 30
0.0
 11
498.8750241585103
 21
-69.7989720140381
 31
0.0
  0
LINE
  5
164F4
  8
0
  6
BYBLOCK
 10
498.8750241585103
 20
-69.7989720140381
 30
0.0
 11
500.8750241585103
 21
-69.2630736340381
 31
0.0
  0
LINE
  5
164F5
  8
0
  6
BYBLOCK
 10
498.8750241585103
 20
-69.7989720140381
 30
0.0
 11
500.8750241585103
 21
-69.7989720140381
 31
0.0
  0
LINE
  5
164F6
  8
0
  6
BYBLOCK
 10
629.9778506222797
 20
-69.2630736340381
 30
0.0
 11
631.9778506222797
 21
-69.7989720140381
 31
0.0
  0
LINE
  5
164F7
  8
0
  6
BYBLOCK
 10
631.9778506222797
 20
-69.7989720140381
 30
0.0
 11
629.9778506222797
 21
-70.3348703940381
 31
0.0
  0
LINE
  5
164F8
  8
0
  6
BYBLOCK
 10
631.9778506222797
 20
-69.7989720140381
 30
0.0
 11
629.9778506222797
 21
-69.7989720140381
 31
0.0
  0
TEXT
  5
164F9
  8
1DIM
  6
CONTINUOUS
 10
529.0296122188623
 20
-67.93230534737144
 30
0.0
 40
3.5
  1
133
1001
ACADSTRINGINFO
1000
MIFCodePage
1070
     1
1001
ACAD
1000
DSTYLE
1002
{
1070
    45
1040
0.5
1070
   271
1070
     0
1002
}
  0
TEXT
  5
164FA
  8
1DIM
  6
CONTINUOUS
 10
540.4629455521956
 20
-67.93230534737144
 30
0.0
 40
3.5
  1
\U+FF08Max size with paper\U+FF09
1001
ACADSTRINGINFO
1000
MIFCodePage
1070
     1
1001
ACAD
1000
DSTYLE
1002
{
1070
    45
1040
0.5
1070
   271
1070
     0
1002
}
  0
VIEWPORT
  5
57
 67
     1
  8
0
 10
0.0
 20
0.0
 30
0.0
 40
615.2903225806451
 41
297.0
 68
     1
 69
     1
1001
ACAD
1000
MVIEW
1002
{
1070
    16
1010
0.0
1020
0.0
1030
0.0
1010
0.0
1020
0.0
1030
1.0
1040
0.0
1040
297.0
1040
-4.171999999925305
1040
12.83903210976956
1040
50.0
1040
0.0
1040
0.0
1070
    16
1070
   100
1070
     0
1070
     1
1070
     0
1070
     0
1070
     0
1070
     0
1040
0.0
1040
0.0
1040
0.0
1040
10.0
1040
10.0
1040
10.0
1040
10.0
1070
     0
1002
{
1002
}
1002
}
  0
ENDSEC
  0
EOF
