  0
SECTION
  2
HEADER
  9
$ACADVER
  1
AC1009
  9
$INSBASE
 10
0.0
 20
0.0
 30
0.0
  9
$EXTMIN
 10
171.23140256351911
 20
-1432.6418404203339
 30
0.0
  9
$EXTMAX
 10
320.14957557230258
 20
-1252.681007051023
 30
0.0
  9
$LIMMIN
 10
0.0
 20
0.0
  9
$LIMMAX
 10
420.0
 20
297.0
  9
$ORTHOMODE
 70
     0
  9
$REGENMODE
 70
     1
  9
$FILLMODE
 70
     1
  9
$QTEXTMODE
 70
     0
  9
$MIRRTEXT
 70
     0
  9
$DRAGMODE
 70
     2
  9
$LTSCALE
 40
0.5
  9
$OSMODE
 70
  2175
  9
$ATTMODE
 70
     1
  9
$TEXTSIZE
 40
4.0
  9
$TRACEWID
 40
1.0
  9
$TEXTSTYLE
  7
STANDARD
  9
$CLAYER
  8
1TEXT
  9
$CELTYPE
  6
BYLAYER
  9
$CECOLOR
 62
   256
  9
$DIMSCALE
 40
1.0
  9
$DIMASZ
 40
2.0
  9
$DIMEXO
 40
0.0
  9
$DIMDLI
 40
7.0
  9
$DIMRND
 40
0.0
  9
$DIMDLE
 40
0.0
  9
$DIMEXE
 40
1.0
  9
$DIMTP
 40
0.0
  9
$DIMTM
 40
0.0
  9
$DIMTXT
 40
3.5
  9
$DIMCEN
 40
0.0
  9
$DIMTSZ
 40
0.0
  9
$DIMTOL
 70
     0
  9
$DIMLIM
 70
     0
  9
$DIMTIH
 70
     0
  9
$DIMTOH
 70
     0
  9
$DIMSE1
 70
     0
  9
$DIMSE2
 70
     0
  9
$DIMTAD
 70
     1
  9
$DIMZIN
 70
     8
  9
$DIMBLK
  1

  9
$DIMASO
 70
     1
  9
$DIMSHO
 70
     1
  9
$DIMPOST
  1
 
  9
$DIMAPOST
  1

  9
$DIMALT
 70
     0
  9
$DIMALTD
 70
     2
  9
$DIMALTF
 40
25.399999999999999
  9
$DIMLFAC
 40
1.0
  9
$DIMTOFL
 70
     1
  9
$DIMTVP
 40
0.0
  9
$DIMTIX
 70
     0
  9
$DIMSOXD
 70
     0
  9
$DIMSAH
 70
     1
  9
$DIMBLK1
  1
OPEN30
  9
$DIMBLK2
  1
OPEN30
  9
$DIMSTYLE
  2
NEWX10
  9
$DIMCLRD
 70
   256
  9
$DIMCLRE
 70
   256
  9
$DIMCLRT
 70
   201
  9
$DIMTFAC
 40
0.7
  9
$DIMGAP
 40
0.7
  9
$LUNITS
 70
     2
  9
$LUPREC
 70
     4
  9
$SKETCHINC
 40
1.0
  9
$FILLETRAD
 40
0.0
  9
$AUNITS
 70
     0
  9
$AUPREC
 70
     2
  9
$MENU
  1
acad
  9
$ELEVATION
 40
0.0
  9
$PELEVATION
 40
0.0
  9
$THICKNESS
 40
0.0
  9
$LIMCHECK
 70
     0
  9
$BLIPMODE
 70
     0
  9
$CHAMFERA
 40
1.0
  9
$CHAMFERB
 40
1.0
  9
$SKPOLY
 70
     0
  9
$TDCREATE
 40
2453033.7326634838
  9
$TDUPDATE
 40
2455940.5434971759
  9
$TDINDWG
 40
2.6328470369999999
  9
$TDUSRTIMER
 40
2.6328470369999999
  9
$USRTIMER
 70
     1
  9
$ANGBASE
 50
0.0
  9
$ANGDIR
 70
     0
  9
$PDMODE
 70
     0
  9
$PDSIZE
 40
0.0
  9
$PLINEWID
 40
0.0
  9
$COORDS
 70
     2
  9
$SPLFRAME
 70
     0
  9
$SPLINETYPE
 70
     6
  9
$SPLINESEGS
 70
     8
  9
$ATTDIA
 70
     0
  9
$ATTREQ
 70
     1
  9
$HANDLING
 70
     1
  9
$HANDSEED
  5
20A5F
  9
$SURFTAB1
 70
     6
  9
$SURFTAB2
 70
     6
  9
$SURFTYPE
 70
     6
  9
$SURFU
 70
     6
  9
$SURFV
 70
     6
  9
$UCSNAME
  2

  9
$UCSORG
 10
0.0
 20
0.0
 30
0.0
  9
$UCSXDIR
 10
1.0
 20
0.0
 30
0.0
  9
$UCSYDIR
 10
0.0
 20
1.0
 30
0.0
  9
$PUCSNAME
  2

  9
$PUCSORG
 10
0.0
 20
0.0
 30
0.0
  9
$PUCSXDIR
 10
1.0
 20
0.0
 30
0.0
  9
$PUCSYDIR
 10
0.0
 20
1.0
 30
0.0
  9
$USERI1
 70
     0
  9
$USERI2
 70
     0
  9
$USERI3
 70
     0
  9
$USERI4
 70
     0
  9
$USERI5
 70
     0
  9
$USERR1
 40
0.0
  9
$USERR2
 40
0.0
  9
$USERR3
 40
0.0
  9
$USERR4
 40
0.0
  9
$USERR5
 40
0.0
  9
$WORLDVIEW
 70
     1
  9
$SHADEDGE
 70
     3
  9
$SHADEDIF
 70
    70
  9
$TILEMODE
 70
     1
  9
$MAXACTVP
 70
    48
  9
$PLIMCHECK
 70
     0
  9
$PEXTMIN
 10
1.0000000000000000E+020
 20
1.0000000000000000E+020
 30
1.0000000000000000E+020
  9
$PEXTMAX
 10
-1.0000000000000000E+020
 20
-1.0000000000000000E+020
 30
-1.0000000000000000E+020
  9
$PLIMMIN
 10
0.0
 20
0.0
  9
$PLIMMAX
 10
420.0
 20
297.0
  9
$UNITMODE
 70
     0
  9
$VISRETAIN
 70
     1
  9
$PLINEGEN
 70
     0
  9
$PSLTSCALE
 70
     1
  0
ENDSEC
  0
SECTION
  2
TABLES
  0
TABLE
  2
VPORT
 70
     1
  0
VPORT
  2
*ACTIVE
 70
     0
 10
0.0
 20
0.0
 11
1.0
 21
1.0
 12
245.6964121522573
 22
-1342.631102786627
 13
0.0
 23
0.0
 14
10.0
 24
10.0
 15
10.0
 25
10.0
 16
0.0
 26
0.0
 36
1.0
 17
0.0
 27
0.0
 37
0.0
 40
191.04020805859849
 41
1.4123581336696089
 42
50.0
 43
0.0
 44
0.0
 50
0.0
 51
0.0
 71
     0
 72
   100
 73
     1
 74
     1
 75
     0
 76
     0
 77
     0
 78
     0
  0
ENDTAB
  0
TABLE
  2
LTYPE
 70
    17
  0
LTYPE
  2
CONTINUOUS
 70
     0
  3
Solid line
 72
    65
 73
     0
 40
0.0
  0
LTYPE
  2
CENTER2
 70
     0
  3
Center (.5x) ___ _ ___ _ ___ _ ___ _ ___ _ ___
 72
    65
 73
     4
 40
28.574999999999999
 49
19.050000000000001
 49
-3.1749999999999989
 49
3.1749999999999989
 49
-3.1749999999999989
  0
LTYPE
  2
PHANTOM2
 70
     0
  3
Phantom (.5x) ___ _ _ ___ _ _ ___ _ _ ___ _ _
 72
    65
 73
     6
 40
31.75
 49
15.875
 49
-3.1749999999999989
 49
3.1749999999999989
 49
-3.1749999999999989
 49
3.1749999999999989
 49
-3.1749999999999989
  0
ENDTAB
  0
TABLE
  2
LAYER
 70
    44
  0
LAYER
  2
0
 70
     0
 62
     7
  6
CONTINUOUS
  0
LAYER
  2
1CENTER
 70
     0
 62
     7
  6
CENTER2
  0
LAYER
  2
1TEXT
 70
     0
 62
     7
  6
CONTINUOUS
  0
LAYER
  2
1DIM
 70
     0
 62
     7
  6
CONTINUOUS
  0
LAYER
  2
1PHANTOM
 70
     0
 62
     7
  6
PHANTOM2
  0
LAYER
  2
01
 70
     0
 62
     1
  6
CONTINUOUS
  0
LAYER
  2
1HATCH
 70
     0
 62
     7
  6
CONTINUOUS
  0
ENDTAB
  0
TABLE
  2
STYLE
 70
    23
  0
STYLE
  2
STANDARD
 70
     0
 40
0.0
 41
1.0
 50
0.0
 71
     0
 42
4.0
  3
txt.shx
  4
extfont.shx
  0
ENDTAB
  0
TABLE
  2
VIEW
 70
     0
  0
ENDTAB
  0
TABLE
  2
UCS
 70
     0
  0
ENDTAB
  0
TABLE
  2
APPID
 70
    13
  0
APPID
  2
ACAD
 70
     0
  0
APPID
  2
DRAWINGVARIABLESXDATA
 70
     0
  0
APPID
  2
CONTENTTABDATA
 70
     0
  0
APPID
  2
CONTENTCURRENTTAB
 70
     0
  0
APPID
  2
CONTENTBLOCKDESCRIPTION
 70
     0
  0
APPID
  2
CONTENTBLOCKICON
 70
     0
  0
APPID
  2
CONTENTLONGBLOCKNAME
 70
     0
  0
APPID
  2
ACAD_PSEXT
 70
     0
  0
APPID
  2
ACAD_DSTYLE_DIMTEXT_FILL
 70
     0
  0
APPID
  2
ACAD_MLEADERVER
 70
     0
  0
APPID
  2
ACAD_DSTYLE_DIMRADIAL_EXTENSION
 70
     0
  0
APPID
  2
ACADANNOTATIVE
 70
     0
  0
APPID
  2
ACAD_EXEMPT_FROM_CAD_STANDARDS
 70
     0
  0
ENDTAB
  0
TABLE
  2
DIMSTYLE
 70
    11
  0
DIMSTYLE
  2
NEWX10
 70
     0
  3
 
  4

  5

  6
OPEN30
  7
OPEN30
 40
1.0
 41
2.0
 42
0.0
 43
7.0
 44
1.0
 45
0.0
 46
0.0
 47
0.0
 48
0.0
140
3.5
141
0.0
142
0.0
143
25.399999999999999
144
1.0
145
0.0
146
0.7
147
0.7
 71
     0
 72
     0
 73
     0
 74
     0
 75
     0
 76
     0
 77
     1
 78
     8
170
     0
171
     2
172
     1
173
     1
174
     0
175
     0
176
   256
177
   256
178
   201
  0
ENDTAB
  0
ENDSEC
  0
SECTION
  2
BLOCKS
  0
BLOCK
  8
0
  2
$MODEL_SPACE
 70
     0
 10
0.0
 20
0.0
 30
0.0
  3
$MODEL_SPACE
  1

  0
ENDBLK
  5
1A
  8
0
  0
BLOCK
 67
     1
  8
0
  2
$PAPER_SPACE
 70
     0
 10
0.0
 20
0.0
 30
0.0
  3
$PAPER_SPACE
  1

  0
ENDBLK
  5
17
 67
     1
  8
0
  0
BLOCK
  8
0
  2
_OPEN30
 70
     0
 10
0.0
 20
0.0
 30
0.0
  3
_OPEN30
  1

  0
LINE
  5
44
  8
0
  6
BYBLOCK
 62
     0
 10
-1.0
 20
0.26794919
 30
0.0
 11
0.0
 21
0.0
 31
0.0
  0
LINE
  5
45
  8
0
  6
BYBLOCK
 62
     0
 10
0.0
 20
0.0
 30
0.0
 11
-1.0
 21
-0.26794919
 31
0.0
  0
LINE
  5
46
  8
0
  6
BYBLOCK
 62
     0
 10
0.0
 20
0.0
 30
0.0
 11
-1.0
 21
0.0
 31
0.0
  0
ENDBLK
  5
47
  8
0
  0
BLOCK
  8
0
  2
*X32
 70
     1
 10
0.0
 20
0.0
 30
0.0
  3
*X32
  1

  0
LINE
  5
20813
  8
0
 62
     0
 10
9.7770988726544452
 20
7.7925254709365239
 30
0.0
 11
9.0307181557708205
 21
8.5389061878201495
 31
0.0
  0
LINE
  5
20814
  8
0
 62
     0
 10
10.322251332597521
 20
6.5738538019132688
 30
0.0
 11
8.8225373759713577
 21
8.0735677585394292
 31
0.0
  0
LINE
  5
20815
  8
0
 62
     0
 10
10.867403792540591
 20
5.3551821328900138
 30
0.0
 11
8.6143565961718984
 21
7.6082293292587053
 31
0.0
  0
LINE
  5
20816
  8
0
 62
     0
 10
11.412556252483659
 20
4.136510463866756
 30
0.0
 11
8.4061758163724356
 21
7.1428908999779814
 31
0.0
  0
LINE
  5
20817
  8
0
 62
     0
 10
6.2911286292475204
 20
8.5844188780227135
 30
0.0
 11
6.1124475072789997
 21
8.7630999999912298
 31
0.0
  0
LINE
  5
20818
  8
0
 62
     0
 10
11.957708712426729
 20
2.9178387948435001
 30
0.0
 11
8.1979950365729728
 21
6.6775524706972567
 31
0.0
  0
LINE
  5
20819
  8
0
 62
     0
 10
9.0654651928517787
 20
5.1365631053382614
 30
0.0
 11
7.989814256773502
 21
6.2122140414165399
 31
0.0
  0
LINE
  5
2081A
  8
0
 62
     0
 10
5.9930398744017381
 20
8.2089884237883055
 30
0.0
 11
5.438928298198813
 21
8.7630999999912262
 31
0.0
  0
LINE
  5
2081B
  8
0
 62
     0
 10
12.5028611723698
 20
1.6991671258202381
 30
0.0
 11
9.6861187725028461
 21
4.5159095256871922
 31
0.0
  0
LINE
  5
2081C
  8
0
 62
     0
 10
8.8573263393301218
 20
4.6711827497797351
 30
0.0
 11
7.7816334769740427
 21
5.7468756121358133
 31
0.0
  0
LINE
  5
2081D
  8
0
 62
     0
 10
5.6949511195559586
 20
7.833557969553901
 30
0.0
 11
4.7654090891186227
 21
8.7630999999912333
 31
0.0
  0
LINE
  5
2081E
  8
0
 62
     0
 10
13.04801363231287
 20
0.4804954567969837
 30
0.0
 11
9.8575090891135417
 21
3.6709999999963152
 31
0.0
  0
LINE
  5
2081F
  8
0
 62
     0
 10
8.6491874858084685
 20
4.2058023942212079
 30
0.0
 11
7.5734526971745844
 21
5.2815371828550894
 31
0.0
  0
LINE
  5
20820
  8
0
 62
     0
 10
10.486589880032041
 20
2.3683999999976271
 30
0.0
 11
9.1839898800333586
 21
3.6709999999963152
 31
0.0
  0
LINE
  5
20821
  8
0
 62
     0
 10
5.3968623647101772
 20
7.4581275153194957
 30
0.0
 11
4.3851460338715276
 21
8.4698438461581453
 31
0.0
  0
LINE
  5
20822
  8
0
 62
     0
 10
12.85498988002967
 20
0.0000000000000036
 30
0.0
 11
10.776724564353451
 21
2.0782653156762221
 31
0.0
  0
LINE
  5
20823
  8
0
 62
     0
 10
8.4410486322868046
 20
3.740422038662675
 30
0.0
 11
7.3652719173751144
 21
4.8161987535743647
 31
0.0
  0
LINE
  5
20824
  8
0
 62
     0
 10
9.813070670951852
 20
2.3683999999976271
 30
0.0
 11
8.5104706709531648
 21
3.6709999999963152
 31
0.0
  0
LINE
  5
20825
  8
0
 62
     0
 10
5.0987736098643914
 20
7.0826970610850877
 30
0.0
 11
4.0870494697762574
 21
8.0944212011732262
 31
0.0
  0
LINE
  5
20826
  8
0
 62
     0
 10
12.181470670949469
 20
0.0000000000000036
 30
0.0
 11
11.321403329084941
 21
0.8600673418645357
 31
0.0
  0
LINE
  5
20827
  8
0
 62
     0
 10
4.8006848550186119
 20
6.7072666068506797
 30
0.0
 11
3.788952905680989
 21
7.7189985561883034
 31
0.0
  0
LINE
  5
20828
  8
0
 62
     0
 10
9.1395514618716671
 20
2.368399999997624
 30
0.0
 11
7.1570911375756507
 21
4.3508603242936408
 31
0.0
  0
LINE
  5
20829
  8
0
 62
     0
 10
4.5025961001728367
 20
6.3318361526162716
 30
0.0
 11
3.490856341585729
 21
7.3435759112033798
 31
0.0
  0
LINE
  5
2082A
  8
0
 62
     0
 10
8.4660322527914822
 20
2.3683999999976271
 30
0.0
 11
6.9489103577761924
 21
3.8855218950129169
 31
0.0
  0
LINE
  5
2082B
  8
0
 62
     0
 10
4.2045073453270581
 20
5.9564056983818681
 30
0.0
 11
3.1927597774904579
 21
6.9681532662184678
 31
0.0
  0
LINE
  5
2082C
  8
0
 62
     0
 10
7.8163375605411778
 20
2.3445754831677479
 30
0.0
 11
6.7407295779767287
 21
3.420183465732197
 31
0.0
  0
LINE
  5
2082D
  8
0
 62
     0
 10
3.9064185904812798
 20
5.58097524414746
 30
0.0
 11
2.8946632133951939
 21
6.5927306212335486
 31
0.0
  0
LINE
  5
2082E
  8
0
 62
     0
 10
7.608103533524992
 20
1.879290301103747
 30
0.0
 11
6.5325487981772703
 21
2.95484503645147
 31
0.0
  0
LINE
  5
2082F
  8
0
 62
     0
 10
3.608329835635494
 20
5.2055447899130591
 30
0.0
 11
2.596566649299926
 21
6.2173079762486259
 31
0.0
  0
LINE
  5
20830
  8
0
 62
     0
 10
7.3998695065088071
 20
1.414005119039746
 30
0.0
 11
6.3243680183778066
 21
2.4895066071707461
 31
0.0
  0
LINE
  5
20831
  8
0
 62
     0
 10
3.3102410807897189
 20
4.830114335678644
 30
0.0
 11
2.2984700852046478
 21
5.8418853312637138
 31
0.0
  0
LINE
  5
20832
  8
0
 62
     0
 10
7.1916354794926098
 20
0.9487199369757526
 30
0.0
 11
6.1161872385783367
 21
2.0241681778900249
 31
0.0
  0
LINE
  5
20833
  8
0
 62
     0
 10
3.9787458917354419
 20
3.488090315652737
 30
0.0
 11
2.0003735211093878
 21
5.4664626862787946
 31
0.0
  0
LINE
  5
20834
  8
0
 62
     0
 10
6.9834014524764241
 20
0.4834347549117553
 30
0.0
 11
5.9080064587788739
 21
1.558829748609309
 31
0.0
  0
LINE
  5
20835
  8
0
 62
     0
 10
5.377063484962445
 20
1.4162535133455481
 30
0.0
 11
1.702276957014117
 21
5.091040041293879
 31
0.0
  0
LINE
  5
20836
  8
0
 62
     0
 10
6.7751674254602392
 20
0.0181495728477543
 30
0.0
 11
5.6998256789794146
 21
1.093491319328578
 31
0.0
  0
LINE
  5
20837
  8
0
 62
     0
 10
6.1197977892278033
 20
0.0
 30
0.0
 11
1.4998967256424749
 21
4.6199010635853313
 31
0.0
  0
LINE
  5
20838
  8
0
 62
     0
 10
5.446278580147613
 20
0.0000000000000036
 30
0.0
 11
2.8981959083357078
 21
2.5480826718119109
 31
0.0
  0
LINE
  5
20839
  8
0
 62
     0
 10
4.7727593710674334
 20
0.0
 30
0.0
 11
4.2964950910289303
 21
0.4762642800385031
 31
0.0
  0
LINE
  5
2083A
  8
0
 62
     0
 10
13.00415357385187
 20
-0.0000000000000018
 30
0.0
 11
13.182966351006311
 21
0.1788127771544303
 31
0.0
  0
LINE
  5
2083B
  8
0
 62
     0
 10
12.330634364771679
 20
-0.0000000000000018
 30
0.0
 11
12.9747989676379
 21
0.6441646028662138
 31
0.0
  0
LINE
  5
2083C
  8
0
 62
     0
 10
11.690865076542529
 20
0.0337499208510312
 30
0.0
 11
12.766631584269501
 21
1.109516428577997
 31
0.0
  0
LINE
  5
2083D
  8
0
 62
     0
 10
11.482766800126511
 20
0.4991708535151976
 30
0.0
 11
12.55846420090109
 21
1.5748682542897781
 31
0.0
  0
LINE
  5
2083E
  8
0
 62
     0
 10
11.27466852371049
 20
0.9645917861793603
 30
0.0
 11
12.350296817532691
 21
2.040220080001558
 31
0.0
  0
LINE
  5
2083F
  8
0
 62
     0
 10
11.06657024729447
 20
1.430012718843531
 30
0.0
 11
12.142129434164289
 21
2.5055719057133472
 31
0.0
  0
LINE
  5
20840
  8
0
 62
     0
 10
10.858471970878449
 20
1.8954336515076911
 30
0.0
 11
11.933962050795881
 21
2.9709237314251289
 31
0.0
  0
LINE
  5
20841
  8
0
 62
     0
 10
10.650373694462431
 20
2.3608545841718618
 30
0.0
 11
11.725794667427479
 21
3.436275557136911
 31
0.0
  0
LINE
  5
20842
  8
0
 62
     0
 10
9.9843999012080111
 20
2.3683999999976271
 30
0.0
 11
11.517627284059071
 21
3.9016273828486918
 31
0.0
  0
LINE
  5
20843
  8
0
 62
     0
 10
9.3108806921278227
 20
2.368399999997624
 30
0.0
 11
11.309459900690671
 21
4.3669792085604717
 31
0.0
  0
LINE
  5
20844
  8
0
 62
     0
 10
8.6373614830476342
 20
2.3683999999976222
 30
0.0
 11
9.9399614830463161
 21
3.6709999999963041
 31
0.0
  0
LINE
  5
20845
  8
0
 62
     0
 10
10.02566815382859
 20
3.756706670778577
 30
0.0
 11
11.101292517322261
 21
4.8323310342722561
 31
0.0
  0
LINE
  5
20846
  8
0
 62
     0
 10
6.2689614830500089
 20
-0.0000000000000036
 30
0.0
 11
7.1705359785639722
 21
0.9015744955139624
 31
0.0
  0
LINE
  5
20847
  8
0
 62
     0
 10
7.9638422739674493
 20
2.368399999997624
 30
0.0
 11
9.2664422739661312
 21
3.670999999996309
 31
0.0
  0
LINE
  5
20848
  8
0
 62
     0
 10
9.8175293003069317
 20
4.2220870263371078
 30
0.0
 11
10.893125133953861
 21
5.2976828599840413
 31
0.0
  0
LINE
  5
20849
  8
0
 62
     0
 10
5.5954422739698186
 20
-0.0000000000000036
 30
0.0
 11
7.7161457314298563
 21
2.120703457460031
 31
0.0
  0
LINE
  5
2084A
  8
0
 62
     0
 10
9.6093904467852731
 20
4.6874673818956341
 30
0.0
 11
10.68495775058545
 21
5.7630346856958168
 31
0.0
  0
LINE
  5
2084B
  8
0
 62
     0
 10
4.9219230648896364
 20
-0.0000000000000036
 30
0.0
 11
8.5929230648859445
 21
3.6709999999963059
 31
0.0
  0
LINE
  5
2084C
  8
0
 62
     0
 10
5.9895866546067298
 20
1.741182798797277
 30
0.0
 11
8.8069504072332272
 21
4.5585465514237731
 31
0.0
  0
LINE
  5
2084D
  8
0
 62
     0
 10
9.4012515932636127
 20
5.1528477374541568
 30
0.0
 11
10.47679036721706
 21
6.228386511407602
 31
0.0
  0
LINE
  5
2084E
  8
0
 62
     0
 10
4.4690293080327272
 20
0.220625452223274
 30
0.0
 11
5.4929510052665789
 21
1.2445471494571221
 31
0.0
  0
LINE
  5
2084F
  8
0
 62
     0
 10
6.5348309996187073
 20
2.9599463528894439
 30
0.0
 11
10.268622983848649
 21
6.6937383371193881
 31
0.0
  0
LINE
  5
20850
  8
0
 62
     0
 10
4.1976317719622713
 20
0.6227471252330084
 30
0.0
 11
5.2215527756531692
 21
1.646668128923906
 31
0.0
  0
LINE
  5
20851
  8
0
 62
     0
 10
7.0800753446306919
 20
4.1787099069816112
 30
0.0
 11
10.06045560048025
 21
7.1590901628311663
 31
0.0
  0
LINE
  5
20852
  8
0
 62
     0
 10
3.9262342358918261
 20
1.024868798242742
 30
0.0
 11
4.9501545460397622
 21
2.048789108390682
 31
0.0
  0
LINE
  5
20853
  8
0
 62
     0
 10
7.6253196896426738
 20
5.3974734610737833
 30
0.0
 11
9.8522882171118429
 21
7.6244419885429506
 31
0.0
  0
LINE
  5
20854
  8
0
 62
     0
 10
3.6548366998213728
 20
1.4269904712524799
 30
0.0
 11
4.6787563164263526
 21
2.4509100878574621
 31
0.0
  0
LINE
  5
20855
  8
0
 62
     0
 10
8.1705640346546602
 20
6.6162370151659511
 30
0.0
 11
9.6441208337434432
 21
8.0897938142547368
 31
0.0
  0
LINE
  5
20856
  8
0
 62
     0
 10
3.3834391637509209
 20
1.829112144262214
 30
0.0
 11
4.4073580868129509
 21
2.8530310673242449
 31
0.0
  0
LINE
  5
20857
  8
0
 62
     0
 10
8.7158083796666457
 20
7.8350005692581242
 30
0.0
 11
9.4359534503750382
 21
8.5551456399665184
 31
0.0
  0
LINE
  5
20858
  8
0
 62
     0
 10
3.1120416276804721
 20
2.2312338172719488
 30
0.0
 11
4.135959857199544
 21
3.2551520467910229
 31
0.0
  0
LINE
  5
20859
  8
0
 62
     0
 10
2.8406440916100268
 20
2.6333554902816898
 30
0.0
 11
3.8645616275861392
 21
3.6572730262578061
 31
0.0
  0
LINE
  5
2085A
  8
0
 62
     0
 10
2.569246555539574
 20
3.0354771632914281
 30
0.0
 11
3.5931633979727291
 21
4.0593940057245801
 31
0.0
  0
LINE
  5
2085B
  8
0
 62
     0
 10
2.2978490194691221
 20
3.4375988363011589
 30
0.0
 11
3.3217651683593248
 21
4.4615149851913642
 31
0.0
  0
LINE
  5
2085C
  8
0
 62
     0
 10
2.0264514833986729
 20
3.8397205093108968
 30
0.0
 11
4.4410409048522244
 21
6.2543099307644487
 31
0.0
  0
LINE
  5
2085D
  8
0
 62
     0
 10
1.755053947328221
 20
4.2418421823206351
 30
0.0
 11
6.2763117649988143
 21
8.7630999999912262
 31
0.0
  0
LINE
  5
2085E
  8
0
 62
     0
 10
1.4836564112577759
 20
4.6439638553303757
 30
0.0
 11
5.6027925559186293
 21
8.763099999991228
 31
0.0
  0
LINE
  5
2085F
  8
0
 62
     0
 10
3.4180230436981311
 20
7.2518496968509156
 30
0.0
 11
4.92927334683844
 21
8.7630999999912262
 31
0.0
  0
ENDBLK
  5
20861
  8
0
  0
BLOCK
  8
0
  2
*X33
 70
     1
 10
0.0
 20
0.0
 30
0.0
  3
*X33
  1

  0
LINE
  5
20863
  8
0
 62
     0
 10
22.35085874201091
 20
8.6891497831837885
 30
0.0
 11
22.276908525203481
 21
8.7630999999912245
 31
0.0
  0
LINE
  5
20864
  8
0
 62
     0
 10
22.151277991235791
 20
8.2152113248787302
 30
0.0
 11
21.603389316123291
 21
8.7630999999912298
 31
0.0
  0
LINE
  5
20865
  8
0
 62
     0
 10
21.951697240460661
 20
7.7412728665736728
 30
0.0
 11
20.929870107043101
 21
8.7630999999912333
 31
0.0
  0
LINE
  5
20866
  8
0
 62
     0
 10
21.75211648968552
 20
7.2673344082686171
 30
0.0
 11
20.702990440798828
 21
8.316460457155312
 31
0.0
  0
LINE
  5
20867
  8
0
 62
     0
 10
21.5525357389104
 20
6.7933959499635597
 30
0.0
 11
20.503465933167231
 21
7.8424657557067263
 31
0.0
  0
LINE
  5
20868
  8
0
 62
     0
 10
21.35295498813527
 20
6.3194574916584996
 30
0.0
 11
20.30394142553563
 21
7.3684710542581371
 31
0.0
  0
LINE
  5
20869
  8
0
 62
     0
 10
21.15337423736014
 20
5.845519033353443
 30
0.0
 11
20.104416917904029
 21
6.8944763528095541
 31
0.0
  0
LINE
  5
2086A
  8
0
 62
     0
 10
20.95379348658501
 20
5.3715805750483874
 30
0.0
 11
19.904892410272438
 21
6.4204816513609622
 31
0.0
  0
LINE
  5
2086B
  8
0
 62
     0
 10
20.75421273580988
 20
4.8976421167433299
 30
0.0
 11
19.70536790264083
 21
5.9464869499123756
 31
0.0
  0
LINE
  5
2086C
  8
0
 62
     0
 10
16.751727645058011
 20
8.2266079984150124
 30
0.0
 11
16.329146420583751
 21
8.6491892228892837
 31
0.0
  0
LINE
  5
2086D
  8
0
 62
     0
 10
20.554631985034749
 20
4.4237036584382743
 30
0.0
 11
19.50584339500924
 21
5.4724922484637899
 31
0.0
  0
LINE
  5
2086E
  8
0
 62
     0
 10
17.157498711507898
 20
7.1473177228849449
 30
0.0
 11
16.1451172495203
 21
8.1596991848725438
 31
0.0
  0
LINE
  5
2086F
  8
0
 62
     0
 10
20.355051234259619
 20
3.9497652001332169
 30
0.0
 11
19.306318887377628
 21
4.9984975470152051
 31
0.0
  0
LINE
  5
20870
  8
0
 62
     0
 10
17.563269777957782
 20
6.0680274473548748
 30
0.0
 11
15.96108807845685
 21
7.6702091468558073
 31
0.0
  0
LINE
  5
20871
  8
0
 62
     0
 10
20.1554704834845
 20
3.4758267418281572
 30
0.0
 11
19.106794379746042
 21
4.524502845566615
 31
0.0
  0
LINE
  5
20872
  8
0
 62
     0
 10
17.969040844407651
 20
4.9887371718248117
 30
0.0
 11
15.777058907393389
 21
7.1807191088390701
 31
0.0
  0
LINE
  5
20873
  8
0
 62
     0
 10
19.955889732709359
 20
3.0018882835231011
 30
0.0
 11
18.90726987211443
 21
4.0505081441180302
 31
0.0
  0
LINE
  5
20874
  8
0
 62
     0
 10
18.374811910857531
 20
3.9094468962947531
 30
0.0
 11
15.593029736329941
 21
6.6912290708223408
 31
0.0
  0
LINE
  5
20875
  8
0
 62
     0
 10
19.756308981934229
 20
2.5279498252180441
 30
0.0
 11
18.707745364482829
 21
3.576513442669444
 31
0.0
  0
LINE
  5
20876
  8
0
 62
     0
 10
16.383620680228649
 20
5.2271189178434412
 30
0.0
 11
15.40900056526649
 21
6.2017390328056008
 31
0.0
  0
LINE
  5
20877
  8
0
 62
     0
 10
19.556728231159099
 20
2.054011366912988
 30
0.0
 11
16.631513964169631
 21
4.9792256339024661
 31
0.0
  0
LINE
  5
20878
  8
0
 62
     0
 10
16.199567903464452
 20
4.7376524855274553
 30
0.0
 11
15.22497139420304
 21
5.7122489947888679
 31
0.0
  0
LINE
  5
20879
  8
0
 62
     0
 10
19.357147480383979
 20
1.580072908607931
 30
0.0
 11
17.037094792289292
 21
3.900125596702618
 31
0.0
  0
LINE
  5
2087A
  8
0
 62
     0
 10
16.015515126700251
 20
4.248186053211473
 30
0.0
 11
15.04094222313959
 21
5.222758956772128
 31
0.0
  0
LINE
  5
2087B
  8
0
 62
     0
 10
12.41513331849073
 20
7.8485678614209879
 30
0.0
 11
11.500601179920491
 21
8.7630999999912298
 31
0.0
  0
LINE
  5
2087C
  8
0
 62
     0
 10
19.157566729608849
 20
1.1061344503028709
 30
0.0
 11
17.442675620408959
 21
2.8210255595027638
 31
0.0
  0
LINE
  5
2087D
  8
0
 62
     0
 10
15.83146234993605
 20
3.7587196208954872
 30
0.0
 11
14.856913052076131
 21
4.7332689187553987
 31
0.0
  0
LINE
  5
2087E
  8
0
 62
     0
 10
12.905113043106191
 20
6.685068927725343
 30
0.0
 11
10.8270819708403
 21
8.7630999999912298
 31
0.0
  0
LINE
  5
2087F
  8
0
 62
     0
 10
18.957985978833712
 20
0.6321959919978184
 30
0.0
 11
17.848256448528609
 21
1.7419255223029211
 31
0.0
  0
LINE
  5
20880
  8
0
 62
     0
 10
15.64740957317184
 20
3.269253188579504
 30
0.0
 11
14.67288388101268
 21
4.2437788807386703
 31
0.0
  0
LINE
  5
20881
  8
0
 62
     0
 10
13.39509276772166
 20
5.5215699940296901
 30
0.0
 11
10.81938524622541
 21
8.0972775155259402
 31
0.0
  0
LINE
  5
20882
  8
0
 62
     0
 10
18.758405228058589
 20
0.1582575336927618
 30
0.0
 11
18.25383727664828
 21
0.6628254851030704
 31
0.0
  0
LINE
  5
20883
  8
0
 62
     0
 10
13.88507249233713
 20
4.3580710603340327
 30
0.0
 11
11.309334920393139
 21
6.9338086322780192
 31
0.0
  0
LINE
  5
20884
  8
0
 62
     0
 10
15.463356796407639
 20
2.7797867562635221
 30
0.0
 11
14.48885470994923
 21
3.7542888427219259
 31
0.0
  0
LINE
  5
20885
  8
0
 62
     0
 10
15.27930401964343
 20
2.2903203239475398
 30
0.0
 11
11.799284594560859
 21
5.7703397490301027
 31
0.0
  0
LINE
  5
20886
  8
0
 62
     0
 10
15.095251242879231
 20
1.8008538916315571
 30
0.0
 11
12.289234268728601
 21
4.6068708657821844
 31
0.0
  0
LINE
  5
20887
  8
0
 62
     0
 10
14.91119846611503
 20
1.3113874593155721
 30
0.0
 11
12.77918394289633
 21
3.4434019825342679
 31
0.0
  0
LINE
  5
20888
  8
0
 62
     0
 10
14.727145689350831
 20
0.8219210269995863
 30
0.0
 11
13.26913361706406
 21
2.2799330992863531
 31
0.0
  0
LINE
  5
20889
  8
0
 62
     0
 10
14.543092912586619
 20
0.3324545946836075
 30
0.0
 11
13.759083291231789
 21
1.116464216038433
 31
0.0
  0
LINE
  5
2088A
  8
0
 62
     0
 10
14.35904013582242
 20
-0.1570118376323784
 30
0.0
 11
14.24903296539952
 21
-0.0470046672094817
 31
0.0
  0
LINE
  5
2088B
  8
0
 62
     0
 10
18.472732853319201
 20
0.0804256068258322
 30
0.0
 11
18.909598183420702
 21
0.5172909369273402
 31
0.0
  0
LINE
  5
2088C
  8
0
 62
     0
 10
18.288742822226251
 20
0.5699547848130706
 30
0.0
 11
19.399547857588441
 21
1.6807598201752609
 31
0.0
  0
LINE
  5
2088D
  8
0
 62
     0
 10
18.104752791133301
 20
1.0594839628003101
 30
0.0
 11
19.88949753175617
 21
2.8442287034231848
 31
0.0
  0
LINE
  5
2088E
  8
0
 62
     0
 10
17.920762760040351
 20
1.5490131407875469
 30
0.0
 11
20.37944720592391
 21
4.0076975866711049
 31
0.0
  0
LINE
  5
2088F
  8
0
 62
     0
 10
17.7367727289474
 20
2.03854231877478
 30
0.0
 11
20.869396880091649
 21
5.1711664699190258
 31
0.0
  0
LINE
  5
20890
  8
0
 62
     0
 10
18.78517998154943
 20
3.7604687804569989
 30
0.0
 11
21.359346554259389
 21
6.3346353531669521
 31
0.0
  0
LINE
  5
20891
  8
0
 62
     0
 10
17.552782697854461
 20
2.5280714967620241
 30
0.0
 11
18.527644990681829
 21
3.5029337895893979
 31
0.0
  0
LINE
  5
20892
  8
0
 62
     0
 10
17.368792666761511
 20
3.0176006747492572
 30
0.0
 11
18.343615819618378
 21
3.992423827606133
 31
0.0
  0
LINE
  5
20893
  8
0
 62
     0
 10
19.274790844948878
 20
4.923598852936629
 30
0.0
 11
21.849296228427121
 21
7.4981042364148713
 31
0.0
  0
LINE
  5
20894
  8
0
 62
     0
 10
14.26537659496468
 20
-0.0858153970475737
 30
0.0
 11
14.458390432740149
 21
0.1071984407278972
 31
0.0
  0
LINE
  5
20895
  8
0
 62
     0
 10
17.184802635668561
 20
3.5071298527365
 30
0.0
 11
18.159586648554932
 21
4.481913865622869
 31
0.0
  0
LINE
  5
20896
  8
0
 62
     0
 10
19.76440170834832
 20
6.0867289254162618
 30
0.0
 11
22.339245902594861
 21
8.6615731196627976
 31
0.0
  0
LINE
  5
20897
  8
0
 62
     0
 10
14.065795844189539
 20
0.3881230612574828
 30
0.0
 11
14.864276280939301
 21
1.1866034980072371
 31
0.0
  0
LINE
  5
20898
  8
0
 62
     0
 10
17.000812604575611
 20
3.9966590307237371
 30
0.0
 11
17.975557477491481
 21
4.9714039036396018
 31
0.0
  0
LINE
  5
20899
  8
0
 62
     0
 10
20.254012571747769
 20
7.2498589978958936
 30
0.0
 11
21.76725357384311
 21
8.7630999999912262
 31
0.0
  0
LINE
  5
2089A
  8
0
 62
     0
 10
13.86621509341442
 20
0.8620615195625411
 30
0.0
 11
15.27016212913845
 21
2.266008555286573
 31
0.0
  0
LINE
  5
2089B
  8
0
 62
     0
 10
16.816822573482661
 20
4.4861882087109741
 30
0.0
 11
17.791528306428031
 21
5.46089394165634
 31
0.0
  0
LINE
  5
2089C
  8
0
 62
     0
 10
20.743623435147221
 20
8.4129890703755272
 30
0.0
 11
21.09373436476292
 21
8.7630999999912262
 31
0.0
  0
LINE
  5
2089D
  8
0
 62
     0
 10
13.66663434263929
 20
1.3359999778676039
 30
0.0
 11
15.6760479773376
 21
3.3454136125659151
 31
0.0
  0
LINE
  5
2089E
  8
0
 62
     0
 10
16.632832542389721
 20
4.9757173866982116
 30
0.0
 11
17.607499135364581
 21
5.9503839796730746
 31
0.0
  0
LINE
  5
2089F
  8
0
 62
     0
 10
13.467053591864159
 20
1.8099384361726569
 30
0.0
 11
16.081933825536751
 21
4.4248186698452487
 31
0.0
  0
LINE
  5
208A0
  8
0
 62
     0
 10
14.338823056022481
 20
3.355227109411163
 30
0.0
 11
17.42346996430113
 21
6.439874017689811
 31
0.0
  0
LINE
  5
208A1
  8
0
 62
     0
 10
13.267472841089029
 20
2.283876894477717
 30
0.0
 11
14.316709015467771
 21
3.3331130688564552
 31
0.0
  0
LINE
  5
208A2
  8
0
 62
     0
 10
14.74459412247235
 20
4.4345173849412234
 30
0.0
 11
17.23944079323768
 21
6.9293640557065457
 31
0.0
  0
LINE
  5
208A3
  8
0
 62
     0
 10
13.067892090313901
 20
2.757815352782774
 30
0.0
 11
14.11712327849466
 21
3.807046540963531
 31
0.0
  0
LINE
  5
208A4
  8
0
 62
     0
 10
15.15036518892223
 20
5.5138076604712882
 30
0.0
 11
17.055411622174219
 21
7.4188540937232821
 31
0.0
  0
LINE
  5
208A5
  8
0
 62
     0
 10
12.86831133953878
 20
3.231753811087839
 30
0.0
 11
13.917537541521551
 21
4.2809800130706073
 31
0.0
  0
LINE
  5
208A6
  8
0
 62
     0
 10
15.55613625537211
 20
6.5930979360013513
 30
0.0
 11
16.871382451110769
 21
7.908344131740014
 31
0.0
  0
LINE
  5
208A7
  8
0
 62
     0
 10
12.668730588763649
 20
3.7056922693928889
 30
0.0
 11
13.71795180454844
 21
4.7549134851776813
 31
0.0
  0
LINE
  5
208A8
  8
0
 62
     0
 10
15.96190732182199
 20
7.6723882115314179
 30
0.0
 11
16.687353280047319
 21
8.3978341697567522
 31
0.0
  0
LINE
  5
208A9
  8
0
 62
     0
 10
12.469149837988519
 20
4.1796307276979494
 30
0.0
 11
13.518366067575331
 21
5.228846957284758
 31
0.0
  0
LINE
  5
208AA
  8
0
 62
     0
 10
16.367678388271859
 20
8.7516784870614792
 30
0.0
 11
16.503324108983868
 21
8.8873242077734886
 31
0.0
  0
LINE
  5
208AB
  8
0
 62
     0
 10
12.269569087213389
 20
4.6535691860030042
 30
0.0
 11
13.31878033060222
 21
5.7027804293918312
 31
0.0
  0
LINE
  5
208AC
  8
0
 62
     0
 10
12.069988336438261
 20
5.127507644308066
 30
0.0
 11
13.119194593629111
 21
6.1767139014989079
 31
0.0
  0
LINE
  5
208AD
  8
0
 62
     0
 10
11.870407585663131
 20
5.6014461026131244
 30
0.0
 11
12.919608856655991
 21
6.6506473736059819
 31
0.0
  0
LINE
  5
208AE
  8
0
 62
     0
 10
11.670826834888009
 20
6.0753845609181818
 30
0.0
 11
12.72002311968288
 21
7.1245808457130604
 31
0.0
  0
LINE
  5
208AF
  8
0
 62
     0
 10
11.47124608411287
 20
6.5493230192232348
 30
0.0
 11
12.520437382709771
 21
7.5985143178201344
 31
0.0
  0
LINE
  5
208B0
  8
0
 62
     0
 10
11.271665333337751
 20
7.0232614775282949
 30
0.0
 11
12.32085164573666
 21
8.0724477899272067
 31
0.0
  0
LINE
  5
208B1
  8
0
 62
     0
 10
11.072084582562621
 20
7.4971999358333523
 30
0.0
 11
12.121265908763551
 21
8.5463812620342843
 31
0.0
  0
LINE
  5
208B2
  8
0
 62
     0
 10
10.87250383178749
 20
7.9711383941384097
 30
0.0
 11
11.66446543764031
 21
8.7630999999912262
 31
0.0
  0
LINE
  5
208B3
  8
0
 62
     0
 10
10.67292308101236
 20
8.4450768524434672
 30
0.0
 11
10.99094622856011
 21
8.7630999999912245
 31
0.0
  0
ENDBLK
  5
208B5
  8
0
  0
BLOCK
  8
0
  2
*X34
 70
     1
 10
0.0
 20
0.0
 30
0.0
  3
*X34
  1

  0
LINE
  5
208B7
  8
0
 62
     0
 10
30.741999999969259
 20
8.3802390341876851
 30
0.0
 11
30.359139034165711
 21
8.7630999999912333
 31
0.0
  0
LINE
  5
208B8
  8
0
 62
     0
 10
30.741999999969259
 20
7.7067198251075002
 30
0.0
 11
29.685619825085521
 21
8.7630999999912316
 31
0.0
  0
LINE
  5
208B9
  8
0
 62
     0
 10
30.741999999969249
 20
7.0332006160273179
 30
0.0
 11
29.301999999969301
 21
8.4732006160272721
 31
0.0
  0
LINE
  5
208BA
  8
0
 62
     0
 10
30.741999999969241
 20
6.3596814069471366
 30
0.0
 11
29.30199999996929
 21
7.7996814069470846
 31
0.0
  0
LINE
  5
208BB
  8
0
 62
     0
 10
30.741999999969241
 20
5.6861621978669517
 30
0.0
 11
29.301999999969301
 21
7.1261621978668996
 31
0.0
  0
LINE
  5
208BC
  8
0
 62
     0
 10
30.741999999969241
 20
5.0126429887867694
 30
0.0
 11
29.30199999996929
 21
6.45264298878672
 31
0.0
  0
LINE
  5
208BD
  8
0
 62
     0
 10
30.741999999969241
 20
4.3391237797065862
 30
0.0
 11
29.301999999969301
 21
5.7791237797065298
 31
0.0
  0
LINE
  5
208BE
  8
0
 62
     0
 10
30.741999999969231
 20
3.6656045706263991
 30
0.0
 11
29.30199999996929
 21
5.1056045706263431
 31
0.0
  0
LINE
  5
208BF
  8
0
 62
     0
 10
30.741999999969231
 20
2.9920853615462182
 30
0.0
 11
29.30199999996929
 21
4.4320853615461591
 31
0.0
  0
LINE
  5
208C0
  8
0
 62
     0
 10
30.74137885356642
 20
2.3191872988688451
 30
0.0
 11
29.30199999996929
 21
3.7585661524659741
 31
0.0
  0
LINE
  5
208C1
  8
0
 62
     0
 10
23.710791431224379
 20
8.6762555121307035
 30
0.0
 11
23.510711655846691
 21
8.8763352875083879
 31
0.0
  0
LINE
  5
208C2
  8
0
 62
     0
 10
30.653036364041888
 20
1.7340105793131939
 30
0.0
 11
29.301999999969301
 21
3.0850469433857848
 31
0.0
  0
LINE
  5
208C3
  8
0
 62
     0
 10
24.25604244399905
 20
7.4574852902758373
 30
0.0
 11
23.302508550376061
 21
8.4110191838988264
 31
0.0
  0
LINE
  5
208C4
  8
0
 62
     0
 10
30.457920628587861
 20
1.2556071056870299
 30
0.0
 11
29.30199999996929
 21
2.4115277343055999
 31
0.0
  0
LINE
  5
208C5
  8
0
 62
     0
 10
24.801293456773731
 20
6.2387150684209711
 30
0.0
 11
23.094305444905441
 21
7.9457030802892676
 31
0.0
  0
LINE
  5
208C6
  8
0
 62
     0
 10
30.183774082486231
 20
0.8562344427084749
 30
0.0
 11
29.190608894965969
 21
1.8493996302287361
 31
0.0
  0
LINE
  5
208C7
  8
0
 62
     0
 10
25.346544469548409
 20
5.0199448465661041
 30
0.0
 11
22.8861023394348
 21
7.4803869766797142
 31
0.0
  0
LINE
  5
208C8
  8
0
 62
     0
 10
29.839662784186881
 20
0.526826531927636
 30
0.0
 11
28.85882922779124
 21
1.5076600883232769
 31
0.0
  0
LINE
  5
208C9
  8
0
 62
     0
 10
25.89179548232309
 20
3.8011746247112401
 30
0.0
 11
22.677899233964169
 21
7.0150708730701608
 31
0.0
  0
LINE
  5
208CA
  8
0
 62
     0
 10
29.42460021066384
 20
0.2683698963704924
 30
0.0
 11
28.30987010704311
 21
1.383099999991223
 31
0.0
  0
LINE
  5
208CB
  8
0
 62
     0
 10
26.437046495097771
 20
2.5824044028563722
 30
0.0
 11
23.619927020197391
 21
5.399523877756752
 31
0.0
  0
LINE
  5
208CC
  8
0
 62
     0
 10
23.545403308011299
 20
5.4740475899428409
 30
0.0
 11
22.469696128493538
 21
6.5497547694606011
 31
0.0
  0
LINE
  5
208CD
  8
0
 62
     0
 10
28.926753096604909
 20
0.0926978013492281
 30
0.0
 11
27.636350897962942
 21
1.3830999999912019
 31
0.0
  0
LINE
  5
208CE
  8
0
 62
     0
 10
23.337264454489642
 20
5.008667234384319
 30
0.0
 11
22.261493023022911
 21
6.084438665851045
 31
0.0
  0
LINE
  5
208CF
  8
0
 62
     0
 10
28.312831688882731
 20
0.0330999999912241
 30
0.0
 11
24.16488385994823
 21
4.1810478289257267
 31
0.0
  0
LINE
  5
208D0
  8
0
 62
     0
 10
23.129125600967981
 20
4.5432868788257892
 30
0.0
 11
22.053289917552281
 21
5.6191225622414862
 31
0.0
  0
LINE
  5
208D1
  8
0
 62
     0
 10
27.639312479802548
 20
0.0330999999912223
 30
0.0
 11
24.001412479797459
 21
3.6709999999963112
 31
0.0
  0
LINE
  5
208D2
  8
0
 62
     0
 10
24.630493270715959
 20
2.368399999997624
 30
0.0
 11
23.327893270717269
 21
3.6709999999963112
 31
0.0
  0
LINE
  5
208D3
  8
0
 62
     0
 10
22.920986747446321
 20
4.077906523267262
 30
0.0
 11
21.84508681208165
 21
5.1538064586319328
 31
0.0
  0
LINE
  5
208D4
  8
0
 62
     0
 10
26.965793270722362
 20
0.0330999999912223
 30
0.0
 11
25.25541323119716
 21
1.7434800395164269
 31
0.0
  0
LINE
  5
208D5
  8
0
 62
     0
 10
23.95697406163578
 20
2.368399999997624
 30
0.0
 11
21.63688370661102
 21
4.6884903550223767
 31
0.0
  0
LINE
  5
208D6
  8
0
 62
     0
 10
26.292274061642178
 20
0.0330999999912223
 30
0.0
 11
25.800091995928678
 21
0.5252820657047224
 31
0.0
  0
LINE
  5
208D7
  8
0
 62
     0
 10
23.283454852555579
 20
2.368399999997624
 30
0.0
 11
21.428680601140389
 21
4.2231742514128214
 31
0.0
  0
LINE
  5
208D8
  8
0
 62
     0
 10
22.609935643475399
 20
2.3683999999976271
 30
0.0
 11
21.220477495669758
 21
3.757858147803268
 31
0.0
  0
LINE
  5
208D9
  8
0
 62
     0
 10
22.088110666590779
 20
2.2167057678020612
 30
0.0
 11
21.012274390199131
 21
3.2925420441937092
 31
0.0
  0
LINE
  5
208DA
  8
0
 62
     0
 10
21.87987663957459
 20
1.75142058573806
 30
0.0
 11
20.804071284728501
 21
2.8272259405841531
 31
0.0
  0
LINE
  5
208DB
  8
0
 62
     0
 10
21.671642612558401
 20
1.286135403674066
 30
0.0
 11
20.59586817925787
 21
2.3619098369745961
 31
0.0
  0
LINE
  5
208DC
  8
0
 62
     0
 10
21.463408585542211
 20
0.820850221610069
 30
0.0
 11
20.38766507378724
 21
1.89659373336504
 31
0.0
  0
LINE
  5
208DD
  8
0
 62
     0
 10
21.255174558526019
 20
0.3555650395460681
 30
0.0
 11
20.179461968316609
 21
1.4312776297554839
 31
0.0
  0
LINE
  5
208DE
  8
0
 62
     0
 10
20.937220388991911
 20
0.0
 30
0.0
 11
19.971258862845978
 21
0.9659615261459286
 31
0.0
  0
LINE
  5
208DF
  8
0
 62
     0
 10
20.263701179911731
 20
-0.0000000000000036
 30
0.0
 11
19.763055757375351
 21
0.5006454225363691
 31
0.0
  0
LINE
  5
208E0
  8
0
 62
     0
 10
19.59018197083153
 20
0.0
 30
0.0
 11
19.55485265190471
 21
0.0353293189268129
 31
0.0
  0
LINE
  5
208E1
  8
0
 62
     0
 10
29.449030297223398
 20
0.2804157054470497
 30
0.0
 11
30.494684294513409
 21
1.326069702737052
 31
0.0
  0
LINE
  5
208E2
  8
0
 62
     0
 10
28.531798056793392
 20
0.0367026740972145
 30
0.0
 11
30.738397325863239
 21
2.2433019431670731
 31
0.0
  0
LINE
  5
208E3
  8
0
 62
     0
 10
27.854676173607199
 20
0.0330999999912205
 30
0.0
 11
30.741999999969231
 21
2.9204238263532529
 31
0.0
  0
LINE
  5
208E4
  8
0
 62
     0
 10
29.291023385505738
 20
2.1429664209699419
 30
0.0
 11
30.741999999969241
 21
3.5939430354334392
 31
0.0
  0
LINE
  5
208E5
  8
0
 62
     0
 10
27.181156964527009
 20
0.0330999999912178
 30
0.0
 11
28.542133578990569
 21
1.3940766144547789
 31
0.0
  0
LINE
  5
208E6
  8
0
 62
     0
 10
29.301999999969301
 20
2.8274622445136872
 30
0.0
 11
30.741999999969241
 21
4.2674622445136281
 31
0.0
  0
LINE
  5
208E7
  8
0
 62
     0
 10
26.507637755446829
 20
0.0330999999912196
 30
0.0
 11
27.85763775544682
 21
1.383099999991207
 31
0.0
  0
LINE
  5
208E8
  8
0
 62
     0
 10
29.30199999996929
 20
3.5009814535938699
 30
0.0
 11
30.741999999969241
 21
4.9409814535938184
 31
0.0
  0
LINE
  5
208E9
  8
0
 62
     0
 10
25.962675489584221
 20
0.1616569432088069
 30
0.0
 11
27.184118546366602
 21
1.3830999999911811
 31
0.0
  0
LINE
  5
208EA
  8
0
 62
     0
 10
29.30199999996929
 20
4.1745006626740588
 30
0.0
 11
30.741999999969241
 21
5.6145006626740086
 31
0.0
  0
LINE
  5
208EB
  8
0
 62
     0
 10
25.754577213168211
 20
0.6270778758729732
 30
0.0
 11
26.830480932483631
 21
1.7029815951884011
 31
0.0
  0
LINE
  5
208EC
  8
0
 62
     0
 10
29.30199999996929
 20
4.8480198717542438
 30
0.0
 11
30.741999999969241
 21
6.2880198717541962
 31
0.0
  0
LINE
  5
208ED
  8
0
 62
     0
 10
25.54647893675218
 20
1.0924988085371361
 30
0.0
 11
26.622299180662889
 21
2.1683190524478411
 31
0.0
  0
LINE
  5
208EE
  8
0
 62
     0
 10
29.301999999969301
 20
5.5215390808344331
 30
0.0
 11
30.741999999969249
 21
6.9615390808343891
 31
0.0
  0
LINE
  5
208EF
  8
0
 62
     0
 10
25.33838066033616
 20
1.5579197412012999
 30
0.0
 11
26.41411742884215
 21
2.6336565097072859
 31
0.0
  0
LINE
  5
208F0
  8
0
 62
     0
 10
29.301999999969301
 20
6.1950582899146172
 30
0.0
 11
30.741999999969259
 21
7.6350582899145767
 31
0.0
  0
LINE
  5
208F1
  8
0
 62
     0
 10
25.130282383920139
 20
2.02334067386546
 30
0.0
 11
26.205935677021401
 21
3.0989939669667259
 31
0.0
  0
LINE
  5
208F2
  8
0
 62
     0
 10
29.301999999969301
 20
6.8685774989948047
 30
0.0
 11
30.741999999969259
 21
8.3085774989947652
 31
0.0
  0
LINE
  5
208F3
  8
0
 62
     0
 10
24.801822500972111
 20
2.368399999997624
 30
0.0
 11
25.997753925200652
 21
3.5643314242261681
 31
0.0
  0
LINE
  5
208F4
  8
0
 62
     0
 10
29.301999999969301
 20
7.5420967080749897
 30
0.0
 11
30.52300329188553
 21
8.763099999991228
 31
0.0
  0
LINE
  5
208F5
  8
0
 62
     0
 10
24.128303291891928
 20
2.3683999999976222
 30
0.0
 11
25.789572173379909
 21
4.0296688814856072
 31
0.0
  0
LINE
  5
208F6
  8
0
 62
     0
 10
23.454784082811742
 20
2.368399999997624
 30
0.0
 11
25.58139042155916
 21
4.4950063387450481
 31
0.0
  0
LINE
  5
208F7
  8
0
 62
     0
 10
29.301999999969301
 20
8.2156159171551781
 30
0.0
 11
29.84948408280534
 21
8.763099999991228
 31
0.0
  0
LINE
  5
208F8
  8
0
 62
     0
 10
21.08638408281411
 20
-0.0000000000000018
 30
0.0
 11
21.103870746784189
 21
0.0174866639700735
 31
0.0
  0
LINE
  5
208F9
  8
0
 62
     0
 10
22.781264873731551
 20
2.3683999999976209
 30
0.0
 11
24.083864873730239
 21
3.6709999999963099
 31
0.0
  0
LINE
  5
208FA
  8
0
 62
     0
 10
24.297467415466471
 20
3.8846025417325389
 30
0.0
 11
25.373208669738421
 21
4.960343796004488
 31
0.0
  0
LINE
  5
208FB
  8
0
 62
     0
 10
20.41286487373392
 20
-0.0000000000000036
 30
0.0
 11
21.64948049965006
 21
1.2366156259161309
 31
0.0
  0
LINE
  5
208FC
  8
0
 62
     0
 10
24.089328561944811
 20
4.3499828972910661
 30
0.0
 11
25.165026917917672
 21
5.4256812532639316
 31
0.0
  0
LINE
  5
208FD
  8
0
 62
     0
 10
19.73934566465374
 20
0.0
 30
0.0
 11
23.410345664650048
 21
3.670999999996309
 31
0.0
  0
LINE
  5
208FE
  8
0
 62
     0
 10
23.88118970842314
 20
4.8153632528495853
 30
0.0
 11
24.956845166096929
 21
5.8910187105233707
 31
0.0
  0
LINE
  5
208FF
  8
0
 62
     0
 10
19.922244030410109
 20
0.8564175748365538
 30
0.0
 11
22.740758654927749
 21
3.6749321993541981
 31
0.0
  0
LINE
  5
20900
  8
0
 62
     0
 10
23.673050854901479
 20
5.2807436084081099
 30
0.0
 11
24.74866341427618
 21
6.3563561677828151
 31
0.0
  0
LINE
  5
20901
  8
0
 62
     0
 10
20.467641547998259
 20
2.0753343015048951
 30
0.0
 11
23.285715494678559
 21
4.8934082481851924
 31
0.0
  0
LINE
  5
20902
  8
0
 62
     0
 10
21.013039065586419
 20
3.2942510281732309
 30
0.0
 11
24.540481662455441
 21
6.8216936250422533
 31
0.0
  0
LINE
  5
20903
  8
0
 62
     0
 10
21.558436583174561
 20
4.513167754841569
 30
0.0
 11
24.332299910634688
 21
7.2870310823016951
 31
0.0
  0
LINE
  5
20904
  8
0
 62
     0
 10
22.103834100762711
 20
5.7320844815099052
 30
0.0
 11
24.12411815881395
 21
7.752368539561135
 31
0.0
  0
LINE
  5
20905
  8
0
 62
     0
 10
22.649231618350871
 20
6.9510012081782424
 30
0.0
 11
23.9159364069932
 21
8.2177059968205732
 31
0.0
  0
LINE
  5
20906
  8
0
 62
     0
 10
23.194629135939021
 20
8.1699179348465805
 30
0.0
 11
23.707754655172462
 21
8.6830434540800177
 31
0.0
  0
ENDBLK
  5
20908
  8
0
  0
BLOCK
  8
0
  2
*X35
 70
     1
 10
0.0
 20
0.0
 30
0.0
  3
*X35
  1

  0
LINE
  5
2090A
  8
0
 62
     0
 10
37.671999999968321
 20
8.1854311249904796
 30
0.0
 11
37.094331124967553
 21
8.7630999999912564
 31
0.0
  0
LINE
  5
2090B
  8
0
 62
     0
 10
37.671999999968328
 20
7.5119119159102867
 30
0.0
 11
36.420811915887363
 21
8.7630999999912547
 31
0.0
  0
LINE
  5
2090C
  8
0
 62
     0
 10
37.671999999968328
 20
6.8383927068301
 30
0.0
 11
36.231999999968373
 21
8.2783927068300578
 31
0.0
  0
LINE
  5
2090D
  8
0
 62
     0
 10
37.671999999968328
 20
6.164873497749908
 30
0.0
 11
36.231999999968373
 21
7.6048734977498764
 31
0.0
  0
LINE
  5
2090E
  8
0
 62
     0
 10
37.671999999968328
 20
5.4913542886697231
 30
0.0
 11
36.231999999968359
 21
6.9313542886696951
 31
0.0
  0
LINE
  5
2090F
  8
0
 62
     0
 10
37.671999999968328
 20
4.8178350795895302
 30
0.0
 11
36.231999999968359
 21
6.257835079589511
 31
0.0
  0
LINE
  5
20910
  8
0
 62
     0
 10
33.081999999968353
 20
8.7343158705093451
 30
0.0
 11
33.053215870486461
 21
8.7630999999912262
 31
0.0
  0
LINE
  5
20911
  8
0
 62
     0
 10
37.671999999968342
 20
4.1443158705093426
 30
0.0
 11
36.231999999968352
 21
5.5843158705093341
 31
0.0
  0
LINE
  5
20912
  8
0
 62
     0
 10
33.081999999968353
 20
8.0607966614291566
 30
0.0
 11
32.379696661406257
 21
8.7630999999912458
 31
0.0
  0
LINE
  5
20913
  8
0
 62
     0
 10
37.671999999968349
 20
3.4707966614291532
 30
0.0
 11
36.231999999968352
 21
4.9107966614291536
 31
0.0
  0
LINE
  5
20914
  8
0
 62
     0
 10
33.081999999968339
 20
7.3872774523489682
 30
0.0
 11
31.706177452326049
 21
8.7630999999912582
 31
0.0
  0
LINE
  5
20915
  8
0
 62
     0
 10
37.671999999968342
 20
2.7972774523489639
 30
0.0
 11
36.231999999968338
 21
4.2372774523489731
 31
0.0
  0
LINE
  5
20916
  8
0
 62
     0
 10
33.081999999968353
 20
6.7137582432687832
 30
0.0
 11
31.641999999968348
 21
8.1537582432687792
 31
0.0
  0
LINE
  5
20917
  8
0
 62
     0
 10
37.65026559515578
 20
2.1454926480813441
 30
0.0
 11
36.231999999968323
 21
3.5637582432687971
 31
0.0
  0
LINE
  5
20918
  8
0
 62
     0
 10
33.081999999968353
 20
6.0402390341885939
 30
0.0
 11
31.641999999968348
 21
7.480239034188588
 31
0.0
  0
LINE
  5
20919
  8
0
 62
     0
 10
37.519554401194739
 20
1.6026846329622011
 30
0.0
 11
36.23199999996833
 21
2.8902390341886099
 31
0.0
  0
LINE
  5
2091A
  8
0
 62
     0
 10
33.081999999968353
 20
5.3667198251084089
 30
0.0
 11
31.641999999968348
 21
6.806719825108404
 31
0.0
  0
LINE
  5
2091B
  8
0
 62
     0
 10
37.303753463824641
 20
1.144966361252125
 30
0.0
 11
36.207116671148931
 21
2.2416031539278261
 31
0.0
  0
LINE
  5
2091C
  8
0
 62
     0
 10
33.081999999968353
 20
4.6932006160282231
 30
0.0
 11
31.641999999968348
 21
6.1332006160282191
 31
0.0
  0
LINE
  5
2091D
  8
0
 62
     0
 10
37.019703335426037
 20
0.755497280570534
 30
0.0
 11
35.996962457455652
 21
1.7782381585409219
 31
0.0
  0
LINE
  5
2091E
  8
0
 62
     0
 10
33.081999999968353
 20
4.0196814069480364
 30
0.0
 11
31.641999999968348
 21
5.4596814069480297
 31
0.0
  0
LINE
  5
2091F
  8
0
 62
     0
 10
36.673303541984843
 20
0.4283778649315333
 30
0.0
 11
35.638303382158099
 21
1.463378024758281
 31
0.0
  0
LINE
  5
20920
  8
0
 62
     0
 10
33.081999999968353
 20
3.3461621978678489
 30
0.0
 11
31.641999999968348
 21
4.7861621978678448
 31
0.0
  0
LINE
  5
20921
  8
0
 62
     0
 10
36.263996276060482
 20
0.1641659217757083
 30
0.0
 11
35.160083583595231
 21
1.2680786142409679
 31
0.0
  0
LINE
  5
20922
  8
0
 62
     0
 10
33.081999999968353
 20
2.6726429887876622
 30
0.0
 11
31.641999999968348
 21
4.1126429887876599
 31
0.0
  0
LINE
  5
20923
  8
0
 62
     0
 10
35.796224120707834
 20
-0.0415811319518231
 30
0.0
 11
34.548571908367997
 21
1.2060710803880119
 31
0.0
  0
LINE
  5
20924
  8
0
 62
     0
 10
33.38374578259382
 20
1.697377997082012
 30
0.0
 11
31.641999999968348
 21
3.4391237797074719
 31
0.0
  0
LINE
  5
20925
  8
0
 62
     0
 10
35.2637678033404
 20
-0.1826440236645763
 30
0.0
 11
33.467758574123401
 21
1.613365205552423
 31
0.0
  0
LINE
  5
20926
  8
0
 62
     0
 10
34.644481659876348
 20
-0.2368770892807164
 30
0.0
 11
31.641999999968348
 21
2.7656045706272852
 31
0.0
  0
LINE
  5
20927
  8
0
 62
     0
 10
33.882022784935067
 20
-0.1479374234196293
 30
0.0
 11
31.6767103736743
 21
2.05737498784115
 31
0.0
  0
LINE
  5
20928
  8
0
 62
     0
 10
32.597736685481571
 20
0.4628294669536924
 30
0.0
 11
32.233210043993921
 21
0.8273561084413412
 31
0.0
  0
LINE
  5
20929
  8
0
 62
     0
 10
35.901292898140767
 20
-0.0025137844374483
 30
0.0
 11
37.526682373606427
 21
1.6228756910282169
 31
0.0
  0
LINE
  5
2092A
  8
0
 62
     0
 10
35.011846013067
 20
-0.2184414604310323
 30
0.0
 11
37.671690137183113
 21
2.4414026636850732
 31
0.0
  0
LINE
  5
2092B
  8
0
 62
     0
 10
34.335055261422497
 20
-0.2217130029953505
 30
0.0
 11
37.671999999968357
 21
3.1152317355505081
 31
0.0
  0
LINE
  5
2092C
  8
0
 62
     0
 10
36.22341799578475
 20
2.34016894044708
 30
0.0
 11
37.671999999968349
 21
3.7887509446306882
 31
0.0
  0
LINE
  5
2092D
  8
0
 62
     0
 10
33.764781759205142
 20
-0.1184672961325277
 30
0.0
 11
35.14826070499295
 21
1.2650116496552899
 31
0.0
  0
LINE
  5
2092E
  8
0
 62
     0
 10
36.23199999996833
 20
3.0222701537108612
 30
0.0
 11
37.671999999968342
 21
4.4622701537108727
 31
0.0
  0
LINE
  5
2092F
  8
0
 62
     0
 10
33.267721159564204
 20
0.0579913133067343
 30
0.0
 11
34.426314137477831
 21
1.2165842912203599
 31
0.0
  0
LINE
  5
20930
  8
0
 62
     0
 10
36.231999999968338
 20
3.6957893627910541
 30
0.0
 11
37.671999999968328
 21
5.135789362791054
 31
0.0
  0
LINE
  5
20931
  8
0
 62
     0
 10
32.829526961020242
 20
0.2933163238429541
 30
0.0
 11
33.892750351957297
 21
1.356539714780016
 31
0.0
  0
LINE
  5
20932
  8
0
 62
     0
 10
36.231999999968352
 20
4.3693085718712412
 30
0.0
 11
37.671999999968342
 21
5.8093085718712381
 31
0.0
  0
LINE
  5
20933
  8
0
 62
     0
 10
32.453183968618852
 20
0.5904925405217468
 30
0.0
 11
33.472128987242357
 21
1.6094375591452561
 31
0.0
  0
LINE
  5
20934
  8
0
 62
     0
 10
36.231999999968352
 20
5.0428277809514341
 30
0.0
 11
37.671999999968328
 21
6.4828277809514168
 31
0.0
  0
LINE
  5
20935
  8
0
 62
     0
 10
32.138870317392751
 20
0.949698098375844
 30
0.0
 11
33.186799660921331
 21
1.9976274419044211
 31
0.0
  0
LINE
  5
20936
  8
0
 62
     0
 10
36.231999999968352
 20
5.7163469900316271
 30
0.0
 11
37.671999999968328
 21
7.1563469900316017
 31
0.0
  0
LINE
  5
20937
  8
0
 62
     0
 10
31.888990894616189
 20
1.373337884679465
 30
0.0
 11
33.081999999968353
 21
2.5663469900316218
 31
0.0
  0
LINE
  5
20938
  8
0
 62
     0
 10
36.231999999968359
 20
6.3898661991118217
 30
0.0
 11
37.671999999968328
 21
7.8298661991117866
 31
0.0
  0
LINE
  5
20939
  8
0
 62
     0
 10
31.714181567551108
 20
1.8720477666945701
 30
0.0
 11
33.081999999968353
 21
3.2398661991118081
 31
0.0
  0
LINE
  5
2093A
  8
0
 62
     0
 10
36.231999999968373
 20
7.0633854081920138
 30
0.0
 11
37.671999999968321
 21
8.5033854081919689
 31
0.0
  0
LINE
  5
2093B
  8
0
 62
     0
 10
31.642012947499701
 20
2.4733983557233419
 30
0.0
 11
33.081999999968353
 21
3.9133854081919939
 31
0.0
  0
LINE
  5
2093C
  8
0
 62
     0
 10
36.23199999996838
 20
7.7369046172722067
 30
0.0
 11
37.258195382687433
 21
8.7630999999912547
 31
0.0
  0
LINE
  5
2093D
  8
0
 62
     0
 10
31.641999999968348
 20
3.1469046172721851
 30
0.0
 11
33.08199999996836
 21
4.5869046172721806
 31
0.0
  0
LINE
  5
2093E
  8
0
 62
     0
 10
36.23199999996838
 20
8.4104238263524014
 30
0.0
 11
36.584676173607242
 21
8.7630999999912564
 31
0.0
  0
LINE
  5
2093F
  8
0
 62
     0
 10
31.641999999968348
 20
3.82042382635237
 30
0.0
 11
33.081999999968353
 21
5.2604238263523682
 31
0.0
  0
LINE
  5
20940
  8
0
 62
     0
 10
31.641999999968348
 20
4.4939430354325562
 30
0.0
 11
33.081999999968353
 21
5.9339430354325531
 31
0.0
  0
LINE
  5
20941
  8
0
 62
     0
 10
31.641999999968348
 20
5.1674622445127421
 30
0.0
 11
33.081999999968353
 21
6.6074622445127398
 31
0.0
  0
LINE
  5
20942
  8
0
 62
     0
 10
31.641999999968348
 20
5.840981453592927
 30
0.0
 11
33.081999999968339
 21
7.2809814535929247
 31
0.0
  0
LINE
  5
20943
  8
0
 62
     0
 10
31.641999999968348
 20
6.5145006626731163
 30
0.0
 11
33.081999999968353
 21
7.9545006626731141
 31
0.0
  0
LINE
  5
20944
  8
0
 62
     0
 10
31.641999999968348
 20
7.1880198717533013
 30
0.0
 11
33.081999999968353
 21
8.6280198717532972
 31
0.0
  0
LINE
  5
20945
  8
0
 62
     0
 10
31.641999999968348
 20
7.861539080833488
 30
0.0
 11
32.543560919126101
 21
8.7630999999912405
 31
0.0
  0
LINE
  5
20946
  8
0
 62
     0
 10
31.641999999968348
 20
8.5350582899136729
 30
0.0
 11
31.870041710045928
 21
8.7630999999912493
 31
0.0
  0
ENDBLK
  5
20948
  8
0
  0
BLOCK
  8
0
  2
*X36
 70
     1
 10
0.0
 20
0.0
 30
0.0
  3
*X36
  1

  0
LINE
  5
2094A
  8
0
 62
     0
 10
44.999999999955008
 20
8.2661424248858424
 30
0.0
 11
44.503042424849617
 21
8.763099999991228
 31
0.0
  0
LINE
  5
2094B
  8
0
 62
     0
 10
44.999999999955008
 20
7.5926232158056557
 30
0.0
 11
43.829523215769441
 21
8.7630999999912316
 31
0.0
  0
LINE
  5
2094C
  8
0
 62
     0
 10
44.999999999955008
 20
6.919104006725469
 30
0.0
 11
43.578999999956388
 21
8.3401040067240864
 31
0.0
  0
LINE
  5
2094D
  8
0
 62
     0
 10
44.999999999955008
 20
6.245584797645285
 30
0.0
 11
43.578999999956388
 21
7.6665847976438997
 31
0.0
  0
LINE
  5
2094E
  8
0
 62
     0
 10
44.999999999955008
 20
5.5720655885650991
 30
0.0
 11
43.578999999956388
 21
6.993065588563713
 31
0.0
  0
LINE
  5
2094F
  8
0
 62
     0
 10
44.999999999955008
 20
4.8985463794849098
 30
0.0
 11
43.578999999956388
 21
6.3195463794835272
 31
0.0
  0
LINE
  5
20950
  8
0
 62
     0
 10
44.999999999955008
 20
4.2250271704047249
 30
0.0
 11
43.578999999956388
 21
5.6460271704033396
 31
0.0
  0
LINE
  5
20951
  8
0
 62
     0
 10
44.999999999955008
 20
3.5515079613245391
 30
0.0
 11
43.578999999956388
 21
4.9725079613231529
 31
0.0
  0
LINE
  5
20952
  8
0
 62
     0
 10
44.999999999955008
 20
2.8779887522443528
 30
0.0
 11
43.578999999956388
 21
4.2989887522429671
 31
0.0
  0
LINE
  5
20953
  8
0
 62
     0
 10
41.898767309847742
 20
5.3057022332714263
 30
0.0
 11
38.604999999961379
 21
8.5994695431577952
 31
0.0
  0
LINE
  5
20954
  8
0
 62
     0
 10
44.999999999955008
 20
2.2044695431641661
 30
0.0
 11
43.578999999956388
 21
3.625469543162783
 31
0.0
  0
LINE
  5
20955
  8
0
 62
     0
 10
44.999999999955008
 20
1.530950334083981
 30
0.0
 11
38.604999999961393
 21
7.9259503340776041
 31
0.0
  0
LINE
  5
20956
  8
0
 62
     0
 10
44.999999999955008
 20
0.857431125003794
 30
0.0
 11
38.604999999961379
 21
7.2524311249974209
 31
0.0
  0
LINE
  5
20957
  8
0
 62
     0
 10
40.025999999959957
 20
5.1579119159186542
 30
0.0
 11
38.604999999961393
 21
6.5789119159172307
 31
0.0
  0
LINE
  5
20958
  8
0
 62
     0
 10
44.999999999955008
 20
0.1839119159236073
 30
0.0
 11
41.538583645063312
 21
3.645328270815305
 31
0.0
  0
LINE
  5
20959
  8
0
 62
     0
 10
40.025999999959957
 20
4.4843927068384648
 30
0.0
 11
38.604999999961393
 21
5.9053927068370484
 31
0.0
  0
LINE
  5
2095A
  8
0
 62
     0
 10
40.025999999959957
 20
3.8108734977582781
 30
0.0
 11
38.604999999961393
 21
5.2318734977568608
 31
0.0
  0
LINE
  5
2095B
  8
0
 62
     0
 10
40.025999999959957
 20
3.1373542886780941
 30
0.0
 11
38.604999999961379
 21
4.558354288676675
 31
0.0
  0
LINE
  5
2095C
  8
0
 62
     0
 10
40.025999999959957
 20
2.4638350795979052
 30
0.0
 11
38.604999999961379
 21
3.884835079596491
 31
0.0
  0
LINE
  5
2095D
  8
0
 62
     0
 10
40.025999999959957
 20
1.79031587051772
 30
0.0
 11
38.604999999961379
 21
3.2113158705163061
 31
0.0
  0
LINE
  5
2095E
  8
0
 62
     0
 10
40.025999999959957
 20
1.1167966614375331
 30
0.0
 11
38.604999999961379
 21
2.5377966614361198
 31
0.0
  0
LINE
  5
2095F
  8
0
 62
     0
 10
40.025999999959957
 20
0.4432774523573473
 30
0.0
 11
38.604999999961379
 21
1.8642774523559329
 31
0.0
  0
LINE
  5
20960
  8
0
 62
     0
 10
39.795758243237117
 20
-0.0000000000000009
 30
0.0
 11
38.604999999961379
 21
1.190758243275746
 31
0.0
  0
LINE
  5
20961
  8
0
 62
     0
 10
39.122239034156941
 20
-0.0000000000000027
 30
0.0
 11
38.604999999961379
 21
0.5172390341955602
 31
0.0
  0
LINE
  5
20962
  8
0
 62
     0
 10
44.727869922999538
 20
0.0683135223788982
 30
0.0
 11
44.999999999955008
 21
0.3404435993343693
 31
0.0
  0
LINE
  5
20963
  8
0
 62
     0
 10
44.410407610419362
 20
0.4243704188789037
 30
0.0
 11
44.999999999955008
 21
1.0139628084145551
 31
0.0
  0
LINE
  5
20964
  8
0
 62
     0
 10
44.092945297839179
 20
0.7804273153789119
 30
0.0
 11
44.999999999955008
 21
1.6874820174947409
 31
0.0
  0
LINE
  5
20965
  8
0
 62
     0
 10
43.775482985258989
 20
1.136484211878916
 30
0.0
 11
44.999999999955008
 21
2.3610012265749258
 31
0.0
  0
LINE
  5
20966
  8
0
 62
     0
 10
43.458020672678813
 20
1.4925411083789251
 30
0.0
 11
44.999999999955008
 21
3.034520435655113
 31
0.0
  0
LINE
  5
20967
  8
0
 62
     0
 10
43.14055836009863
 20
1.8485980048789299
 30
0.0
 11
44.999999999955008
 21
3.7080396447352988
 31
0.0
  0
LINE
  5
20968
  8
0
 62
     0
 10
42.823096047518469
 20
2.20465490137894
 30
0.0
 11
44.999999999955008
 21
4.381558853815485
 31
0.0
  0
LINE
  5
20969
  8
0
 62
     0
 10
42.505633734938279
 20
2.5607117978789451
 30
0.0
 11
43.478660230526117
 21
3.533738293466774
 31
0.0
  0
LINE
  5
2096A
  8
0
 62
     0
 10
43.578999999956402
 20
3.6340780628970579
 30
0.0
 11
44.999999999955008
 21
5.0550780628956717
 31
0.0
  0
LINE
  5
2096B
  8
0
 62
     0
 10
39.944921937059341
 20
-0.0000000000000018
 30
0.0
 11
40.025999999959971
 21
0.0810780629006303
 31
0.0
  0
LINE
  5
2096C
  8
0
 62
     0
 10
42.188171422358103
 20
2.9167686943789528
 30
0.0
 11
43.161197917945927
 21
3.8897951899667791
 31
0.0
  0
LINE
  5
2096D
  8
0
 62
     0
 10
43.578999999956388
 20
4.3075972719772446
 30
0.0
 11
44.999999999955008
 21
5.7285972719758584
 31
0.0
  0
LINE
  5
2096E
  8
0
 62
     0
 10
39.271402727979151
 20
-0.0000000000000031
 30
0.0
 11
40.025999999959957
 21
0.7545972719808161
 31
0.0
  0
LINE
  5
2096F
  8
0
 62
     0
 10
41.87070910977792
 20
3.2728255908789592
 30
0.0
 11
42.843735605365737
 21
4.2458520864667886
 31
0.0
  0
LINE
  5
20970
  8
0
 62
     0
 10
43.578999999956388
 20
4.9811164810574331
 30
0.0
 11
44.999999999955008
 21
6.4021164810560451
 31
0.0
  0
LINE
  5
20971
  8
0
 62
     0
 10
38.604999999961379
 20
0.0071164810624182
 30
0.0
 11
40.025999999959957
 21
1.428116481061001
 31
0.0
  0
LINE
  5
20972
  8
0
 62
     0
 10
41.553246797197737
 20
3.6288824873789678
 30
0.0
 11
42.526273292785568
 21
4.6019089829667976
 31
0.0
  0
LINE
  5
20973
  8
0
 62
     0
 10
43.578999999956388
 20
5.654635690137618
 30
0.0
 11
44.999999999955008
 21
7.0756356901362301
 31
0.0
  0
LINE
  5
20974
  8
0
 62
     0
 10
38.604999999961393
 20
0.6806356901426051
 30
0.0
 11
40.025999999959957
 21
2.1016356901411881
 31
0.0
  0
LINE
  5
20975
  8
0
 62
     0
 10
41.235784484617547
 20
3.9849393838789742
 30
0.0
 11
42.208810980205392
 21
4.9579658794668049
 31
0.0
  0
LINE
  5
20976
  8
0
 62
     0
 10
43.57899999995638
 20
6.3281548992178029
 30
0.0
 11
44.999999999955001
 21
7.7491548992164168
 31
0.0
  0
LINE
  5
20977
  8
0
 62
     0
 10
38.604999999961379
 20
1.354154899222791
 30
0.0
 11
40.025999999959957
 21
2.7751548992213748
 31
0.0
  0
LINE
  5
20978
  8
0
 62
     0
 10
40.918322172037378
 20
4.3409962803789819
 30
0.0
 11
41.891348667625209
 21
5.3140227759668131
 31
0.0
  0
LINE
  5
20979
  8
0
 62
     0
 10
43.578999999956388
 20
7.0016741082979914
 30
0.0
 11
44.999999999955008
 21
8.4226741082966026
 31
0.0
  0
LINE
  5
2097A
  8
0
 62
     0
 10
38.604999999961379
 20
2.0276741083029779
 30
0.0
 11
40.025999999959957
 21
3.4486741083015611
 31
0.0
  0
LINE
  5
2097B
  8
0
 62
     0
 10
40.600859859457202
 20
4.6970531768789874
 30
0.0
 11
41.57388635504504
 21
5.670079672466823
 31
0.0
  0
LINE
  5
2097C
  8
0
 62
     0
 10
43.578999999956388
 20
7.6751933173781781
 30
0.0
 11
44.66690668256944
 21
8.7630999999912298
 31
0.0
  0
LINE
  5
2097D
  8
0
 62
     0
 10
38.604999999961379
 20
2.701193317383165
 30
0.0
 11
40.025999999959957
 21
4.1221933173817469
 31
0.0
  0
LINE
  5
2097E
  8
0
 62
     0
 10
40.283397546877019
 20
5.0531100733789964
 30
0.0
 11
41.256424042464857
 21
6.0261365689668294
 31
0.0
  0
LINE
  5
2097F
  8
0
 62
     0
 10
43.578999999956388
 20
8.3487125264583621
 30
0.0
 11
43.993387473489257
 21
8.7630999999912316
 31
0.0
  0
LINE
  5
20980
  8
0
 62
     0
 10
38.604999999961393
 20
3.3747125264633522
 30
0.0
 11
40.025999999959957
 21
4.7957125264619354
 31
0.0
  0
LINE
  5
20981
  8
0
 62
     0
 10
38.604999999961393
 20
4.0482317355435384
 30
0.0
 11
40.938961729884682
 21
6.3821934654668402
 31
0.0
  0
LINE
  5
20982
  8
0
 62
     0
 10
38.6049999999614
 20
4.7217509446237287
 30
0.0
 11
40.621499417304513
 21
6.7382503619668492
 31
0.0
  0
LINE
  5
20983
  8
0
 62
     0
 10
38.604999999961393
 20
5.3952701537039163
 30
0.0
 11
40.30403710472433
 21
7.0943072584668556
 31
0.0
  0
LINE
  5
20984
  8
0
 62
     0
 10
38.604999999961393
 20
6.0687893627841021
 30
0.0
 11
39.986574792144147
 21
7.4503641549668638
 31
0.0
  0
LINE
  5
20985
  8
0
 62
     0
 10
38.604999999961393
 20
6.742308571864287
 30
0.0
 11
39.669112479563971
 21
7.8064210514668684
 31
0.0
  0
LINE
  5
20986
  8
0
 62
     0
 10
38.604999999961393
 20
7.4158277809444746
 30
0.0
 11
39.351650166983788
 21
8.1624779479668774
 31
0.0
  0
LINE
  5
20987
  8
0
 62
     0
 10
38.604999999961393
 20
8.0893469900246604
 30
0.0
 11
39.034187854403612
 21
8.5185348444668882
 31
0.0
  0
LINE
  5
20988
  8
0
 62
     0
 10
38.6049999999614
 20
8.7628661991048489
 30
0.0
 11
38.716725541823443
 21
8.8745917409668955
 31
0.0
  0
ENDBLK
  5
2098A
  8
0
  0
BLOCK
  8
0
  2
*X37
 70
     1
 10
0.0
 20
0.0
 30
0.0
  3
*X37
  1

  0
LINE
  5
2098C
  8
0
 62
     0
 10
1.4209999999985781
 20
8.7399130437103523
 30
0.0
 11
1.397813043717697
 21
8.7630999999912333
 31
0.0
  0
LINE
  5
2098D
  8
0
 62
     0
 10
1.4209999999985781
 20
8.0663938346301585
 30
0.0
 11
0.7242938346375141
 21
8.7630999999912298
 31
0.0
  0
LINE
  5
2098E
  8
0
 62
     0
 10
1.420999999998585
 20
7.3928746255499709
 30
0.0
 11
0.0507746255573238
 21
8.7630999999912262
 31
0.0
  0
LINE
  5
2098F
  8
0
 62
     0
 10
1.4209999999985781
 20
6.7193554164697877
 30
0.0
 11
0.0
 21
8.1403554164683598
 31
0.0
  0
LINE
  5
20990
  8
0
 62
     0
 10
1.4209999999985781
 20
6.0458362073895984
 30
0.0
 11
0.0000000000000071
 21
7.4668362073881758
 31
0.0
  0
LINE
  5
20991
  8
0
 62
     0
 10
1.420999999998581
 20
5.3723169983094108
 30
0.0
 11
0.0000000000000071
 21
6.7933169983079891
 31
0.0
  0
LINE
  5
20992
  8
0
 62
     0
 10
1.4209999999985781
 20
4.6987977892292276
 30
0.0
 11
0.0
 21
6.1197977892278059
 31
0.0
  0
LINE
  5
20993
  8
0
 62
     0
 10
1.4209999999985781
 20
4.0252785801490383
 30
0.0
 11
0.0
 21
5.446278580147613
 31
0.0
  0
LINE
  5
20994
  8
0
 62
     0
 10
1.420999999998581
 20
3.3517593710688551
 30
0.0
 11
0.0000000000000071
 21
4.772759371067429
 31
0.0
  0
LINE
  5
20995
  8
0
 62
     0
 10
1.420999999998581
 20
2.678240161988664
 30
0.0
 11
0.0000000000000071
 21
4.0992401619872387
 31
0.0
  0
LINE
  5
20996
  8
0
 62
     0
 10
1.420999999998581
 20
2.0047209529084808
 30
0.0
 11
0.0000000000000071
 21
3.425720952907056
 31
0.0
  0
LINE
  5
20997
  8
0
 62
     0
 10
1.420999999998581
 20
1.331201743828295
 30
0.0
 11
0.0000000000000071
 21
2.7522017438268689
 31
0.0
  0
LINE
  5
20998
  8
0
 62
     0
 10
1.420999999998581
 20
0.6576825347481085
 30
0.0
 11
0.0000000000000071
 21
2.0786825347466831
 31
0.0
  0
LINE
  5
20999
  8
0
 62
     0
 10
1.405163325666503
 20
0.0000000000000036
 30
0.0
 11
0.0000000000000036
 21
1.405163325666503
 31
0.0
  0
LINE
  5
2099A
  8
0
 62
     0
 10
0.7316441165863097
 20
0.0000000000000071
 30
0.0
 11
0.0000000000000071
 21
0.7316441165863097
 31
0.0
  0
LINE
  5
2099B
  8
0
 62
     0
 10
0.0581249075061265
 20
0.0000000000000036
 30
0.0
 11
0.0000000000000036
 21
0.0581249075061301
 31
0.0
  0
LINE
  5
2099C
  8
0
 62
     0
 10
0.8808078104085197
 20
0.0
 30
0.0
 11
1.420999999998581
 21
0.5401921895900621
 31
0.0
  0
LINE
  5
2099D
  8
0
 62
     0
 10
0.207288601328333
 20
-0.0000000000000036
 30
0.0
 11
1.4209999999985781
 21
1.213711398670245
 31
0.0
  0
LINE
  5
2099E
  8
0
 62
     0
 10
0.0000000000000071
 20
0.4662306077518572
 30
0.0
 11
1.420999999998581
 21
1.8872306077504351
 31
0.0
  0
LINE
  5
2099F
  8
0
 62
     0
 10
0.0000000000000036
 20
1.139749816832043
 30
0.0
 11
1.4209999999985781
 21
2.5607498168306182
 31
0.0
  0
LINE
  5
209A0
  8
0
 62
     0
 10
0.0000000000000071
 20
1.8132690259122339
 30
0.0
 11
1.420999999998581
 21
3.234269025910808
 31
0.0
  0
LINE
  5
209A1
  8
0
 62
     0
 10
0.0000000000000036
 20
2.4867882349924129
 30
0.0
 11
1.4209999999985781
 21
3.907788234990992
 31
0.0
  0
LINE
  5
209A2
  8
0
 62
     0
 10
0.0000000000000036
 20
3.1603074440726031
 30
0.0
 11
1.420999999998581
 21
4.5813074440711823
 31
0.0
  0
LINE
  5
209A3
  8
0
 62
     0
 10
0.0000000000000036
 20
3.8338266531527871
 30
0.0
 11
1.4209999999985781
 21
5.2548266531513654
 31
0.0
  0
LINE
  5
209A4
  8
0
 62
     0
 10
0.0
 20
4.507345862232973
 30
0.0
 11
1.420999999998581
 21
5.928345862231553
 31
0.0
  0
LINE
  5
209A5
  8
0
 62
     0
 10
0.0
 20
5.1808650713131561
 30
0.0
 11
1.4209999999985801
 21
6.6018650713117353
 31
0.0
  0
LINE
  5
209A6
  8
0
 62
     0
 10
0.0000000000000036
 20
5.8543842803933472
 30
0.0
 11
1.4209999999985801
 21
7.2753842803919246
 31
0.0
  0
LINE
  5
209A7
  8
0
 62
     0
 10
0.0000000000000036
 20
6.527903489473533
 30
0.0
 11
1.420999999998581
 21
7.9489034894721096
 31
0.0
  0
LINE
  5
209A8
  8
0
 62
     0
 10
0.0000000000000053
 20
7.201422698553718
 30
0.0
 11
1.420999999998583
 21
8.6224226985522954
 31
0.0
  0
LINE
  5
209A9
  8
0
 62
     0
 10
0.0
 20
7.8749419076339029
 30
0.0
 11
0.8881580923573242
 21
8.7630999999912262
 31
0.0
  0
LINE
  5
209AA
  8
0
 62
     0
 10
0.0000000000000018
 20
8.5484611167140958
 30
0.0
 11
0.2146388832771393
 21
8.7630999999912316
 31
0.0
  0
ENDBLK
  5
209AC
  8
0
  0
BLOCK
  8
0
  2
*U38
 70
     1
 10
0.0
 20
0.0
 30
0.0
  3
*U38
  1

  0
LINE
  5
209AE
  8
0
 10
-23.468911086754559
 20
-1.75
 30
0.0
 11
0.0000000000000284
 21
-1.75
 31
0.0
  0
LINE
  5
209AF
  8
0
 10
0.0000000000000284
 20
-1.75
 30
0.0
 11
0.0000000000000284
 21
-4.5
 31
0.0
  0
LINE
  5
209B0
  8
0
 10
-29.999999999999972
 20
0.0
 30
0.0
 11
-23.468911086754559
 21
-1.75
 31
0.0
  0
LINE
  5
209B1
  8
0
 10
0.0000000000000284
 20
-4.5
 30
0.0
 11
0.7999999999998125
 21
-4.5
 31
0.0
  0
LINE
  5
209B2
  8
0
 10
-29.999999999999972
 20
0.0
 30
0.0
 11
-23.468911086754499
 21
1.75
 31
0.0
  0
ARC
  5
209B3
  8
0
 10
0.8000000000000113
 20
-2.0
 30
0.0
 40
2.5
 50
269.9999999999954
 51
0.0
  0
LINE
  5
209B4
  8
0
 10
-23.468911086754499
 20
1.75
 30
0.0
 11
0.0000000000000284
 21
1.75
 31
0.0
  0
LINE
  5
209B5
  8
0
 10
3.3000000000000389
 20
2.0
 30
0.0
 11
3.3000000000000109
 21
-2.0
 31
0.0
  0
LINE
  5
209B6
  8
0
 10
0.0000000000000284
 20
4.5
 30
0.0
 11
0.0000000000000284
 21
1.75
 31
0.0
  0
ARC
  5
209B7
  8
0
 10
0.8000000000000397
 20
2.0
 30
0.0
 40
2.5
 50
0.0
 51
90.0
  0
LINE
  5
209B8
  8
0
 10
0.0000000000000284
 20
4.5
 30
0.0
 11
0.8000000000000397
 21
4.5
 31
0.0
  0
ENDBLK
  5
209BA
  8
0
  0
BLOCK
  8
0
  2
*X39
 70
     1
 10
0.0
 20
0.0
 30
0.0
  3
*X39
  1

  0
LINE
  5
209BC
  8
0
 62
     0
 10
4.999963781330016
 20
0.6648318481563891
 30
0.0
 11
4.6648058190850739
 21
0.9999898104013169
 31
0.0
  0
LINE
  5
209BD
  8
0
 62
     0
 10
4.9999616918183198
 20
0.2158211316146108
 30
0.0
 11
4.215790923500478
 21
0.9999918999324464
 31
0.0
  0
LINE
  5
209BE
  8
0
 62
     0
 10
2.4999712361998969
 20
2.266798781179574
 30
0.0
 11
2.383370684454845
 21
2.383399332924625
 31
0.0
  0
LINE
  5
209BF
  8
0
 62
     0
 10
4.9999596023066308
 20
-0.2331895849271461
 30
0.0
 11
3.7667760279159088
 21
0.9999939894635758
 31
0.0
  0
LINE
  5
209C0
  8
0
 62
     0
 10
2.4999691466882008
 20
1.8177880646378091
 30
0.0
 11
2.1588632366674139
 21
2.1588939746586102
 31
0.0
  0
LINE
  5
209C1
  8
0
 62
     0
 10
4.9999575127949347
 20
-0.6822003014689173
 30
0.0
 11
3.3177611323312979
 21
0.9999960789947266
 31
0.0
  0
LINE
  5
209C2
  8
0
 62
     0
 10
2.4999670571765189
 20
1.368777348096045
 30
0.0
 11
1.9343557888799829
 21
1.934388616392581
 31
0.0
  0
LINE
  5
209C3
  8
0
 62
     0
 10
4.8687555439913117
 20
-1.0000111387187469
 30
0.0
 11
2.86874623674673
 21
0.9999981685258205
 31
0.0
  0
LINE
  5
209C4
  8
0
 62
     0
 10
4.4197406484067079
 20
-1.000009049187589
 30
0.0
 11
1.709848341092552
 21
1.7098832581265659
 31
0.0
  0
LINE
  5
209C5
  8
0
 62
     0
 10
3.970725752822104
 20
-1.000006959656452
 30
0.0
 11
1.4853408933051071
 21
1.4853778998605369
 31
0.0
  0
LINE
  5
209C6
  8
0
 62
     0
 10
3.521710857237522
 20
-1.0000048701253299
 30
0.0
 11
1.2608334455176899
 21
1.2608725415945079
 31
0.0
  0
LINE
  5
209C7
  8
0
 62
     0
 10
3.072695961652939
 20
-1.000002780594186
 30
0.0
 11
1.036325997730259
 21
1.0363671833284931
 31
0.0
  0
LINE
  5
209C8
  8
0
 62
     0
 10
2.6236810660683281
 20
-1.0000006910630499
 30
0.0
 11
0.8118185499428136
 21
0.8118618250624649
 31
0.0
  0
LINE
  5
209C9
  8
0
 62
     0
 10
2.4999545201063849
 20
-1.3252869511545811
 30
0.0
 11
0.5873111021553683
 21
0.5873564667964361
 31
0.0
  0
LINE
  5
209CA
  8
0
 62
     0
 10
2.4999524305947101
 20
-1.7742976676963591
 30
0.0
 11
0.3628036543679514
 21
0.3628511085304069
 31
0.0
  0
LINE
  5
209CB
  8
0
 62
     0
 10
2.4999503410830348
 20
-2.2233083842381229
 30
0.0
 11
0.1382962065805202
 21
0.1383457502643921
 31
0.0
  0
LINE
  5
209CC
  8
0
 62
     0
 10
4.6010502818750387
 20
-1.000009892928265
 30
0.0
 11
4.9999578901918467
 21
-0.6011022846114571
 31
0.0
  0
LINE
  5
209CD
  8
0
 62
     0
 10
4.152039565333272
 20
-1.0000078034165789
 30
0.0
 11
4.9999599797229841
 21
-0.1520873890268675
 31
0.0
  0
LINE
  5
209CE
  8
0
 62
     0
 10
3.703028848791504
 20
-1.000005713904887
 30
0.0
 11
4.9999620692541198
 21
0.2969275065577292
 31
0.0
  0
LINE
  5
209CF
  8
0
 62
     0
 10
2.3514924413035621
 20
-2.351542121392824
 30
0.0
 11
2.499950435198417
 21
-2.2030841274979731
 31
0.0
  0
LINE
  5
209D0
  8
0
 62
     0
 10
3.254018132249743
 20
-1.0000036243931869
 30
0.0
 11
4.9999641587852457
 21
0.7459424021423189
 31
0.0
  0
LINE
  5
209D1
  8
0
 62
     0
 10
2.1269870830375481
 20
-2.1270346736053831
 30
0.0
 11
2.4999525247295402
 21
-1.754069231913391
 31
0.0
  0
LINE
  5
209D2
  8
0
 62
     0
 10
2.805007415707979
 20
-1.0000015348814979
 30
0.0
 11
4.8049981085933799
 21
0.9999891580039027
 31
0.0
  0
LINE
  5
209D3
  8
0
 62
     0
 10
1.9024817247715189
 20
-1.9025272258179591
 30
0.0
 11
2.4999546142606759
 21
-1.305054336328801
 31
0.0
  0
LINE
  5
209D4
  8
0
 62
     0
 10
1.6779763665055001
 20
-1.6780197780305171
 30
0.0
 11
4.3559873920516132
 21
0.9999912475155952
 31
0.0
  0
LINE
  5
209D5
  8
0
 62
     0
 10
1.453471008239468
 20
-1.453512330243089
 30
0.0
 11
3.906976675509831
 21
0.9999933370272736
 31
0.0
  0
LINE
  5
209D6
  8
0
 62
     0
 10
1.228965649973442
 20
-1.2290048824556541
 30
0.0
 11
3.4579659589680598
 21
0.9999954265389625
 31
0.0
  0
LINE
  5
209D7
  8
0
 62
     0
 10
1.0044602917074099
 20
-1.0044974346682269
 30
0.0
 11
3.008955242426274
 21
0.9999975160506373
 31
0.0
  0
LINE
  5
209D8
  8
0
 62
     0
 10
0.7799549334414025
 20
-0.7799899868807892
 30
0.0
 11
2.5599445258845068
 21
0.9999996055623157
 31
0.0
  0
LINE
  5
209D9
  8
0
 62
     0
 10
0.555449575175377
 20
-0.5554825390933509
 30
0.0
 11
2.499967151447489
 21
1.389035037178757
 31
0.0
  0
LINE
  5
209DA
  8
0
 62
     0
 10
0.3309442169093444
 20
-0.3309750913059233
 30
0.0
 11
2.4999692409786181
 21
1.838049932763347
 31
0.0
  0
LINE
  5
209DB
  8
0
 62
     0
 10
0.106438858643326
 20
-0.1064676435184815
 30
0.0
 11
2.4999713305097719
 21
2.2870648283479609
 31
0.0
  0
ENDBLK
  5
209DD
  8
0
  0
BLOCK
  8
0
  2
*U40
 70
     1
 10
0.0
 20
0.0
 30
0.0
  3
*U40
  1

  0
LINE
  5
209DF
  8
0
 10
-29.999999999837598
 20
0.0000465358979227
 30
0.0
 11
-24.700003489975941
 21
-1.4999534641020771
 31
0.0
  0
LINE
  5
209E0
  8
0
 10
-24.700003489975941
 20
-1.4999534641020771
 30
0.0
 11
-0.0000034900840618
 21
-1.499953464101849
 31
0.0
  0
LINE
  5
209E1
  8
0
 10
-29.999999999837598
 20
0.0000465358979227
 30
0.0
 11
-24.6999965095923
 21
1.5000465358980359
 31
0.0
  0
LINE
  5
209E2
  8
0
 10
-0.0000081437821464
 20
-3.4999999999998859
 30
0.0
 11
-0.0000034900840618
 21
-1.499953464101849
 31
0.0
  0
LINE
  5
209E3
  8
0
 10
-24.6999965095923
 20
1.5000465358980359
 30
0.0
 11
0.0000034903006139
 21
1.500046535897922
 31
0.0
  0
LINE
  5
209E4
  8
0
 10
-0.0000081437821464
 20
-3.4999999999998859
 30
0.0
 11
1.0999953464131731
 21
-3.5
 31
0.0
  0
LINE
  5
209E5
  8
0
 10
0.0000034903006139
 20
1.500046535897922
 30
0.0
 11
0.0000081437821322
 21
3.5
 31
0.0
  0
ARC
  5
209E6
  8
0
 10
1.0999953464131731
 20
-2.0
 30
0.0
 40
1.5
 50
270.0
 51
359.99986668447059
  0
LINE
  5
209E7
  8
0
 10
0.0000081437821322
 20
3.5
 30
0.0
 11
1.100004653592769
 21
3.5
 31
0.0
  0
LINE
  5
209E8
  8
0
 10
2.5999953464091159
 20
-2.0000034901923982
 30
0.0
 11
2.6000046535887051
 21
1.9999965098076009
 31
0.0
  0
ARC
  5
209E9
  8
0
 10
1.100004653592769
 20
2.0
 30
0.0
 40
1.5
 50
359.99986668447059
 51
90.0
  0
ENDBLK
  5
209EB
  8
0
  0
BLOCK
  8
0
  2
*U41
 70
     1
 10
0.0
 20
0.0
 30
0.0
  3
*U41
  1

  0
LINE
  5
209F0
  8
0
 10
-5.6499999999999773
 20
-2.0
 30
0.0
 11
-1.3000001740739999
 21
-2.0
 31
0.0
  0
LINE
  5
209F1
  8
0
 10
-1.3000001740739999
 20
-2.0
 30
0.0
 11
-0.300000099999977
 21
-3.0
 31
0.0
  0
LINE
  5
209F2
  8
0
 10
-6.0
 20
-1.6499999999998629
 30
0.0
 11
-5.6499999999999773
 21
-2.0
 31
0.0
  0
LINE
  5
209F3
  8
0
 10
-0.300000099999977
 20
-3.0
 30
0.0
 11
0.0
 21
-3.0
 31
0.0
  0
LINE
  5
209F4
  8
0
 10
-6.0
 20
1.649999999999977
 30
0.0
 11
-6.0
 21
-1.6499999999998629
 31
0.0
  0
LINE
  5
209F5
  8
0
 10
0.0
 20
3.0
 30
0.0
 11
0.0
 21
-3.0
 31
0.0
  0
LINE
  5
209F6
  8
0
 10
-5.6499999999999773
 20
2.0
 30
0.0
 11
-6.0
 21
1.649999999999977
 31
0.0
  0
LINE
  5
209F7
  8
0
 10
-0.3000000099999625
 20
3.0
 30
0.0
 11
0.0
 21
3.0
 31
0.0
  0
LINE
  5
209F8
  8
0
 10
-5.6499999999999773
 20
2.0
 30
0.0
 11
-1.3000001740739999
 21
2.0
 31
0.0
  0
LINE
  5
209F9
  8
0
 10
-1.3000001740739999
 20
2.0
 30
0.0
 11
-0.3000000099999625
 21
3.0
 31
0.0
  0
ENDBLK
  5
209FB
  8
0
  0
BLOCK
  8
0
  2
*U42
 70
     1
 10
0.0
 20
0.0
 30
0.0
  3
*U42
  1

  0
LINE
  5
209FD
  8
0
 10
-11.650013959962349
 20
-1.9997847496487109
 30
0.0
 11
-2.3000325752681761
 21
-1.9999933529384171
 31
0.0
  0
LINE
  5
209FE
  8
0
 10
-0.3000279216296064
 20
-4.0000119674275529
 30
0.0
 11
-2.3000325752681761
 21
-1.9999933529384171
 31
0.0
  0
LINE
  5
209FF
  8
0
 10
-12.00001151681753
 20
-1.649782080143495
 30
0.0
 11
-11.650013959962349
 21
-1.9997847496487109
 31
0.0
  0
LINE
  5
20A00
  8
0
 10
-0.3000279216296064
 20
-4.0000119674275529
 30
0.0
 11
-0.0000279216418164
 21
-4.0000147595814042
 31
0.0
  0
LINE
  5
20A01
  8
0
 10
-11.999988481548071
 20
1.650217919786882
 30
0.0
 11
-12.00001151681753
 21
-1.649782080143495
 31
0.0
  0
LINE
  5
20A02
  8
0
 10
0.000027921435759
 20
3.9999852402454499
 30
0.0
 11
-0.0000279216418164
 21
-4.0000147595814042
 31
0.0
  0
LINE
  5
20A03
  8
0
 10
-11.999988481548071
 20
1.650217919786882
 30
0.0
 11
-11.64998603842362
 21
2.0002152502640911
 31
0.0
  0
LINE
  5
20A04
  8
0
 10
-0.2999720785521447
 20
3.9999880323993011
 30
0.0
 11
0.000027921435759
 21
3.9999852402454499
 31
0.0
  0
LINE
  5
20A05
  8
0
 10
-11.64998603842362
 20
2.0002152502640911
 30
0.0
 11
-2.2999767321039282
 21
2.0000066467150641
 31
0.0
  0
LINE
  5
20A06
  8
0
 10
-0.2999720785521447
 20
3.9999880323993011
 30
0.0
 11
-2.2999767321039282
 21
2.0000066467150641
 31
0.0
  0
ENDBLK
  5
20A08
  8
0
  0
BLOCK
  8
0
  2
*U43
 70
     1
 10
0.0
 20
0.0
 30
0.0
  3
*U43
  1

  0
CIRCLE
  5
20A0A
  8
0
 10
0.0
 20
0.0
 30
0.0
 40
4.0
  0
ENDBLK
  5
20A0C
  8
0
  0
BLOCK
  8
0
  2
*U44
 70
     1
 10
0.0
 20
0.0
 30
0.0
  3
*U44
  1

  0
LINE
  5
20A0E
  8
0
 10
-7.6499860385006002
 20
2.0002042217355429
 30
0.0
 11
-2.2999767321809079
 21
1.9999956181865171
 31
0.0
  0
LINE
  5
20A0F
  8
0
 10
-7.9999884816250519
 20
1.650206891258335
 30
0.0
 11
-7.6499860385006002
 21
2.0002042217355429
 31
0.0
  0
LINE
  5
20A10
  8
0
 10
-0.2999720786291249
 20
3.9999770038707529
 30
0.0
 11
-2.2999767321809079
 21
1.9999956181865171
 31
0.0
  0
LINE
  5
20A11
  8
0
 10
-7.9999884816250519
 20
1.650206891258335
 30
0.0
 11
-8.0000115168945172
 21
-1.6497931086720421
 31
0.0
  0
LINE
  5
20A12
  8
0
 10
-0.2999720786291249
 20
3.9999770038707529
 30
0.0
 11
0.0000279213587788
 21
3.999974211716903
 31
0.0
  0
LINE
  5
20A13
  8
0
 10
-8.0000115168945172
 20
-1.6497931086720421
 30
0.0
 11
-7.6500139600393311
 21
-1.999795778177258
 31
0.0
  0
LINE
  5
20A14
  8
0
 10
0.0000279213587788
 20
3.999974211716903
 30
0.0
 11
-0.0000279217187966
 21
-4.0000257881099506
 31
0.0
  0
LINE
  5
20A15
  8
0
 10
-7.6500139600393311
 20
-1.999795778177258
 30
0.0
 11
-2.3000325753451558
 21
-2.0000043814669648
 31
0.0
  0
LINE
  5
20A16
  8
0
 10
-0.3000279217065866
 20
-4.0000229959561011
 30
0.0
 11
-0.0000279217187966
 21
-4.0000257881099506
 31
0.0
  0
LINE
  5
20A17
  8
0
 10
-0.3000279217065866
 20
-4.0000229959561011
 30
0.0
 11
-2.3000325753451558
 21
-2.0000043814669648
 31
0.0
  0
ENDBLK
  5
20A19
  8
0
  0
BLOCK
  8
0
  2
*U45
 70
     1
 10
0.0
 20
0.0
 30
0.0
  3
*U45
  1

  0
LINE
  5
20A1B
  8
0
 10
-0.2624918561714935
 20
3.500020359454993
 30
0.0
 11
-2.4500376653308531
 21
1.3125
 31
0.0
  0
LINE
  5
20A1C
  8
0
 10
-15.362496946035041
 20
1.3125
 30
0.0
 11
-2.4500376653308531
 21
1.3125
 31
0.0
  0
LINE
  5
20A1D
  8
0
 10
-0.2624918561714935
 20
3.500020359454993
 30
0.0
 11
0.0000081438294615
 21
3.5000203594554469
 31
0.0
  0
LINE
  5
20A1E
  8
0
 10
-20.0
 20
0.0
 30
0.0
 11
-15.362496946035041
 21
1.3125
 31
0.0
  0
LINE
  5
20A1F
  8
0
 10
-0.0000081437347603
 20
-3.4999796405445518
 30
0.0
 11
0.0000081438294615
 21
3.5000203594554469
 31
0.0
  0
LINE
  5
20A20
  8
0
 10
-20.0
 20
0.0
 30
0.0
 11
-15.3625030538717
 21
-1.3125
 31
0.0
  0
LINE
  5
20A21
  8
0
 10
-0.2625081437357153
 20
-3.4999796405445518
 30
0.0
 11
-0.0000081437347603
 21
-3.4999796405445518
 31
0.0
  0
LINE
  5
20A22
  8
0
 10
-15.3625030538717
 20
-1.3125
 30
0.0
 11
-2.449972514883938
 21
-1.3125
 31
0.0
  0
LINE
  5
20A23
  8
0
 10
-0.2625081437357153
 20
-3.4999796405445518
 30
0.0
 11
-2.449972514883938
 21
-1.3125
 31
0.0
  0
ENDBLK
  5
20A25
  8
0
  0
BLOCK
  8
0
  2
*U46
 70
     1
 10
0.0
 20
0.0
 30
0.0
  3
*U46
  1

  0
ARC
  5
20A27
  8
0
 10
-3.5
 20
13.49999999999997
 30
0.0
 40
2.5
 50
0.0
 51
90.0
  0
LINE
  5
20A28
  8
0
 10
-1.0
 20
13.49999999999997
 30
0.0
 11
-1.000000000000028
 21
0.0
 31
0.0
  0
LINE
  5
20A29
  8
0
 10
-49.000000000000028
 20
15.99999999999997
 30
0.0
 11
-3.5
 21
15.99999999999997
 31
0.0
  0
LINE
  5
20A2A
  8
0
 10
-1.000000000000028
 20
0.0
 30
0.0
 11
1.0
 21
0.0
 31
0.0
  0
LINE
  5
20A2B
  8
0
 10
-49.0
 20
17.999999999999972
 30
0.0
 11
-49.000000000000028
 21
15.99999999999997
 31
0.0
  0
LINE
  5
20A2C
  8
0
 10
1.0
 20
13.49999999999997
 30
0.0
 11
1.0
 21
0.0
 31
0.0
  0
LINE
  5
20A2D
  8
0
 10
-49.0
 20
17.999999999999972
 30
0.0
 11
-3.5
 21
17.999999999999972
 31
0.0
  0
ARC
  5
20A2E
  8
0
 10
-3.5
 20
13.49999999999997
 30
0.0
 40
4.5
 50
0.0
 51
90.0
  0
ENDBLK
  5
20A30
  8
0
  0
BLOCK
  8
0
  2
*U47
 70
     1
 10
0.0
 20
0.0
 30
0.0
  3
*U47
  1

  0
LINE
  5
20A32
  8
0
 10
1.000000000000113
 20
3.4999999999999432
 30
0.0
 11
0.0000081480358176
 21
3.4999999999999432
 31
0.0
  0
LINE
  5
20A33
  8
0
 10
0.0000081480358176
 20
3.4999999999999432
 30
0.0
 11
-0.0000011640078128
 21
-0.500001164007756
 31
0.0
  0
LINE
  5
20A34
  8
0
 10
1.000000000000056
 20
0.500000000000057
 30
0.0
 11
1.000000000000113
 21
3.4999999999999432
 31
0.0
  0
LINE
  5
20A35
  8
0
 10
-0.0000011640078128
 20
-0.500001164007756
 30
0.0
 11
1.000000000000056
 21
0.500000000000057
 31
0.0
  0
ENDBLK
  5
20A37
  8
0
  0
BLOCK
  8
0
  2
*U48
 70
     1
 10
0.0
 20
0.0
 30
0.0
  3
*U48
  1

  0
LINE
  5
20A39
  8
0
 10
1.000000000000056
 20
0.5000000000000285
 30
0.0
 11
-0.0000011640078128
 21
-0.500001164007756
 31
0.0
  0
LINE
  5
20A3A
  8
0
 10
-0.0000011640078128
 20
-0.500001164007756
 30
0.0
 11
-0.0000081480357039
 21
-3.4999999999999432
 31
0.0
  0
LINE
  5
20A3B
  8
0
 10
0.9999999999998863
 20
-3.4999999999999138
 30
0.0
 11
1.000000000000056
 21
0.5000000000000285
 31
0.0
  0
LINE
  5
20A3C
  8
0
 10
-0.0000081480357039
 20
-3.4999999999999432
 30
0.0
 11
0.9999999999998863
 21
-3.4999999999999138
 31
0.0
  0
ENDBLK
  5
20A3E
  8
0
  0
BLOCK
  8
0
  2
*U49
 70
     1
 10
0.0
 20
0.0
 30
0.0
  3
*U49
  1

  0
TEXT
  5
20A40
  8
1DIM
 62
   201
 10
212.1094415704774
 20
-1389.2669343529519
 30
0.0
 40
3.5
  1
50
 50
90.0
  0
ENDBLK
  5
20A42
  8
0
  0
BLOCK
  8
0
  2
*U50
 70
     1
 10
0.0
 20
0.0
 30
0.0
  3
*U50
  1

  0
TEXT
  5
20A44
  8
1DIM
 62
   201
 10
242.7937946423219
 20
-1350.941921642167
 30
0.0
 40
3.5
  1
18
  0
ENDBLK
  5
20A46
  8
0
  0
BLOCK
  8
0
  2
*U51
 70
     1
 10
0.0
 20
0.0
 30
0.0
  3
*U51
  1

  0
TEXT
  5
20A48
  8
1DIM
 62
   201
 10
264.7937965020397
 20
-1420.9418404203341
 30
0.0
 40
3.5
  1
18
  0
ENDBLK
  5
20A4A
  8
0
  0
BLOCK
  8
0
  2
*U52
 70
     1
 10
0.0
 20
0.0
 30
0.0
  3
*U52
  1

  0
TEXT
  5
20A4C
  8
1DIM
 62
   201
 10
253.50645692224421
 20
-1430.9418404203341
 30
0.0
 40
3.5
  1
40
  0
ENDBLK
  5
20A4E
  8
0
  0
BLOCK
  8
0
  2
*U53
 70
     1
 10
0.0
 20
0.0
 30
0.0
  3
*U53
  1

  0
TEXT
  5
20A50
  8
1DIM
 62
   201
 10
262.20862667715818
 20
-1350.941921642167
 30
0.0
 40
3.5
  1
22
  0
ENDBLK
  5
20A52
  8
0
  0
BLOCK
  8
0
  2
*U54
 70
     1
 10
0.0
 20
0.0
 30
0.0
  3
*U54
  1

  0
TEXT
  5
20A54
  8
1DIM
 62
   201
 10
318.42712983537331
 20
-1400.3084694184829
 30
0.0
 40
3.5
  1
18.5
 50
90.0
  0
ENDBLK
  5
20A56
  8
0
  0
BLOCK
  8
0
  2
*U55
 70
     1
 10
0.0
 20
0.0
 30
0.0
  3
*U55
  1

  0
TEXT
  5
20A58
  8
1DIM
 62
   201
 10
318.42712983537342
 20
-1384.18260777931
 30
0.0
 40
3.5
  1
7
 50
90.0
  0
ENDBLK
  5
20A5A
  8
0
  0
BLOCK
  8
0
  2
*U56
 70
     1
 10
0.0
 20
0.0
 30
0.0
  3
*U56
  1

  0
TEXT
  5
20A5C
  8
1DIM
 62
   201
 10
197.0741951450799
 20
-1270.941921642167
 30
0.0
 40
3.5
  1
23
  0
ENDBLK
  5
20A5E
  8
0
  0
ENDSEC
  0
SECTION
  2
ENTITIES
  0
LINE
  5
2028F
  8
01
  6
CONTINUOUS
 10
259.05857874499827
 20
-1379.6401027414231
 30
0.0
 11
276.12712983537301
 21
-1379.6401027414199
 31
0.0
  0
LINE
  5
20290
  8
01
  6
CONTINUOUS
 10
254.12712581096881
 20
-1363.641933334517
 30
0.0
 11
254.19113956013231
 21
-1375.440748463963
 31
0.0
  0
LINE
  5
20291
  8
01
  6
CONTINUOUS
 10
252.12712610859009
 20
-1361.6419216421671
 30
0.0
 11
238.12712984272039
 21
-1361.6419216421671
 31
0.0
  0
LINE
  5
20292
  8
01
  6
CONTINUOUS
 10
236.1284218935854
 20
-1363.6419282448651
 30
0.0
 11
236.1357840091153
 21
-1400.0994295638541
 31
0.0
  0
LINE
  5
20293
  8
01
  6
CONTINUOUS
 10
248.63710812833131
 20
-1411.641759193632
 30
0.0
 11
276.12712983537301
 21
-1411.641921647036
 31
0.0
  0
LINE
  5
20294
  8
01
  6
CONTINUOUS
 10
276.12712983537301
 20
-1411.641921647036
 30
0.0
 11
276.12712983537301
 21
-1379.6401027414199
 31
0.0
  0
ARC
  5
20295
  8
01
  6
CONTINUOUS
 10
259.12406213986549
 20
-1374.64361867773
 30
0.0
 40
4.9969131545123737
 50
189.1792942626665
 51
269.24913052612368
  0
ARC
  5
20296
  8
01
  6
CONTINUOUS
 10
252.12739690060911
 20
-1363.641650853895
 30
0.0
 40
1.9997292300627909
 50
359.99036732417869
 51
90.007758667058582
  0
ARC
  5
20297
  8
01
  6
CONTINUOUS
 10
238.12339151111101
 20
-1363.638450578648
 30
0.0
 40
1.9949726486878789
 50
89.892659156074487
 51
180.0998789120398
  0
ARC
  5
20298
  8
01
  6
CONTINUOUS
 10
248.17648080255029
 20
-1399.599507550919
 30
0.0
 40
12.051070545410131
 50
182.37751849955501
 51
272.19209076336091
  0
LINE
  5
2029A
  8
01
  6
CONTINUOUS
 10
178.085349501282
 20
-1303.680816369075
 30
0.0
 11
187.52323888348241
 21
-1303.641925364632
 31
0.0
  0
LINE
  5
2029B
  8
01
  6
CONTINUOUS
 10
181.5273038535519
 20
-1321.640629583937
 30
0.0
 11
184.078290302657
 21
-1321.641999388183
 31
0.0
  0
ARC
  5
2029C
  8
01
  6
CONTINUOUS
 10
181.56709291105059
 20
-1320.519643297846
 30
0.0
 40
1.122984549287154
 50
205.24527609224981
 51
267.9679177094668
  0
ARC
  5
2029D
  8
01
  6
CONTINUOUS
 10
603.99714100570145
 20
-1199.9415184672421
 30
0.0
 40
440.41019544096628
 50
190.69085574943631
 51
195.95447300253289
  0
ARC
  5
202A5
  8
01
  6
CONTINUOUS
 10
260.33838791267198
 20
-1295.302449957933
 30
0.0
 40
83.784513255685454
 50
186.47369309339641
 51
197.82468265252081
  0
ARC
  5
202A6
  8
01
  6
CONTINUOUS
 10
178.24712517444999
 20
-1304.8314531121871
 30
0.0
 40
1.161953649259529
 50
98.003136098641534
 51
175.9260531500374
  0
ARC
  5
202A7
  8
01
  6
CONTINUOUS
 10
181.96299529692931
 20
-1320.040311645005
 30
0.0
 40
1.6585670138713891
 50
213.23566903627159
 51
254.770174116589
  0
ARC
  5
202AB
  8
01
  6
CONTINUOUS
 10
184.03850479755189
 20
-1320.519643297846
 30
0.0
 40
1.122984549287154
 50
272.0320822905332
 51
334.7547239077503
  0
ARC
  5
202AC
  8
01
  6
CONTINUOUS
 10
-238.3915432970991
 20
-1199.9415184672409
 30
0.0
 40
440.41019544096628
 50
344.04552699747973
 51
349.30914425056119
  0
ARC
  5
202AD
  8
01
  6
CONTINUOUS
 10
105.2672097959305
 20
-1295.302449957933
 30
0.0
 40
83.784513255685454
 50
342.17531734747922
 51
353.52630690660322
  0
ARC
  5
202AE
  8
01
  6
CONTINUOUS
 10
187.35847253415241
 20
-1304.8314531121871
 30
0.0
 40
1.161953649259529
 50
4.0739468499625717
 51
81.996863901358495
  0
ARC
  5
202AF
  8
01
  6
CONTINUOUS
 10
183.6426024116731
 20
-1320.040311645005
 30
0.0
 40
1.6585670138713891
 50
285.22982588342359
 51
326.76433096372102
  0
LINE
  5
202B0
  8
01
  6
CONTINUOUS
 10
178.2045337223613
 20
-1361.6419345349109
 30
0.0
 11
187.40106043384759
 21
-1361.6419345349109
 31
0.0
  0
LINE
  5
202B1
  8
01
  6
CONTINUOUS
 10
173.21603164586659
 20
-1411.6419341709941
 30
0.0
 11
192.40285149508759
 21
-1411.6419341709941
 31
0.0
  0
ARC
  5
202B2
  8
01
  6
CONTINUOUS
 10
192.41155915615741
 20
-1410.6265608491301
 30
0.0
 40
1.0154106588538241
 50
269.50865362744878
 51
352.15030497221687
  0
ARC
  5
202B3
  8
01
  6
CONTINUOUS
 10
74.36774616356432
 20
-1395.6419370000431
 30
0.0
 40
120.00644782348169
 50
352.76029283893058
 51
7.2397345915990794
  0
ARC
  5
202B4
  8
01
  6
CONTINUOUS
 10
192.41120737863639
 20
-1380.6577120674219
 30
0.0
 40
1.0158143144160821
 50
7.8725319972315351
 51
90.471878022180846
  0
LINE
  5
202B5
  8
01
  6
CONTINUOUS
 10
192.40284084843651
 20
-1379.641932203552
 30
0.0
 11
189.11422427370039
 21
-1379.6416023328511
 31
0.0
  0
ARC
  5
202B6
  8
01
  6
CONTINUOUS
 10
199.31119719151869
 20
-1376.461677339171
 30
0.0
 40
10.681300466336261
 50
184.1787597379834
 51
197.3200842958658
  0
ARC
  5
202B7
  8
01
  6
CONTINUOUS
 10
862.16800899474731
 20
-1363.466309020507
 30
0.0
 40
673.65054234849447
 50
180.01455592532781
 51
181.17157150975751
  0
ARC
  5
202B8
  8
01
  6
CONTINUOUS
 10
185.67866841139309
 20
-1363.4276539260429
 30
0.0
 40
2.846561588667579
 50
355.77339566570282
 51
31.654969613366049
  0
ARC
  5
202B9
  8
01
  6
CONTINUOUS
 10
187.1553219214567
 20
-1363.218964610671
 30
0.0
 40
1.59606117562059
 50
53.63233304261535
 51
81.143190768742485
  0
ARC
  5
202BA
  8
01
  6
CONTINUOUS
 10
173.2073239847968
 20
-1410.6265608491301
 30
0.0
 40
1.0154106588538241
 50
187.8496950277831
 51
270.49134637255207
  0
ARC
  5
202BB
  8
01
  6
CONTINUOUS
 10
291.25113697738988
 20
-1395.6419370000431
 30
0.0
 40
120.00644782348169
 50
172.7602654084013
 51
187.23970716106879
  0
ARC
  5
202BC
  8
01
  6
CONTINUOUS
 10
173.20767576231779
 20
-1380.6577120674219
 30
0.0
 40
1.0158143144160821
 50
89.528121977820774
 51
172.12746800276841
  0
LINE
  5
202BD
  8
01
  6
CONTINUOUS
 10
173.21604229251781
 20
-1379.641932203552
 30
0.0
 11
176.50465886725391
 21
-1379.6416023328511
 31
0.0
  0
ARC
  5
202BE
  8
01
  6
CONTINUOUS
 10
166.30768594943561
 20
-1376.461677339171
 30
0.0
 40
10.681300466336261
 50
342.6799157041342
 51
355.82124026201649
  0
ARC
  5
202BF
  8
01
  6
CONTINUOUS
 10
-496.54912585379299
 20
-1363.466309020507
 30
0.0
 40
673.65054234849447
 50
358.82842849024252
 51
359.98544407467222
  0
ARC
  5
202C0
  8
01
  6
CONTINUOUS
 10
179.94021472956109
 20
-1363.4276539260429
 30
0.0
 40
2.846561588667579
 50
148.34503038663391
 51
184.22660433429721
  0
ARC
  5
202C1
  8
01
  6
CONTINUOUS
 10
178.46356121949751
 20
-1363.218964610671
 30
0.0
 40
1.59606117562059
 50
98.856809231255866
 51
126.3676669573846
  0
LINE
  5
202F0
  8
1PHANTOM
 10
276.12712983537301
 20
-1382.341921645088
 30
0.0
 11
273.62712983537301
 21
-1382.341921645088
 31
0.0
  0
LINE
  5
202F1
  8
1PHANTOM
 10
273.62712983537301
 20
-1382.341921645088
 30
0.0
 11
273.12712983537301
 21
-1382.841921645088
 31
0.0
  0
LINE
  5
202F2
  8
1PHANTOM
 10
273.12712983537301
 20
-1382.841921645088
 30
0.0
 11
273.12712983537301
 21
-1390.48358145253
 31
0.0
  0
LINE
  5
202F3
  8
1PHANTOM
 10
272.64076113046178
 20
-1390.9833956057851
 30
0.0
 11
251.6228007844706
 21
-1391.55661270613
 31
0.0
  0
LINE
  5
202F4
  8
1PHANTOM
 10
251.6228007844706
 20
-1391.55661270613
 30
0.0
 11
251.12712983537301
 21
-1392.0793260210521
 31
0.0
  0
LINE
  5
202F5
  8
1PHANTOM
 10
251.12712983537301
 20
-1392.0793260210521
 30
0.0
 11
251.1271298353729
 21
-1399.036101475644
 31
0.0
  0
LINE
  5
202F6
  8
1PHANTOM
 10
251.1271298353729
 20
-1399.036101475644
 30
0.0
 11
251.62288921701349
 21
-1399.5555738862861
 31
0.0
  0
LINE
  5
202F7
  8
1PHANTOM
 10
251.62288921701349
 20
-1399.5555738862861
 30
0.0
 11
253.62712983537301
 21
-1399.6102380683831
 31
0.0
  0
LINE
  5
202F8
  8
1PHANTOM
 10
263.62712983537301
 20
-1399.88298068021
 30
0.0
 11
272.6407618965618
 21
-1400.1288208352521
 31
0.0
  0
LINE
  5
202F9
  8
1PHANTOM
 10
273.12712983537301
 20
-1400.6286349676129
 30
0.0
 11
273.12712983537301
 21
-1408.441921645089
 31
0.0
  0
LINE
  5
202FA
  8
1PHANTOM
 10
273.12712983537301
 20
-1408.441921645089
 30
0.0
 11
273.62712983537301
 21
-1408.941921645089
 31
0.0
  0
LINE
  5
202FB
  8
1PHANTOM
 10
273.62712983537301
 20
-1408.941921645089
 30
0.0
 11
276.12712983537301
 21
-1408.941921645089
 31
0.0
  0
LINE
  5
202FC
  8
1PHANTOM
 10
253.9977203128218
 20
-1399.1221141502449
 30
0.0
 11
261.73890126771943
 21
-1397.0478709649169
 31
0.0
  0
ARC
  5
202FD
  8
1PHANTOM
 10
262.12712983537301
 20
-1398.496759704351
 30
0.0
 40
1.5
 50
0.0000000000085493
 51
105.0000000000004
  0
ARC
  5
202FE
  8
1PHANTOM
 10
254.12716683609091
 20
-1399.605132438877
 30
0.0
 40
0.5000630655623436
 50
105.0024528344253
 51
180.58499842377279
  0
LINE
  5
202FF
  8
1PHANTOM
 10
263.62712983537301
 20
-1398.496759704351
 30
0.0
 11
263.62712983537301
 21
-1399.88298068021
 31
0.0
  0
ARC
  5
20300
  8
1PHANTOM
 10
272.62712983537313
 20
-1390.48358145253
 30
0.0
 40
0.4999999999999084
 50
271.5622249168286
 51
0.0
  0
ARC
  5
20301
  8
1PHANTOM
 10
272.62712983537278
 20
-1400.6286349676129
 30
0.0
 40
0.5000000000005473
 50
0.0000000000521102
 51
88.437687261894354
  0
LINE
  5
2030F
  8
01
 10
261.12712983537301
 20
-1400.3603721410409
 30
0.0
 11
261.12712983537301
 21
-1407.860371841042
 31
0.0
  0
LINE
  5
20310
  8
01
 10
261.12712983537301
 20
-1407.860371841042
 30
0.0
 11
261.12712983537301
 21
-1400.360372141042
 31
0.0
  0
LINE
  5
20311
  8
1DIM
 10
255.62712983537301
 20
-1408.360373941041
 30
0.0
 11
255.62712983537301
 21
-1400.1103730410421
 31
0.0
  0
LINE
  5
20312
  8
1DIM
 10
255.62712983537301
 20
-1408.360373941041
 30
0.0
 11
255.62712983537301
 21
-1400.1103731410419
 31
0.0
  0
LINE
  5
20313
  8
1DIM
 10
260.62712983537301
 20
-1408.360373941041
 30
0.0
 11
260.62712983537301
 21
-1400.1103731410419
 31
0.0
  0
LINE
  5
20314
  8
1DIM
 10
260.62712983537301
 20
-1408.360373941041
 30
0.0
 11
260.62712983537301
 21
-1400.1103730410421
 31
0.0
  0
LINE
  5
20315
  8
1DIM
 10
260.62712983537301
 20
-1400.1103730410421
 30
0.0
 11
260.62712983537301
 21
-1408.360373941041
 31
0.0
  0
LINE
  5
20316
  8
01
 10
255.12712983537301
 20
-1407.8603758410411
 30
0.0
 11
255.62712983537301
 21
-1408.3603760410431
 31
0.0
  0
LINE
  5
20317
  8
01
 10
255.62712983537301
 20
-1408.360373941041
 30
0.0
 11
260.62712983537301
 21
-1408.360373941041
 31
0.0
  0
LINE
  5
20318
  8
01
 10
260.62712983537301
 20
-1408.3603717410419
 30
0.0
 11
261.12712983537301
 21
-1407.860371841042
 31
0.0
  0
LINE
  5
20319
  8
1DIM
 10
256.71964813293368
 20
-1406.360374441042
 30
0.0
 11
255.87541223537289
 21
-1408.3382987410421
 31
0.0
  0
LINE
  5
2031A
  8
1DIM
 10
256.71964813293368
 20
-1406.360374441042
 30
0.0
 11
259.52165838430648
 21
-1406.360374441042
 31
0.0
  0
LINE
  5
2031B
  8
1DIM
 10
260.33063413537258
 20
-1408.3507117410411
 30
0.0
 11
259.52165838430648
 21
-1406.360374441042
 31
0.0
  0
LINE
  5
2031C
  8
01
 10
255.12712983537301
 20
-1400.360372141042
 30
0.0
 11
256.12712983537301
 21
-1399.8603739410421
 31
0.0
  0
LINE
  5
2031D
  8
01
 10
260.12712983537301
 20
-1399.8603739410421
 30
0.0
 11
261.12712983537301
 21
-1400.360372141042
 31
0.0
  0
LINE
  5
2031E
  8
01
 10
256.12712983537301
 20
-1399.8603739410421
 30
0.0
 11
256.12712983537301
 21
-1398.860373941041
 31
0.0
  0
ARC
  5
2031F
  8
01
 10
256.62712983537301
 20
-1398.860373941041
 30
0.0
 40
0.5
 50
90.0
 51
180.0
  0
LINE
  5
20320
  8
01
 10
256.62712983537301
 20
-1398.360373941041
 30
0.0
 11
259.62712983537301
 21
-1398.360373941041
 31
0.0
  0
LINE
  5
20321
  8
01
 10
260.12712983537301
 20
-1398.860373941041
 30
0.0
 11
260.12712983537301
 21
-1399.8603739410421
 31
0.0
  0
ARC
  5
20322
  8
01
 10
256.62712983537301
 20
-1398.860373941041
 30
0.0
 40
0.5
 50
90.0
 51
180.0
  0
LINE
  5
20323
  8
01
 10
259.62712983537301
 20
-1398.360373941041
 30
0.0
 11
256.62712983537301
 21
-1398.360373941041
 31
0.0
  0
LINE
  5
20324
  8
01
 10
256.12712983537301
 20
-1398.860373941041
 30
0.0
 11
256.12712983537301
 21
-1399.8603739410421
 31
0.0
  0
ARC
  5
20325
  8
01
 10
259.62712983537301
 20
-1398.860373941041
 30
0.0
 40
0.5000000000000004
 50
0.0
 51
90.0
  0
LINE
  5
20327
  8
01
 10
260.12712983537301
 20
-1399.8603739410421
 30
0.0
 11
260.12712983537301
 21
-1398.860373941041
 31
0.0
  0
LINE
  5
2032B
  8
1DIM
 10
256.12712983537301
 20
-1399.8603739410421
 30
0.0
 11
260.12712983537301
 21
-1399.8603739410421
 31
0.0
  0
LINE
  5
2032C
  8
1DIM
 10
260.12712983537301
 20
-1399.8603739410421
 30
0.0
 11
256.12712983537301
 21
-1399.8603739410421
 31
0.0
  0
LINE
  5
2032D
  8
1DIM
 10
256.12712983537301
 20
-1399.8603739410421
 30
0.0
 11
260.12712983537301
 21
-1399.8603739410421
 31
0.0
  0
LINE
  5
20330
  8
01
 10
255.12712983537301
 20
-1400.3603721410409
 30
0.0
 11
255.12712983537301
 21
-1407.860371841042
 31
0.0
  0
LINE
  5
20331
  8
01
 10
255.12712983537301
 20
-1407.860371841042
 30
0.0
 11
255.12712983537301
 21
-1400.360372141042
 31
0.0
  0
LINE
  5
2033F
  8
01
  6
CONTINUOUS
 10
180.5528453901974
 20
-1284.6419216421691
 30
0.0
 11
185.0528453901974
 21
-1284.6419216421691
 31
0.0
  0
LINE
  5
20341
  8
01
  6
CONTINUOUS
 10
186.35284539019759
 20
-1284.6419216421691
 30
0.0
 11
185.0528453901974
 21
-1284.6419216421691
 31
0.0
  0
LINE
  5
20349
  8
1CENTER
 10
182.8028453901984
 20
-1286.3762606627481
 30
0.0
 11
182.8028453901984
 21
-1280.385822290021
 31
0.0
  0
LINE
  5
20350
  8
01
 10
171.2314025635192
 20
-1281.6419216421509
 30
0.0
 11
194.3741951450798
 21
-1281.6419216421691
 31
0.0
  0
LINE
  5
20353
  8
01
 10
288.62712983537301
 20
-1350.140997055986
 30
0.0
 11
288.62712983537301
 21
-1430.1409970559851
 31
0.0
  0
LINE
  5
20354
  8
01
 10
297.62712983537313
 20
-1350.140997055986
 30
0.0
 11
297.62712983537301
 21
-1430.1409970559851
 31
0.0
  0
LINE
  5
20355
  8
01
 10
276.12712983537301
 20
-1350.140997055986
 30
0.0
 11
276.12712983537301
 21
-1430.1409970559851
 31
0.0
  0
TEXT
  5
204F9
  8
1TEXT
 10
241.12712983537401
 20
-1276.6419216421659
 30
0.0
 40
8.0
  1
SC-585-X
  0
LINE
  5
204FA
  8
1DIM
 10
241.12712983537401
 20
-1288.6419216421659
 30
0.0
 11
311.12712983537398
 21
-1288.6419216421659
 31
0.0
  0
TEXT
  5
204FB
  8
1TEXT
 10
250.3671298353741
 20
-1287.1419216421659
 30
0.0
 40
4.0
  1
表面処理
 41
0.9
 72
     1
 11
258.52712983537413
 21
-1287.1419216421659
 31
0.0
  0
LINE
  5
204FC
  8
1DIM
 10
241.12712983537401
 20
-1281.641921642165
 30
0.0
 11
311.12712983537398
 21
-1281.641921642165
 31
0.0
  0
TEXT
  5
204FD
  8
1TEXT
 10
286.72712983537411
 20
-1287.1419216421641
 30
0.0
 40
4.0
  1
コード
 72
     1
 11
293.52712983537413
 21
-1287.1419216421641
 31
0.0
  0
TEXT
  5
204FF
  8
1TEXT
 10
254.26046316870779
 20
-1294.11981666215
 30
0.0
 40
4.0
  1
鏡面
 72
     1
 11
258.52712983537452
 21
-1294.11981666215
 31
0.0
  0
LINE
  5
20500
  8
1DIM
 10
276.12712983537398
 20
-1281.641921642165
 30
0.0
 11
276.1271298353733
 21
-1302.6419216421659
 31
0.0
  0
LINE
  5
20501
  8
1DIM
 10
311.12712983537398
 20
-1281.641921642165
 30
0.0
 11
311.12712983537398
 21
-1302.6419216421659
 31
0.0
  0
LINE
  5
20502
  8
1DIM
 10
241.12712983537401
 20
-1281.641921642165
 30
0.0
 11
241.12712983537401
 21
-1302.6419216421659
 31
0.0
  0
TEXT
  5
20503
  8
1TEXT
 10
279.66046316870842
 20
-1294.356278625814
 30
0.0
 40
4.0
  1
SC-585-XP
 41
0.8
 72
     1
 11
293.52712983537498
 21
-1294.356278625814
 31
0.0
  0
LINE
  5
20504
  8
1DIM
 10
241.12712983537261
 20
-1295.6419216421659
 30
0.0
 11
311.12712983537398
 21
-1295.6419216421671
 31
0.0
  0
LINE
  5
20506
  8
1DIM
 10
241.12712983537261
 20
-1302.6419216421659
 30
0.0
 11
311.12712983537398
 21
-1302.6419216421659
 31
0.0
  0
TEXT
  5
20507
  8
1TEXT
 10
247.0604631687078
 20
-1301.11981666215
 30
0.0
 40
4.0
  1
ヘアライン
 72
     1
 11
258.52712983537452
 21
-1301.11981666215
 31
0.0
  0
TEXT
  5
20508
  8
1TEXT
 10
279.66046316870842
 20
-1301.356278625814
 30
0.0
 40
4.0
  1
SC-585-XT
 41
0.8
 72
     1
 11
293.52712983537498
 21
-1301.356278625814
 31
0.0
  0
LINE
  5
20579
  8
1CENTER
 10
225.7209378587134
 20
-1379.8069632129921
 30
0.0
 11
219.7209378587134
 21
-1379.8069632129921
 31
0.0
  0
LINE
  5
2057A
  8
1CENTER
 10
222.72093785871331
 20
-1382.8069632129921
 30
0.0
 11
222.72093785871331
 21
-1376.8069632129921
 31
0.0
  0
LINE
  5
20583
  8
1CENTER
 10
185.80279885430119
 20
-1386.391779483866
 30
0.0
 11
179.80279885430119
 21
-1386.391779483866
 31
0.0
  0
LINE
  5
20584
  8
1CENTER
 10
182.80279885430119
 20
-1389.3917794838669
 30
0.0
 11
182.80279885430119
 21
-1383.3917794838669
 31
0.0
  0
LINE
  5
20585
  8
1CENTER
 10
185.80279885430119
 20
-1404.8917794838669
 30
0.0
 11
179.8027988543013
 21
-1404.8917794838669
 31
0.0
  0
LINE
  5
20586
  8
1CENTER
 10
182.8027988543013
 20
-1407.8917794838669
 30
0.0
 11
182.8027988543013
 21
-1401.8917794838669
 31
0.0
  0
CIRCLE
  5
20587
  8
1PHANTOM
 10
182.80279885430119
 20
-1386.391779483866
 30
0.0
 40
2.25
  0
CIRCLE
  5
20588
  8
1PHANTOM
 10
182.80279885430119
 20
-1404.8917794838669
 30
0.0
 40
2.25
  0
LINE
  5
2059A
  8
1CENTER
 10
182.80944157047711
 20
-1414.6419341709941
 30
0.0
 11
182.80944157047711
 21
-1357.579349330493
 31
0.0
  0
LINE
  5
2059B
  8
1CENTER
 10
182.8061202123892
 20
-1323.4457736909851
 30
0.0
 11
182.80279885430119
 21
-1289.3121980514779
 31
0.0
  0
LINE
  5
205CA
  8
1CENTER
 10
307.13174622204241
 20
-1404.8917794838669
 30
0.0
 11
268.46163423962741
 21
-1404.8917794838669
 31
0.0
  0
LINE
  5
205CB
  8
1PHANTOM
 10
305.03191319509602
 20
-1403.7974556698721
 30
0.0
 11
305.83190862914699
 21
-1405.7597907587481
 31
0.0
  0
LINE
  5
205CC
  8
1PHANTOM
 10
305.83190862914699
 20
-1405.7597907587481
 30
0.0
 11
306.14367848539911
 21
-1405.1715141837051
 31
0.0
  0
LINE
  5
205CD
  8
1PHANTOM
 10
277.63191530230603
 20
-1402.8918260197649
 30
0.0
 11
278.43190599512428
 21
-1406.8918260197661
 31
0.0
  0
LINE
  5
205CE
  8
1PHANTOM
 10
288.83191530231039
 20
-1402.8918260197649
 30
0.0
 11
289.63190599513302
 21
-1406.8918260197661
 31
0.0
  0
LINE
  5
205CF
  8
1PHANTOM
 10
297.03191530231038
 20
-1402.8918260197649
 30
0.0
 11
297.83190599513301
 21
-1406.8918260197661
 31
0.0
  0
LINE
  5
205D0
  8
1PHANTOM
 10
297.83190599513301
 20
-1406.8918260197661
 30
0.0
 11
297.93190715853018
 21
-1406.3918260197649
 31
0.0
  0
LINE
  5
205D1
  8
1PHANTOM
 10
298.53191413891318
 20
-1403.3918260197649
 30
0.0
 11
298.63191530231052
 21
-1402.8918260197649
 31
0.0
  0
LINE
  5
205D2
  8
1PHANTOM
 10
289.63190599513302
 20
-1406.8918260197661
 30
0.0
 11
289.73190715853019
 21
-1406.3918260197649
 31
0.0
  0
LINE
  5
205D3
  8
1PHANTOM
 10
296.2319059951331
 20
-1406.8918260197661
 30
0.0
 11
296.33190715853021
 21
-1406.3918260197649
 31
0.0
  0
LINE
  5
205D4
  8
1PHANTOM
 10
296.93191413891333
 20
-1403.3918260197649
 30
0.0
 11
297.03191530231038
 21
-1402.8918260197649
 31
0.0
  0
LINE
  5
205D5
  8
1PHANTOM
 10
295.33191413891342
 20
-1403.3918260197649
 30
0.0
 11
295.43191530231047
 21
-1402.8918260197649
 31
0.0
  0
LINE
  5
205D6
  8
1PHANTOM
 10
295.43191530231047
 20
-1402.8918260197649
 30
0.0
 11
296.2319059951331
 21
-1406.8918260197661
 31
0.0
  0
LINE
  5
205D7
  8
1PHANTOM
 10
304.2319075755413
 20
-1406.2126048631551
 30
0.0
 11
304.41467171816942
 21
-1405.660855399351
 31
0.0
  0
LINE
  5
205D8
  8
1PHANTOM
 10
301.031905995133
 20
-1406.8918260197661
 30
0.0
 11
301.13190715853011
 21
-1406.3918260197649
 31
0.0
  0
LINE
  5
205D9
  8
1PHANTOM
 10
299.43190599513298
 20
-1406.8918260197661
 30
0.0
 11
299.53190715852998
 21
-1406.3918260197649
 31
0.0
  0
LINE
  5
205DA
  8
1PHANTOM
 10
302.63190652193572
 20
-1406.6654189675619
 30
0.0
 11
302.76117721956558
 21
-1406.12882523229
 31
0.0
  0
LINE
  5
205DB
  8
1PHANTOM
 10
303.31914473635021
 20
-1403.812740616974
 30
0.0
 11
303.43191424870031
 21
-1403.3446421618239
 31
0.0
  0
LINE
  5
205DC
  8
1PHANTOM
 10
300.13191413891337
 20
-1403.3918260197649
 30
0.0
 11
300.23191530231048
 21
-1402.8918260197649
 31
0.0
  0
LINE
  5
205DD
  8
1PHANTOM
 10
301.73191413891328
 20
-1403.3918260197649
 30
0.0
 11
301.83191530231039
 21
-1402.8918260197649
 31
0.0
  0
LINE
  5
205DE
  8
1PHANTOM
 10
304.88047739865561
 20
-1404.254627510504
 30
0.0
 11
305.03191319509602
 21
-1403.7974556698721
 31
0.0
  0
LINE
  5
205DF
  8
1PHANTOM
 10
303.43191424870031
 20
-1403.3446421618239
 30
0.0
 11
304.2319075755413
 21
-1406.2126048631551
 31
0.0
  0
LINE
  5
205E0
  8
1PHANTOM
 10
300.23191530231048
 20
-1402.8918260197649
 30
0.0
 11
301.031905995133
 21
-1406.8918260197661
 31
0.0
  0
LINE
  5
205E1
  8
1PHANTOM
 10
301.83191530231039
 20
-1402.8918260197649
 30
0.0
 11
302.63190652193572
 21
-1406.6654189675619
 31
0.0
  0
LINE
  5
205E2
  8
1PHANTOM
 10
298.63191530231052
 20
-1402.8918260197649
 30
0.0
 11
299.43190599513298
 21
-1406.8918260197661
 31
0.0
  0
LINE
  5
205E3
  8
1PHANTOM
 10
280.83191530230607
 20
-1402.8918260197649
 30
0.0
 11
281.63190599512433
 21
-1406.8918260197661
 31
0.0
  0
LINE
  5
205E4
  8
1PHANTOM
 10
281.63190599512433
 20
-1406.8918260197661
 30
0.0
 11
281.73190715852201
 21
-1406.3918260197649
 31
0.0
  0
LINE
  5
205E5
  8
1PHANTOM
 10
282.33191413891268
 20
-1403.3918260197649
 30
0.0
 11
282.43191530231041
 21
-1402.8918260197649
 31
0.0
  0
LINE
  5
205E6
  8
1PHANTOM
 10
280.03190599512419
 20
-1406.8918260197661
 30
0.0
 11
280.13190715852181
 21
-1406.3918260197649
 31
0.0
  0
LINE
  5
205E7
  8
1PHANTOM
 10
278.43190599512428
 20
-1406.8918260197661
 30
0.0
 11
278.53190715852202
 21
-1406.3918260197649
 31
0.0
  0
LINE
  5
205E8
  8
1PHANTOM
 10
280.73191413890839
 20
-1403.3918260197649
 30
0.0
 11
280.83191530230607
 21
-1402.8918260197649
 31
0.0
  0
LINE
  5
205E9
  8
1PHANTOM
 10
279.13191413890831
 20
-1403.3918260197649
 30
0.0
 11
279.23191530230588
 21
-1402.8918260197649
 31
0.0
  0
LINE
  5
205EA
  8
1PHANTOM
 10
279.23191530230588
 20
-1402.8918260197649
 30
0.0
 11
280.03190599512419
 21
-1406.8918260197661
 31
0.0
  0
LINE
  5
205EB
  8
1PHANTOM
 10
286.43190599512872
 20
-1406.8918260197661
 30
0.0
 11
286.53190715852639
 21
-1406.3918260197649
 31
0.0
  0
LINE
  5
205EC
  8
1PHANTOM
 10
288.03190599513312
 20
-1406.8918260197661
 30
0.0
 11
288.13190715853023
 21
-1406.3918260197649
 31
0.0
  0
LINE
  5
205ED
  8
1PHANTOM
 10
283.23190599512861
 20
-1406.8918260197661
 30
0.0
 11
283.33190715852629
 21
-1406.3918260197649
 31
0.0
  0
LINE
  5
205EE
  8
1PHANTOM
 10
284.83190599512858
 20
-1406.8918260197661
 30
0.0
 11
284.93190715852631
 21
-1406.3918260197649
 31
0.0
  0
LINE
  5
205EF
  8
1PHANTOM
 10
288.73191413891328
 20
-1403.3918260197649
 30
0.0
 11
288.83191530231039
 21
-1402.8918260197649
 31
0.0
  0
LINE
  5
205F0
  8
1PHANTOM
 10
287.13191413891269
 20
-1403.3918260197649
 30
0.0
 11
287.23191530231048
 21
-1402.8918260197649
 31
0.0
  0
LINE
  5
205F1
  8
1PHANTOM
 10
283.93191413891259
 20
-1403.3918260197649
 30
0.0
 11
284.03191530231032
 21
-1402.8918260197649
 31
0.0
  0
LINE
  5
205F2
  8
1PHANTOM
 10
285.53191413891278
 20
-1403.3918260197649
 30
0.0
 11
285.6319153023104
 21
-1402.8918260197649
 31
0.0
  0
LINE
  5
205F3
  8
1PHANTOM
 10
285.6319153023104
 20
-1402.8918260197649
 30
0.0
 11
286.43190599512872
 21
-1406.8918260197661
 31
0.0
  0
LINE
  5
205F4
  8
1PHANTOM
 10
287.23191530231048
 20
-1402.8918260197649
 30
0.0
 11
288.03190599513312
 21
-1406.8918260197661
 31
0.0
  0
LINE
  5
205F5
  8
1PHANTOM
 10
284.03191530231032
 20
-1402.8918260197649
 30
0.0
 11
284.83190599512858
 21
-1406.8918260197661
 31
0.0
  0
LINE
  5
205F6
  8
1PHANTOM
 10
282.43191530231041
 20
-1402.8918260197649
 30
0.0
 11
283.23190599512861
 21
-1406.8918260197661
 31
0.0
  0
LINE
  5
205F7
  8
1PHANTOM
 10
272.13190715863561
 20
-1406.3918260197649
 30
0.0
 11
272.1319141390203
 21
-1403.3918260197649
 31
0.0
  0
LINE
  5
205F8
  8
1PHANTOM
 10
272.73191413890419
 20
-1403.3918260197649
 30
0.0
 11
272.83191530230192
 21
-1402.8918260197649
 31
0.0
  0
LINE
  5
205F9
  8
1PHANTOM
 10
272.83191530230192
 20
-1402.8918260197649
 30
0.0
 11
273.63190599512012
 21
-1406.8918260197661
 31
0.0
  0
LINE
  5
205FA
  8
1PHANTOM
 10
273.63190599512012
 20
-1406.8918260197661
 30
0.0
 11
273.7319071585178
 21
-1406.3918260197649
 31
0.0
  0
LINE
  5
205FB
  8
1PHANTOM
 10
274.3319141389041
 20
-1403.3918260197649
 30
0.0
 11
274.43191530230177
 21
-1402.8918260197649
 31
0.0
  0
LINE
  5
205FC
  8
1PHANTOM
 10
275.93191413890401
 20
-1403.3918260197649
 30
0.0
 11
276.03191530230168
 21
-1402.8918260197649
 31
0.0
  0
LINE
  5
205FD
  8
1PHANTOM
 10
276.03191530230168
 20
-1402.8918260197649
 30
0.0
 11
276.83190599511988
 21
-1406.8918260197661
 31
0.0
  0
LINE
  5
205FE
  8
1PHANTOM
 10
275.23190599511997
 20
-1406.8918260197661
 30
0.0
 11
275.33190715851771
 21
-1406.3918260197649
 31
0.0
  0
LINE
  5
205FF
  8
1PHANTOM
 10
276.83190599511988
 20
-1406.8918260197661
 30
0.0
 11
276.93190715851762
 21
-1406.3918260197649
 31
0.0
  0
LINE
  5
20600
  8
1PHANTOM
 10
274.43191530230177
 20
-1402.8918260197649
 30
0.0
 11
275.23190599511997
 21
-1406.8918260197661
 31
0.0
  0
LINE
  5
20601
  8
1PHANTOM
 10
277.53191413890841
 20
-1403.3918260197649
 30
0.0
 11
277.63191530230603
 21
-1402.8918260197649
 31
0.0
  0
LINE
  5
20603
  8
1CENTER
 10
307.13174622211562
 20
-1386.391779483866
 30
0.0
 11
268.46163423970057
 21
-1386.391779483866
 31
0.0
  0
LINE
  5
20604
  8
1PHANTOM
 10
305.03191319516918
 20
-1385.2974556698721
 30
0.0
 11
305.83190862922021
 21
-1387.2597907587469
 31
0.0
  0
LINE
  5
20605
  8
1PHANTOM
 10
305.83190862922021
 20
-1387.2597907587469
 30
0.0
 11
306.14367848547232
 21
-1386.6715141837039
 31
0.0
  0
LINE
  5
20606
  8
1PHANTOM
 10
277.63191530237918
 20
-1384.391826019764
 30
0.0
 11
278.4319059951975
 21
-1388.3918260197649
 31
0.0
  0
LINE
  5
20607
  8
1PHANTOM
 10
288.83191530238361
 20
-1384.391826019764
 30
0.0
 11
289.63190599520618
 21
-1388.3918260197649
 31
0.0
  0
LINE
  5
20608
  8
1PHANTOM
 10
297.03191530238371
 20
-1384.391826019764
 30
0.0
 11
297.83190599520623
 21
-1388.3918260197649
 31
0.0
  0
LINE
  5
20609
  8
1PHANTOM
 10
297.83190599520623
 20
-1388.3918260197649
 30
0.0
 11
297.93190715860351
 21
-1387.8918260197649
 31
0.0
  0
LINE
  5
2060A
  8
1PHANTOM
 10
298.53191413898651
 20
-1384.8918260197649
 30
0.0
 11
298.63191530238367
 21
-1384.391826019764
 31
0.0
  0
LINE
  5
2060B
  8
1PHANTOM
 10
289.63190599520618
 20
-1388.3918260197649
 30
0.0
 11
289.73190715860341
 21
-1387.8918260197649
 31
0.0
  0
LINE
  5
2060C
  8
1PHANTOM
 10
296.23190599520632
 20
-1388.3918260197649
 30
0.0
 11
296.33190715860343
 21
-1387.8918260197649
 31
0.0
  0
LINE
  5
2060D
  8
1PHANTOM
 10
296.93191413898649
 20
-1384.8918260197649
 30
0.0
 11
297.03191530238371
 21
-1384.391826019764
 31
0.0
  0
LINE
  5
2060E
  8
1PHANTOM
 10
295.33191413898669
 20
-1384.8918260197649
 30
0.0
 11
295.43191530238369
 21
-1384.391826019764
 31
0.0
  0
LINE
  5
2060F
  8
1PHANTOM
 10
295.43191530238369
 20
-1384.391826019764
 30
0.0
 11
296.23190599520632
 21
-1388.3918260197649
 31
0.0
  0
LINE
  5
20610
  8
1PHANTOM
 10
304.23190757561463
 20
-1387.712604863154
 30
0.0
 11
304.41467171824257
 21
-1387.1608553993501
 31
0.0
  0
LINE
  5
20611
  8
1PHANTOM
 10
301.03190599520627
 20
-1388.3918260197649
 30
0.0
 11
301.13190715860338
 21
-1387.8918260197649
 31
0.0
  0
LINE
  5
20612
  8
1PHANTOM
 10
299.43190599520619
 20
-1388.3918260197649
 30
0.0
 11
299.5319071586033
 21
-1387.8918260197649
 31
0.0
  0
LINE
  5
20613
  8
1PHANTOM
 10
302.63190652200888
 20
-1388.165418967561
 30
0.0
 11
302.7611772196388
 21
-1387.628825232289
 31
0.0
  0
LINE
  5
20614
  8
1PHANTOM
 10
303.31914473642343
 20
-1385.3127406169731
 30
0.0
 11
303.43191424877352
 21
-1384.844642161823
 31
0.0
  0
LINE
  5
20615
  8
1PHANTOM
 10
300.13191413898659
 20
-1384.8918260197649
 30
0.0
 11
300.2319153023837
 21
-1384.391826019764
 31
0.0
  0
LINE
  5
20616
  8
1PHANTOM
 10
301.7319141389865
 20
-1384.8918260197649
 30
0.0
 11
301.83191530238361
 21
-1384.391826019764
 31
0.0
  0
LINE
  5
20617
  8
1PHANTOM
 10
304.88047739872877
 20
-1385.754627510503
 30
0.0
 11
305.03191319516918
 21
-1385.2974556698721
 31
0.0
  0
LINE
  5
20618
  8
1PHANTOM
 10
303.43191424877352
 20
-1384.844642161823
 30
0.0
 11
304.23190757561463
 21
-1387.712604863154
 31
0.0
  0
LINE
  5
20619
  8
1PHANTOM
 10
300.2319153023837
 20
-1384.391826019764
 30
0.0
 11
301.03190599520627
 21
-1388.3918260197649
 31
0.0
  0
LINE
  5
2061A
  8
1PHANTOM
 10
301.83191530238361
 20
-1384.391826019764
 30
0.0
 11
302.63190652200888
 21
-1388.165418967561
 31
0.0
  0
LINE
  5
2061B
  8
1PHANTOM
 10
298.63191530238367
 20
-1384.391826019764
 30
0.0
 11
299.43190599520619
 21
-1388.3918260197649
 31
0.0
  0
LINE
  5
2061C
  8
1PHANTOM
 10
280.83191530237929
 20
-1384.391826019764
 30
0.0
 11
281.63190599519749
 21
-1388.3918260197649
 31
0.0
  0
LINE
  5
2061D
  8
1PHANTOM
 10
281.63190599519749
 20
-1388.3918260197649
 30
0.0
 11
281.73190715859522
 21
-1387.8918260197649
 31
0.0
  0
LINE
  5
2061E
  8
1PHANTOM
 10
282.33191413898589
 20
-1384.8918260197649
 30
0.0
 11
282.43191530238357
 21
-1384.391826019764
 31
0.0
  0
LINE
  5
2061F
  8
1PHANTOM
 10
280.03190599519741
 20
-1388.3918260197649
 30
0.0
 11
280.13190715859508
 21
-1387.8918260197649
 31
0.0
  0
LINE
  5
20620
  8
1PHANTOM
 10
278.4319059951975
 20
-1388.3918260197649
 30
0.0
 11
278.53190715859517
 21
-1387.8918260197649
 31
0.0
  0
LINE
  5
20621
  8
1PHANTOM
 10
280.73191413898161
 20
-1384.8918260197649
 30
0.0
 11
280.83191530237929
 21
-1384.391826019764
 31
0.0
  0
LINE
  5
20622
  8
1PHANTOM
 10
279.13191413898147
 20
-1384.8918260197649
 30
0.0
 11
279.23191530237909
 21
-1384.391826019764
 31
0.0
  0
LINE
  5
20623
  8
1PHANTOM
 10
279.23191530237909
 20
-1384.391826019764
 30
0.0
 11
280.03190599519741
 21
-1388.3918260197649
 31
0.0
  0
LINE
  5
20624
  8
1PHANTOM
 10
286.43190599520187
 20
-1388.3918260197649
 30
0.0
 11
286.53190715859961
 21
-1387.8918260197649
 31
0.0
  0
LINE
  5
20625
  8
1PHANTOM
 10
288.03190599520627
 20
-1388.3918260197649
 30
0.0
 11
288.13190715860338
 21
-1387.8918260197649
 31
0.0
  0
LINE
  5
20626
  8
1PHANTOM
 10
283.23190599520188
 20
-1388.3918260197649
 30
0.0
 11
283.33190715859962
 21
-1387.8918260197649
 31
0.0
  0
LINE
  5
20627
  8
1PHANTOM
 10
284.83190599520179
 20
-1388.3918260197649
 30
0.0
 11
284.93190715859947
 21
-1387.8918260197649
 31
0.0
  0
LINE
  5
20628
  8
1PHANTOM
 10
288.7319141389865
 20
-1384.8918260197649
 30
0.0
 11
288.83191530238361
 21
-1384.391826019764
 31
0.0
  0
LINE
  5
20629
  8
1PHANTOM
 10
287.13191413898591
 20
-1384.8918260197649
 30
0.0
 11
287.2319153023837
 21
-1384.391826019764
 31
0.0
  0
LINE
  5
2062A
  8
1PHANTOM
 10
283.93191413898592
 20
-1384.8918260197649
 30
0.0
 11
284.03191530238348
 21
-1384.391826019764
 31
0.0
  0
LINE
  5
2062B
  8
1PHANTOM
 10
285.531914138986
 20
-1384.8918260197649
 30
0.0
 11
285.63191530238367
 21
-1384.391826019764
 31
0.0
  0
LINE
  5
2062C
  8
1PHANTOM
 10
285.63191530238367
 20
-1384.391826019764
 30
0.0
 11
286.43190599520187
 21
-1388.3918260197649
 31
0.0
  0
LINE
  5
2062D
  8
1PHANTOM
 10
287.2319153023837
 20
-1384.391826019764
 30
0.0
 11
288.03190599520627
 21
-1388.3918260197649
 31
0.0
  0
LINE
  5
2062E
  8
1PHANTOM
 10
284.03191530238348
 20
-1384.391826019764
 30
0.0
 11
284.83190599520179
 21
-1388.3918260197649
 31
0.0
  0
LINE
  5
2062F
  8
1PHANTOM
 10
282.43191530238357
 20
-1384.391826019764
 30
0.0
 11
283.23190599520188
 21
-1388.3918260197649
 31
0.0
  0
LINE
  5
20630
  8
1PHANTOM
 10
272.13190715870883
 20
-1387.8918260197649
 30
0.0
 11
272.13191413909351
 21
-1384.8918260197649
 31
0.0
  0
LINE
  5
20631
  8
1PHANTOM
 10
272.7319141389774
 20
-1384.8918260197649
 30
0.0
 11
272.83191530237508
 21
-1384.391826019764
 31
0.0
  0
LINE
  5
20632
  8
1PHANTOM
 10
272.83191530237508
 20
-1384.391826019764
 30
0.0
 11
273.63190599519339
 21
-1388.3918260197649
 31
0.0
  0
LINE
  5
20633
  8
1PHANTOM
 10
273.63190599519339
 20
-1388.3918260197649
 30
0.0
 11
273.73190715859101
 21
-1387.8918260197649
 31
0.0
  0
LINE
  5
20634
  8
1PHANTOM
 10
274.33191413897731
 20
-1384.8918260197649
 30
0.0
 11
274.43191530237499
 21
-1384.391826019764
 31
0.0
  0
LINE
  5
20635
  8
1PHANTOM
 10
275.93191413897722
 20
-1384.8918260197649
 30
0.0
 11
276.0319153023749
 21
-1384.391826019764
 31
0.0
  0
LINE
  5
20636
  8
1PHANTOM
 10
276.0319153023749
 20
-1384.391826019764
 30
0.0
 11
276.8319059951931
 21
-1388.3918260197649
 31
0.0
  0
LINE
  5
20637
  8
1PHANTOM
 10
275.2319059951933
 20
-1388.3918260197649
 30
0.0
 11
275.33190715859092
 21
-1387.8918260197649
 31
0.0
  0
LINE
  5
20638
  8
1PHANTOM
 10
276.8319059951931
 20
-1388.3918260197649
 30
0.0
 11
276.93190715859077
 21
-1387.8918260197649
 31
0.0
  0
LINE
  5
20639
  8
1PHANTOM
 10
274.43191530237499
 20
-1384.391826019764
 30
0.0
 11
275.2319059951933
 21
-1388.3918260197649
 31
0.0
  0
LINE
  5
2063A
  8
1PHANTOM
 10
277.53191413898151
 20
-1384.8918260197649
 30
0.0
 11
277.63191530237918
 21
-1384.391826019764
 31
0.0
  0
LINE
  5
20644
  8
1PHANTOM
 10
307.13191064877378
 20
-1404.8918260197649
 30
0.0
 11
301.83191413891223
 21
-1403.3918260197649
 31
0.0
  0
LINE
  5
20645
  8
1PHANTOM
 10
301.83191413891223
 20
-1403.3918260197649
 30
0.0
 11
272.1319141390203
 21
-1403.3918260197649
 31
0.0
  0
LINE
  5
20646
  8
1PHANTOM
 10
307.13191064877378
 20
-1404.8918260197649
 30
0.0
 11
301.83190715852862
 21
-1406.3918260197649
 31
0.0
  0
LINE
  5
20647
  8
1PHANTOM
 10
272.13191879271841
 20
-1401.3917794838669
 30
0.0
 11
272.1319141390203
 21
-1403.3918260197649
 31
0.0
  0
LINE
  5
20648
  8
1PHANTOM
 10
301.83190715852862
 20
-1406.3918260197649
 30
0.0
 11
272.13190715863561
 21
-1406.3918260197649
 31
0.0
  0
LINE
  5
20649
  8
1PHANTOM
 10
272.13191879271841
 20
-1401.3917794838669
 30
0.0
 11
271.03191530252309
 21
-1401.3917794838669
 31
0.0
  0
LINE
  5
2064A
  8
1PHANTOM
 10
272.13190715863561
 20
-1406.3918260197649
 30
0.0
 11
272.13190250515407
 21
-1408.3917794838669
 31
0.0
  0
ARC
  5
2064B
  8
1PHANTOM
 10
271.03191530252309
 20
-1402.891779483868
 30
0.0
 40
1.5
 50
90.0
 51
179.9998666844663
  0
LINE
  5
2064C
  8
1PHANTOM
 10
272.13190250515407
 20
-1408.3917794838669
 30
0.0
 11
271.03190599534349
 21
-1408.3917794838669
 31
0.0
  0
LINE
  5
2064D
  8
1PHANTOM
 10
269.53191530252712
 20
-1402.8917759936751
 30
0.0
 11
269.53190599534747
 21
-1406.8917759936751
 31
0.0
  0
ARC
  5
2064E
  8
1PHANTOM
 10
271.03190599534349
 20
-1406.8917794838669
 30
0.0
 40
1.5
 50
179.9998666844663
 51
270.0
  0
LINE
  5
2064F
  8
1PHANTOM
 10
307.131910648847
 20
-1386.3918260197649
 30
0.0
 11
301.83191413898538
 21
-1384.8918260197649
 31
0.0
  0
LINE
  5
20650
  8
1PHANTOM
 10
301.83191413898538
 20
-1384.8918260197649
 30
0.0
 11
272.13191413909351
 21
-1384.8918260197649
 31
0.0
  0
LINE
  5
20651
  8
1PHANTOM
 10
307.131910648847
 20
-1386.3918260197649
 30
0.0
 11
301.83190715860178
 21
-1387.8918260197649
 31
0.0
  0
LINE
  5
20652
  8
1PHANTOM
 10
272.13191879279162
 20
-1382.891779483866
 30
0.0
 11
272.13191413909351
 21
-1384.8918260197649
 31
0.0
  0
LINE
  5
20653
  8
1PHANTOM
 10
301.83190715860178
 20
-1387.8918260197649
 30
0.0
 11
272.13190715870883
 21
-1387.8918260197649
 31
0.0
  0
LINE
  5
20654
  8
1PHANTOM
 10
272.13191879279162
 20
-1382.891779483866
 30
0.0
 11
271.0319153025963
 21
-1382.891779483866
 31
0.0
  0
LINE
  5
20655
  8
1PHANTOM
 10
272.13190715870883
 20
-1387.8918260197649
 30
0.0
 11
272.13190250522729
 21
-1389.8917794838669
 31
0.0
  0
ARC
  5
20656
  8
1PHANTOM
 10
271.0319153025963
 20
-1384.391779483866
 30
0.0
 40
1.5
 50
90.0
 51
179.9998666844663
  0
LINE
  5
20657
  8
1PHANTOM
 10
272.13190250522729
 20
-1389.8917794838669
 30
0.0
 11
271.03190599541671
 21
-1389.8917794838669
 31
0.0
  0
LINE
  5
20658
  8
1PHANTOM
 10
269.53191530260028
 20
-1384.3917759936739
 30
0.0
 11
269.53190599542069
 21
-1388.3917759936739
 31
0.0
  0
ARC
  5
20659
  8
1PHANTOM
 10
271.03190599541671
 20
-1388.391779483866
 30
0.0
 40
1.5
 50
179.9998666844663
 51
270.0
  0
LINE
  5
20661
  8
1PHANTOM
 10
290.43191530238352
 20
-1384.391826019764
 30
0.0
 11
291.23190599520609
 21
-1388.3918260197649
 31
0.0
  0
LINE
  5
20662
  8
1PHANTOM
 10
291.23190599520609
 20
-1388.3918260197649
 30
0.0
 11
291.33190715860331
 21
-1387.8918260197649
 31
0.0
  0
LINE
  5
20663
  8
1PHANTOM
 10
290.33191413898641
 20
-1384.8918260197649
 30
0.0
 11
290.43191530238352
 21
-1384.391826019764
 31
0.0
  0
LINE
  5
20664
  8
1PHANTOM
 10
292.03191530238342
 20
-1384.391826019764
 30
0.0
 11
292.831905995206
 21
-1388.3918260197649
 31
0.0
  0
LINE
  5
20665
  8
1PHANTOM
 10
292.831905995206
 20
-1388.3918260197649
 30
0.0
 11
292.93190715860322
 21
-1387.8918260197649
 31
0.0
  0
LINE
  5
20666
  8
1PHANTOM
 10
291.93191413898631
 20
-1384.8918260197649
 30
0.0
 11
292.03191530238342
 21
-1384.391826019764
 31
0.0
  0
LINE
  5
20667
  8
1PHANTOM
 10
293.63191530238328
 20
-1384.391826019764
 30
0.0
 11
294.43190599520591
 21
-1388.3918260197649
 31
0.0
  0
LINE
  5
20668
  8
1PHANTOM
 10
294.43190599520591
 20
-1388.3918260197649
 30
0.0
 11
294.53190715860308
 21
-1387.8918260197649
 31
0.0
  0
LINE
  5
20669
  8
1PHANTOM
 10
293.53191413898622
 20
-1384.8918260197649
 30
0.0
 11
293.63191530238328
 21
-1384.391826019764
 31
0.0
  0
LINE
  5
2066A
  8
1PHANTOM
 10
290.4319153023103
 20
-1402.8918260197649
 30
0.0
 11
291.23190599513288
 21
-1406.8918260197661
 31
0.0
  0
LINE
  5
2066B
  8
1PHANTOM
 10
291.23190599513288
 20
-1406.8918260197661
 30
0.0
 11
291.3319071585301
 21
-1406.3918260197649
 31
0.0
  0
LINE
  5
2066C
  8
1PHANTOM
 10
290.33191413891319
 20
-1403.3918260197649
 30
0.0
 11
290.4319153023103
 21
-1402.8918260197649
 31
0.0
  0
LINE
  5
2066D
  8
1PHANTOM
 10
292.03191530231021
 20
-1402.8918260197649
 30
0.0
 11
292.83190599513279
 21
-1406.8918260197661
 31
0.0
  0
LINE
  5
2066E
  8
1PHANTOM
 10
292.83190599513279
 20
-1406.8918260197661
 30
0.0
 11
292.93190715853001
 21
-1406.3918260197649
 31
0.0
  0
LINE
  5
2066F
  8
1PHANTOM
 10
291.9319141389131
 20
-1403.3918260197649
 30
0.0
 11
292.03191530231021
 21
-1402.8918260197649
 31
0.0
  0
LINE
  5
20670
  8
1PHANTOM
 10
293.63191530231012
 20
-1402.8918260197649
 30
0.0
 11
294.43190599513269
 21
-1406.8918260197661
 31
0.0
  0
LINE
  5
20671
  8
1PHANTOM
 10
294.43190599513269
 20
-1406.8918260197661
 30
0.0
 11
294.53190715852992
 21
-1406.3918260197649
 31
0.0
  0
LINE
  5
20672
  8
1PHANTOM
 10
293.53191413891301
 20
-1403.3918260197649
 30
0.0
 11
293.63191530231012
 21
-1402.8918260197649
 31
0.0
  0
LINE
  5
2072C
  8
1DIM
 10
192.40285149508759
 20
-1411.6419341709941
 30
0.0
 11
213.80944157047711
 21
-1411.6419341709941
 31
0.0
  0
LINE
  5
2072D
  8
1DIM
 10
187.4010604338475
 20
-1361.6419345349109
 30
0.0
 11
213.80944157047711
 21
-1361.6419345349109
 31
0.0
  0
LINE
  5
2072E
  8
1DIM
 10
212.80944157047711
 20
-1409.6419341709941
 30
0.0
 11
212.80944157047711
 21
-1363.6419345349109
 31
0.0
  0
TEXT
  5
20732
  8
1DIM
 10
203.2038775399547
 20
-1335.108588308834
 30
0.0
 40
3.5
  1
材質：ステンレス
1001
ACAD
1000
ACAD_MTEXT_DEFINED_HEIGHT_BEGIN
1070
    46
1040
0.0
1000
ACAD_MTEXT_DEFINED_HEIGHT_END
  0
TEXT
  5
20733
  8
1DIM
 10
203.2038775399547
 20
-1340.941921642167
 30
0.0
 40
3.5
  1
仕上げ：各種仕上げ
1001
ACAD
1000
ACAD_MTEXT_DEFINED_HEIGHT_BEGIN
1070
    46
1040
0.0
1000
ACAD_MTEXT_DEFINED_HEIGHT_END
  0
SOLID
  5
20734
  8
1DIM
 10
184.78101364114869
 20
-1359.852571523091
 30
0.0
 11
183.2038775399547
 21
-1361.126837127046
 31
0.0
 12
184.28248771007171
 22
-1359.40994714454
 32
0.0
 13
184.28248771007171
 23
-1359.40994714454
 33
0.0
  0
LINE
  5
20736
  8
1DIM
 10
254.12345685227669
 20
-1363.520565500048
 30
0.0
 11
254.12345685227669
 21
-1350.6419216421671
 31
0.0
  0
LINE
  5
20737
  8
1DIM
 10
256.12345685227672
 20
-1351.641921642168
 30
0.0
 11
274.12712983537301
 21
-1351.641921642168
 31
0.0
  0
LINE
  5
2073B
  8
1DIM
 10
171.23140256351911
 20
-1281.6419216421509
 30
0.0
 11
171.23140256351911
 21
-1270.6419216421671
 31
0.0
  0
LINE
  5
2073C
  8
1DIM
 10
194.37419514507991
 20
-1281.6419216421691
 30
0.0
 11
194.37419514507991
 21
-1270.6419216421671
 31
0.0
  0
LINE
  5
2073D
  8
1DIM
 10
173.23140256351911
 20
-1271.6419216421671
 30
0.0
 11
192.37419514507991
 21
-1271.6419216421671
 31
0.0
  0
LINE
  5
2073E
  8
1DIM
 10
194.37419514507991
 20
-1271.6419216421671
 30
0.0
 11
203.6075284784132
 21
-1271.6419216421671
 31
0.0
  0
LINE
  5
20742
  8
1DIM
 10
307.13174622211562
 20
-1386.391779483866
 30
0.0
 11
320.12712983537313
 21
-1386.391779483866
 31
0.0
  0
LINE
  5
20743
  8
1DIM
 10
276.12712983537301
 20
-1379.6401027414199
 30
0.0
 11
320.12712983537313
 21
-1379.6401027414199
 31
0.0
  0
LINE
  5
20744
  8
1DIM
 10
319.12712983537313
 20
-1384.391779483866
 30
0.0
 11
319.12712983537313
 21
-1381.6401027414199
 31
0.0
  0
LINE
  5
20748
  8
1DIM
 10
310.09282524008228
 20
-1386.391779483866
 30
0.0
 11
320.12712983537313
 21
-1386.391779483866
 31
0.0
  0
LINE
  5
20749
  8
1DIM
 10
307.13191064877378
 20
-1404.8918260197649
 30
0.0
 11
320.12712983537313
 21
-1404.8918260197649
 31
0.0
  0
LINE
  5
2074A
  8
1DIM
 10
319.12712983537313
 20
-1388.391779483866
 30
0.0
 11
319.12712983537313
 21
-1402.8918260197649
 31
0.0
  0
LINE
  5
2074E
  8
1DIM
 10
258.12712983537301
 20
-1408.360373941041
 30
0.0
 11
258.12712983537301
 21
-1422.6418404203339
 31
0.0
  0
LINE
  5
2074F
  8
1DIM
 10
260.12712983537301
 20
-1421.6418404203339
 30
0.0
 11
274.12712983537301
 21
-1421.6418404203339
 31
0.0
  0
LINE
  5
20753
  8
1DIM
 10
254.12345685227669
 20
-1363.520565500048
 30
0.0
 11
254.12345685227669
 21
-1350.6419216421671
 31
0.0
  0
LINE
  5
20754
  8
1DIM
 10
236.1284218935854
 20
-1363.641928244868
 30
0.0
 11
236.1284218935854
 21
-1350.6419216421671
 31
0.0
  0
LINE
  5
20755
  8
1DIM
 10
252.12345685227669
 20
-1351.641921642168
 30
0.0
 11
238.1284218935854
 21
-1351.641921642168
 31
0.0
  0
LINE
  5
20759
  8
1DIM
 10
236.1357840091153
 20
-1400.0994295638541
 30
0.0
 11
236.1357840091153
 21
-1432.6418404203339
 31
0.0
  0
LINE
  5
2075A
  8
1DIM
 10
274.12712983537301
 20
-1431.6418404203339
 30
0.0
 11
238.1357840091153
 21
-1431.6418404203339
 31
0.0
  0
TEXT
  5
2075E
  8
1HATCH
 10
279.78223107776398
 20
-1329.8491542493221
 30
0.0
 40
3.5
  1
PB
  0
SOLID
  5
2075F
  8
1HATCH
 10
280.68676118940692
 20
-1349.001915253011
 30
0.0
 11
280.70709845745102
 21
-1351.029400766311
 31
0.0
 12
280.03029763201482
 22
-1349.1181049352581
 32
0.0
 13
280.03029763201482
 23
-1349.1181049352581
 33
0.0
  0
SOLID
  5
20761
  8
1DIM
 10
293.75028200193759
 20
-1349.0063017831101
 30
0.0
 11
294.20508067139218
 21
-1350.9822241705981
 31
0.0
 12
293.1340260205609
 22
-1349.2606106698249
 32
0.0
 13
293.1340260205609
 23
-1349.2606106698249
 33
0.0
  0
TEXT
  5
20763
  8
1DIM
 10
290.94957557230259
 20
-1335.850500266446
 30
0.0
 40
3.5
  1
合板9mm以上
  0
LINE
  5
20767
  8
1CENTER
 10
182.80279885430119
 20
-1252.681007051023
 30
0.0
 11
182.80279885430119
 21
-1289.3121980514779
 31
0.0
  0
LINE
  5
20768
  8
0
 10
181.70847504030621
 20
-1257.741919096009
 30
0.0
 11
183.6708101291816
 21
-1256.9419236619581
 31
0.0
  0
LINE
  5
20769
  8
0
 10
183.6708101291816
 20
-1256.9419236619581
 30
0.0
 11
183.08253355413919
 21
-1256.630153805706
 31
0.0
  0
LINE
  5
2076A
  8
0
 10
180.80284539019911
 20
-1280.141916988799
 30
0.0
 11
184.80284539019911
 21
-1279.341926295981
 31
0.0
  0
LINE
  5
2076B
  8
0
 10
180.80284539019911
 20
-1268.941916988794
 30
0.0
 11
184.80284539019911
 21
-1268.1419262959721
 31
0.0
  0
LINE
  5
2076C
  8
0
 10
180.80284539019911
 20
-1265.7419169887939
 30
0.0
 11
184.80284539019911
 21
-1264.9419262959721
 31
0.0
  0
LINE
  5
2076D
  8
0
 10
184.80284539019911
 20
-1264.9419262959721
 30
0.0
 11
184.30284539019911
 21
-1264.8419251325749
 31
0.0
  0
LINE
  5
2076E
  8
0
 10
181.30284539019911
 20
-1264.2419181521921
 30
0.0
 11
180.80284539019911
 21
-1264.1419169887949
 31
0.0
  0
LINE
  5
2076F
  8
0
 10
184.80284539019911
 20
-1268.1419262959721
 30
0.0
 11
184.30284539019911
 21
-1268.041925132575
 31
0.0
  0
LINE
  5
20770
  8
0
 10
184.80284539019911
 20
-1266.541926295972
 30
0.0
 11
184.30284539019911
 21
-1266.4419251325751
 31
0.0
  0
LINE
  5
20771
  8
0
 10
181.30284539019911
 20
-1265.841918152192
 30
0.0
 11
180.80284539019911
 21
-1265.7419169887939
 31
0.0
  0
LINE
  5
20772
  8
0
 10
181.30284539019911
 20
-1267.441918152191
 30
0.0
 11
180.80284539019911
 21
-1267.3419169887941
 31
0.0
  0
LINE
  5
20773
  8
0
 10
180.80284539019911
 20
-1267.3419169887941
 30
0.0
 11
184.80284539019911
 21
-1266.541926295972
 31
0.0
  0
LINE
  5
20774
  8
0
 10
184.1236242335884
 20
-1258.5419247155639
 30
0.0
 11
183.5718747697851
 21
-1258.3591605729359
 31
0.0
  0
LINE
  5
20775
  8
0
 10
184.80284539019911
 20
-1261.741926295972
 30
0.0
 11
184.30284539019911
 21
-1261.6419251325749
 31
0.0
  0
LINE
  5
20776
  8
0
 10
184.80284539019911
 20
-1263.3419262959719
 30
0.0
 11
184.30284539019911
 21
-1263.241925132575
 31
0.0
  0
LINE
  5
20777
  8
0
 10
184.5764383379952
 20
-1260.1419257691689
 30
0.0
 11
184.039844602724
 21
-1260.012655071539
 31
0.0
  0
LINE
  5
20778
  8
0
 10
181.7237599874079
 20
-1259.4546875547551
 30
0.0
 11
181.2556615322579
 21
-1259.341918042405
 31
0.0
  0
LINE
  5
20779
  8
0
 10
181.30284539019911
 20
-1262.6419181521919
 30
0.0
 11
180.80284539019911
 21
-1262.541916988795
 31
0.0
  0
LINE
  5
2077A
  8
0
 10
181.30284539019911
 20
-1261.041918152192
 30
0.0
 11
180.80284539019911
 21
-1260.941916988794
 31
0.0
  0
LINE
  5
2077B
  8
0
 10
182.1656468809372
 20
-1257.893354892449
 30
0.0
 11
181.70847504030621
 21
-1257.741919096009
 31
0.0
  0
LINE
  5
2077C
  8
0
 10
181.2556615322579
 20
-1259.341918042405
 30
0.0
 11
184.1236242335884
 21
-1258.5419247155639
 31
0.0
  0
LINE
  5
2077D
  8
0
 10
180.80284539019911
 20
-1262.541916988795
 30
0.0
 11
184.80284539019911
 21
-1261.741926295972
 31
0.0
  0
LINE
  5
2077E
  8
0
 10
180.80284539019911
 20
-1260.941916988794
 30
0.0
 11
184.5764383379952
 21
-1260.1419257691689
 31
0.0
  0
LINE
  5
2077F
  8
0
 10
180.80284539019911
 20
-1264.1419169887949
 30
0.0
 11
184.80284539019911
 21
-1263.3419262959719
 31
0.0
  0
LINE
  5
20780
  8
0
 10
180.80284539019911
 20
-1276.941916988799
 30
0.0
 11
184.80284539019911
 21
-1276.1419262959801
 31
0.0
  0
LINE
  5
20781
  8
0
 10
184.80284539019911
 20
-1276.1419262959801
 30
0.0
 11
184.30284539019911
 21
-1276.0419251325829
 31
0.0
  0
LINE
  5
20782
  8
0
 10
181.30284539019911
 20
-1275.4419181521921
 30
0.0
 11
180.80284539019911
 21
-1275.341916988795
 31
0.0
  0
LINE
  5
20783
  8
0
 10
184.80284539019911
 20
-1277.7419262959811
 30
0.0
 11
184.30284539019911
 21
-1277.6419251325831
 31
0.0
  0
LINE
  5
20784
  8
0
 10
184.80284539019911
 20
-1279.341926295981
 30
0.0
 11
184.30284539019911
 21
-1279.241925132583
 31
0.0
  0
LINE
  5
20785
  8
0
 10
181.30284539019911
 20
-1277.041918152197
 30
0.0
 11
180.80284539019911
 21
-1276.941916988799
 31
0.0
  0
LINE
  5
20786
  8
0
 10
181.30284539019911
 20
-1278.6419181521969
 30
0.0
 11
180.80284539019911
 21
-1278.5419169887989
 31
0.0
  0
LINE
  5
20787
  8
0
 10
180.80284539019911
 20
-1278.5419169887989
 30
0.0
 11
184.80284539019911
 21
-1277.7419262959811
 31
0.0
  0
LINE
  5
20788
  8
0
 10
184.80284539019911
 20
-1271.341926295976
 30
0.0
 11
184.30284539019911
 21
-1271.2419251325789
 31
0.0
  0
LINE
  5
20789
  8
0
 10
184.80284539019911
 20
-1269.741926295972
 30
0.0
 11
184.30284539019911
 21
-1269.6419251325749
 31
0.0
  0
LINE
  5
2078A
  8
0
 10
184.80284539019911
 20
-1274.5419262959761
 30
0.0
 11
184.30284539019911
 21
-1274.4419251325789
 31
0.0
  0
LINE
  5
2078B
  8
0
 10
184.80284539019911
 20
-1272.9419262959759
 30
0.0
 11
184.30284539019911
 21
-1272.841925132579
 31
0.0
  0
LINE
  5
2078C
  8
0
 10
181.30284539019911
 20
-1269.041918152192
 30
0.0
 11
180.80284539019911
 21
-1268.941916988794
 31
0.0
  0
LINE
  5
2078D
  8
0
 10
181.30284539019911
 20
-1270.6419181521919
 30
0.0
 11
180.80284539019911
 21
-1270.541916988795
 31
0.0
  0
LINE
  5
2078E
  8
0
 10
181.30284539019911
 20
-1273.841918152192
 30
0.0
 11
180.80284539019911
 21
-1273.7419169887951
 31
0.0
  0
LINE
  5
2078F
  8
0
 10
181.30284539019911
 20
-1272.2419181521921
 30
0.0
 11
180.80284539019911
 21
-1272.1419169887949
 31
0.0
  0
LINE
  5
20790
  8
0
 10
180.80284539019911
 20
-1272.1419169887949
 30
0.0
 11
184.80284539019911
 21
-1271.341926295976
 31
0.0
  0
LINE
  5
20791
  8
0
 10
180.80284539019911
 20
-1270.541916988795
 30
0.0
 11
184.80284539019911
 21
-1269.741926295972
 31
0.0
  0
LINE
  5
20792
  8
0
 10
180.80284539019911
 20
-1273.7419169887951
 30
0.0
 11
184.80284539019911
 21
-1272.9419262959759
 31
0.0
  0
LINE
  5
20793
  8
0
 10
180.80284539019911
 20
-1275.341916988795
 30
0.0
 11
184.80284539019911
 21
-1274.5419262959761
 31
0.0
  0
LINE
  5
20794
  8
0
 10
184.30284539019911
 20
-1285.6419251324689
 30
0.0
 11
181.30284539019939
 21
-1285.6419181520851
 31
0.0
  0
LINE
  5
20795
  8
0
 10
181.30284539019911
 20
-1285.0419181522011
 30
0.0
 11
180.80284539019911
 21
-1284.9419169888031
 31
0.0
  0
LINE
  5
20796
  8
0
 10
180.80284539019911
 20
-1284.9419169888031
 30
0.0
 11
184.80284539019911
 21
-1284.1419262959851
 31
0.0
  0
LINE
  5
20797
  8
0
 10
184.80284539019911
 20
-1284.1419262959851
 30
0.0
 11
184.30284539019911
 21
-1284.041925132587
 31
0.0
  0
LINE
  5
20798
  8
0
 10
181.30284539019911
 20
-1283.441918152201
 30
0.0
 11
180.80284539019911
 21
-1283.341916988803
 31
0.0
  0
LINE
  5
20799
  8
0
 10
181.30284539019911
 20
-1281.8419181522011
 30
0.0
 11
180.80284539019911
 21
-1281.741916988803
 31
0.0
  0
LINE
  5
2079A
  8
0
 10
180.80284539019911
 20
-1281.741916988803
 30
0.0
 11
184.80284539019911
 21
-1280.941926295985
 31
0.0
  0
LINE
  5
2079B
  8
0
 10
184.80284539019911
 20
-1282.5419262959849
 30
0.0
 11
184.30284539019911
 21
-1282.4419251325869
 31
0.0
  0
LINE
  5
2079C
  8
0
 10
184.80284539019911
 20
-1280.941926295985
 30
0.0
 11
184.30284539019911
 21
-1280.841925132587
 31
0.0
  0
LINE
  5
2079D
  8
0
 10
180.80284539019911
 20
-1283.341916988803
 30
0.0
 11
184.80284539019911
 21
-1282.5419262959849
 31
0.0
  0
LINE
  5
2079E
  8
0
 10
181.30284539019911
 20
-1280.2419181521971
 30
0.0
 11
180.80284539019911
 21
-1280.141916988799
 31
0.0
  0
LINE
  5
207A3
  8
0
 10
272.13191064893618
 20
-1405.3918260197649
 30
0.0
 11
273.131911812944
 21
-1404.391824855757
 31
0.0
  0
LINE
  5
207A4
  8
0
 10
273.131911812944
 20
-1404.391824855757
 30
0.0
 11
273.13191879697189
 21
-1401.3918260197649
 31
0.0
  0
LINE
  5
207A5
  8
0
 10
272.13191064893641
 20
-1401.3918260197649
 30
0.0
 11
272.13191064893618
 21
-1405.3918260197649
 31
0.0
  0
LINE
  5
207A6
  8
0
 10
273.13191879697189
 20
-1401.3918260197649
 30
0.0
 11
272.13191064893641
 21
-1401.3918260197649
 31
0.0
  0
LINE
  5
207A7
  8
0
 10
272.13191064893613
 20
-1408.391826019764
 30
0.0
 11
273.13190250090042
 21
-1408.391826019764
 31
0.0
  0
LINE
  5
207A8
  8
0
 10
273.13190250090042
 20
-1408.391826019764
 30
0.0
 11
273.131911812944
 21
-1404.391824855757
 31
0.0
  0
LINE
  5
207A9
  8
0
 10
272.13191064893618
 20
-1405.3918260197649
 30
0.0
 11
272.13191064893613
 21
-1408.391826019764
 31
0.0
  0
LINE
  5
207AA
  8
0
 10
273.131911812944
 20
-1404.391824855757
 30
0.0
 11
272.13191064893618
 21
-1405.3918260197649
 31
0.0
  0
LINE
  5
207AB
  8
0
 10
272.1319106490094
 20
-1386.891826019764
 30
0.0
 11
273.13191181301733
 21
-1385.8918248557561
 31
0.0
  0
LINE
  5
207AC
  8
0
 10
273.13191181301733
 20
-1385.8918248557561
 30
0.0
 11
273.13191879704522
 21
-1382.891826019764
 31
0.0
  0
LINE
  5
207AD
  8
0
 10
272.13191064900963
 20
-1382.891826019764
 30
0.0
 11
272.1319106490094
 21
-1386.891826019764
 31
0.0
  0
LINE
  5
207AE
  8
0
 10
273.13191879704522
 20
-1382.891826019764
 30
0.0
 11
272.13191064900963
 21
-1382.891826019764
 31
0.0
  0
LINE
  5
207AF
  8
0
 10
272.13191064900928
 20
-1389.891826019764
 30
0.0
 11
273.13190250097369
 21
-1389.891826019764
 31
0.0
  0
LINE
  5
207B0
  8
0
 10
273.13190250097369
 20
-1389.891826019764
 30
0.0
 11
273.13191181301733
 21
-1385.8918248557561
 31
0.0
  0
LINE
  5
207B1
  8
0
 10
272.1319106490094
 20
-1386.891826019764
 30
0.0
 11
272.13191064900928
 21
-1389.891826019764
 31
0.0
  0
LINE
  5
207B2
  8
0
 10
273.13191181301733
 20
-1385.8918248557561
 30
0.0
 11
272.1319106490094
 21
-1386.891826019764
 31
0.0
  0
LINE
  5
207B3
  8
0
 10
182.8028453901992
 20
-1255.641921642331
 30
0.0
 11
181.30284539019911
 21
-1260.941918152193
 31
0.0
  0
LINE
  5
207B4
  8
0
 10
181.30284539019911
 20
-1260.941918152193
 30
0.0
 11
181.30284539019939
 21
-1285.6419181520851
 31
0.0
  0
LINE
  5
207B5
  8
0
 10
182.8028453901992
 20
-1255.641921642331
 30
0.0
 11
184.3028453901992
 21
-1260.941925132576
 31
0.0
  0
LINE
  5
207B6
  8
0
 10
179.3027988543013
 20
-1285.641913498386
 30
0.0
 11
181.30284539019939
 21
-1285.6419181520851
 31
0.0
  0
LINE
  5
207B7
  8
0
 10
184.3028453901992
 20
-1260.941925132576
 30
0.0
 11
184.30284539019911
 21
-1285.6419251324689
 31
0.0
  0
LINE
  5
207B8
  8
0
 10
179.3027988543013
 20
-1285.641913498386
 30
0.0
 11
179.30279885430119
 21
-1286.741916988582
 31
0.0
  0
LINE
  5
207B9
  8
0
 10
184.30284539019911
 20
-1285.6419251324689
 30
0.0
 11
186.30279885430119
 21
-1285.6419297859511
 31
0.0
  0
ARC
  5
207BA
  8
0
 10
180.80279885430119
 20
-1286.741916988582
 30
0.0
 40
1.5
 50
180.0
 51
269.99986668447059
  0
LINE
  5
207BB
  8
0
 10
186.30279885430119
 20
-1285.6419297859511
 30
0.0
 11
186.30279885430119
 21
-1286.7419262957619
 31
0.0
  0
LINE
  5
207BC
  8
0
 10
180.80279536410879
 20
-1288.2419169885779
 30
0.0
 11
184.80279536410879
 21
-1288.2419262957569
 31
0.0
  0
ARC
  5
207BD
  8
0
 10
184.80279885430119
 20
-1286.7419262957619
 30
0.0
 40
1.5
 50
269.99986668447059
 51
0.0
  0
LINE
  5
207BE
  8
0
 10
183.3028453901984
 20
-1285.6419216421691
 30
0.0
 11
182.30284422619059
 21
-1284.641920478161
 31
0.0
  0
LINE
  5
207BF
  8
0
 10
182.30284422619059
 20
-1284.641920478161
 30
0.0
 11
179.3028453901984
 21
-1284.641913494133
 31
0.0
  0
LINE
  5
207C0
  8
0
 10
179.3028453901984
 20
-1285.6419216421691
 30
0.0
 11
183.3028453901984
 21
-1285.6419216421691
 31
0.0
  0
LINE
  5
207C1
  8
0
 10
179.3028453901984
 20
-1284.641913494133
 30
0.0
 11
179.3028453901984
 21
-1285.6419216421691
 31
0.0
  0
LINE
  5
207C2
  8
0
 10
186.30284539019831
 20
-1285.6419216421691
 30
0.0
 11
186.30284539019831
 21
-1284.641929790205
 31
0.0
  0
LINE
  5
207C3
  8
0
 10
186.30284539019831
 20
-1284.641929790205
 30
0.0
 11
182.30284422619059
 21
-1284.641920478161
 31
0.0
  0
LINE
  5
207C4
  8
0
 10
183.3028453901984
 20
-1285.6419216421691
 30
0.0
 11
186.30284539019831
 21
-1285.6419216421691
 31
0.0
  0
LINE
  5
207C5
  8
0
 10
182.30284422619059
 20
-1284.641920478161
 30
0.0
 11
183.3028453901984
 21
-1285.6419216421691
 31
0.0
  0
LINE
  5
207C6
  8
1DIM
 10
293.44215401124927
 20
-1349.1334562264681
 30
0.0
 11
288.2495755723026
 21
-1336.5505002664449
 31
0.0
  0
LINE
  5
207C7
  8
1DIM
 10
288.2495755723026
 20
-1336.5505002664449
 30
0.0
 11
320.14957557230258
 21
-1336.5505002664449
 31
0.0
  0
LINE
  5
207C8
  8
1HATCH
 10
280.35852941071079
 20
-1349.0600100941349
 30
0.0
 11
277.08223107776399
 21
-1330.549154249321
 31
0.0
  0
LINE
  5
207C9
  8
1HATCH
 10
277.08223107776399
 20
-1330.549154249321
 30
0.0
 11
285.61556441109741
 21
-1330.549154249321
 31
0.0
  0
TEXT
  5
207CA
  8
1DIM
 10
253.50645692224421
 20
-1430.9418404203341
 30
0.0
 40
3.5
  1
40
  0
LINE
  5
207CB
  8
0
  6
BYBLOCK
 10
238.1357840091153
 20
-1432.1777388003341
 30
0.0
 11
236.1357840091153
 21
-1431.6418404203339
 31
0.0
  0
LINE
  5
207CC
  8
0
  6
BYBLOCK
 10
236.1357840091153
 20
-1431.6418404203339
 30
0.0
 11
238.1357840091153
 21
-1431.105942040334
 31
0.0
  0
LINE
  5
207CD
  8
0
  6
BYBLOCK
 10
236.1357840091153
 20
-1431.6418404203339
 30
0.0
 11
238.1357840091153
 21
-1431.6418404203339
 31
0.0
  0
LINE
  5
207CE
  8
0
  6
BYBLOCK
 10
274.12712983537301
 20
-1431.105942040334
 30
0.0
 11
276.12712983537301
 21
-1431.6418404203339
 31
0.0
  0
LINE
  5
207CF
  8
0
  6
BYBLOCK
 10
276.12712983537301
 20
-1431.6418404203339
 30
0.0
 11
274.12712983537301
 21
-1432.1777388003341
 31
0.0
  0
LINE
  5
207D0
  8
0
  6
BYBLOCK
 10
276.12712983537301
 20
-1431.6418404203339
 30
0.0
 11
274.12712983537301
 21
-1431.6418404203339
 31
0.0
  0
TEXT
  5
207D1
  8
1DIM
 10
242.7937946423219
 20
-1350.941921642167
 30
0.0
 40
3.5
  1
18
  0
LINE
  5
207D2
  8
0
  6
BYBLOCK
 10
238.1284218935854
 20
-1352.177820022167
 30
0.0
 11
236.1284218935854
 21
-1351.641921642168
 31
0.0
  0
LINE
  5
207D3
  8
0
  6
BYBLOCK
 10
236.1284218935854
 20
-1351.641921642168
 30
0.0
 11
238.1284218935854
 21
-1351.1060232621669
 31
0.0
  0
LINE
  5
207D4
  8
0
  6
BYBLOCK
 10
236.1284218935854
 20
-1351.641921642168
 30
0.0
 11
238.1284218935854
 21
-1351.641921642168
 31
0.0
  0
LINE
  5
207D5
  8
0
  6
BYBLOCK
 10
252.12345685227669
 20
-1351.1060232621669
 30
0.0
 11
254.12345685227669
 21
-1351.641921642168
 31
0.0
  0
LINE
  5
207D6
  8
0
  6
BYBLOCK
 10
254.12345685227669
 20
-1351.641921642168
 30
0.0
 11
252.12345685227669
 21
-1352.177820022167
 31
0.0
  0
LINE
  5
207D7
  8
0
  6
BYBLOCK
 10
254.12345685227669
 20
-1351.641921642168
 30
0.0
 11
252.12345685227669
 21
-1351.641921642168
 31
0.0
  0
TEXT
  5
207D8
  8
1DIM
 10
264.7937965020397
 20
-1420.9418404203341
 30
0.0
 40
3.5
  1
18
  0
LINE
  5
207D9
  8
0
  6
BYBLOCK
 10
274.12712983537301
 20
-1421.105942040334
 30
0.0
 11
276.12712983537301
 21
-1421.6418404203339
 31
0.0
  0
LINE
  5
207DA
  8
0
  6
BYBLOCK
 10
276.12712983537301
 20
-1421.6418404203339
 30
0.0
 11
274.12712983537301
 21
-1422.1777388003341
 31
0.0
  0
LINE
  5
207DB
  8
0
  6
BYBLOCK
 10
276.12712983537301
 20
-1421.6418404203339
 30
0.0
 11
274.12712983537301
 21
-1421.6418404203339
 31
0.0
  0
LINE
  5
207DC
  8
0
  6
BYBLOCK
 10
260.12712983537301
 20
-1422.1777388003341
 30
0.0
 11
258.12712983537301
 21
-1421.6418404203339
 31
0.0
  0
LINE
  5
207DD
  8
0
  6
BYBLOCK
 10
258.12712983537301
 20
-1421.6418404203339
 30
0.0
 11
260.12712983537301
 21
-1421.105942040334
 31
0.0
  0
LINE
  5
207DE
  8
0
  6
BYBLOCK
 10
258.12712983537301
 20
-1421.6418404203339
 30
0.0
 11
260.12712983537301
 21
-1421.6418404203339
 31
0.0
  0
TEXT
  5
207DF
  8
1DIM
 10
318.42712983537331
 20
-1400.3084694184829
 30
0.0
 40
3.5
  1
18.5
 50
90.0
  0
LINE
  5
207E0
  8
0
  6
BYBLOCK
 10
319.66302821537312
 20
-1402.8918260197649
 30
0.0
 11
319.12712983537313
 21
-1404.8918260197649
 31
0.0
  0
LINE
  5
207E1
  8
0
  6
BYBLOCK
 10
319.12712983537313
 20
-1404.8918260197649
 30
0.0
 11
318.59123145537319
 21
-1402.8918260197649
 31
0.0
  0
LINE
  5
207E2
  8
0
  6
BYBLOCK
 10
319.12712983537313
 20
-1404.8918260197649
 30
0.0
 11
319.12712983537313
 21
-1402.8918260197649
 31
0.0
  0
LINE
  5
207E3
  8
0
  6
BYBLOCK
 10
318.59123145537319
 20
-1388.391779483866
 30
0.0
 11
319.12712983537313
 21
-1386.391779483866
 31
0.0
  0
LINE
  5
207E4
  8
0
  6
BYBLOCK
 10
319.12712983537313
 20
-1386.391779483866
 30
0.0
 11
319.66302821537312
 21
-1388.391779483866
 31
0.0
  0
LINE
  5
207E5
  8
0
  6
BYBLOCK
 10
319.12712983537313
 20
-1386.391779483866
 30
0.0
 11
319.12712983537313
 21
-1388.391779483866
 31
0.0
  0
TEXT
  5
207E6
  8
1DIM
 10
318.42712983537342
 20
-1384.18260777931
 30
0.0
 40
3.5
  1
7
 50
90.0
  0
LINE
  5
207E7
  8
0
  6
BYBLOCK
 10
318.59123145537319
 20
-1381.6401027414199
 30
0.0
 11
319.12712983537313
 21
-1379.6401027414199
 31
0.0
  0
LINE
  5
207E8
  8
0
  6
BYBLOCK
 10
319.12712983537313
 20
-1379.6401027414199
 30
0.0
 11
319.66302821537312
 21
-1381.6401027414199
 31
0.0
  0
LINE
  5
207E9
  8
0
  6
BYBLOCK
 10
319.12712983537313
 20
-1379.6401027414199
 30
0.0
 11
319.12712983537313
 21
-1381.6401027414199
 31
0.0
  0
LINE
  5
207EA
  8
0
  6
BYBLOCK
 10
319.66302821537312
 20
-1384.391779483866
 30
0.0
 11
319.12712983537313
 21
-1386.391779483866
 31
0.0
  0
LINE
  5
207EB
  8
0
  6
BYBLOCK
 10
319.12712983537313
 20
-1386.391779483866
 30
0.0
 11
318.59123145537319
 21
-1384.391779483866
 31
0.0
  0
LINE
  5
207EC
  8
0
  6
BYBLOCK
 10
319.12712983537313
 20
-1386.391779483866
 30
0.0
 11
319.12712983537313
 21
-1384.391779483866
 31
0.0
  0
TEXT
  5
207ED
  8
1DIM
 10
197.0741951450799
 20
-1270.941921642167
 30
0.0
 40
3.5
  1
23
  0
LINE
  5
207EE
  8
0
  6
BYBLOCK
 10
192.37419514507991
 20
-1271.106023262168
 30
0.0
 11
194.37419514507991
 21
-1271.6419216421671
 31
0.0
  0
LINE
  5
207EF
  8
0
  6
BYBLOCK
 10
194.37419514507991
 20
-1271.6419216421671
 30
0.0
 11
192.37419514507991
 21
-1272.177820022167
 31
0.0
  0
LINE
  5
207F0
  8
0
  6
BYBLOCK
 10
194.37419514507991
 20
-1271.6419216421671
 30
0.0
 11
192.37419514507991
 21
-1271.6419216421671
 31
0.0
  0
LINE
  5
207F1
  8
0
  6
BYBLOCK
 10
173.23140256351911
 20
-1272.177820022167
 30
0.0
 11
171.23140256351911
 21
-1271.6419216421671
 31
0.0
  0
LINE
  5
207F2
  8
0
  6
BYBLOCK
 10
171.23140256351911
 20
-1271.6419216421671
 30
0.0
 11
173.23140256351911
 21
-1271.106023262168
 31
0.0
  0
LINE
  5
207F3
  8
0
  6
BYBLOCK
 10
171.23140256351911
 20
-1271.6419216421671
 30
0.0
 11
173.23140256351911
 21
-1271.6419216421671
 31
0.0
  0
TEXT
  5
207F4
  8
1DIM
 10
262.20862667715818
 20
-1350.941921642167
 30
0.0
 40
3.5
  1
22
  0
LINE
  5
207F5
  8
0
  6
BYBLOCK
 10
274.12712983537301
 20
-1351.1060232621669
 30
0.0
 11
276.12712983537301
 21
-1351.641921642168
 31
0.0
  0
LINE
  5
207F6
  8
0
  6
BYBLOCK
 10
276.12712983537301
 20
-1351.641921642168
 30
0.0
 11
274.12712983537301
 21
-1352.177820022167
 31
0.0
  0
LINE
  5
207F7
  8
0
  6
BYBLOCK
 10
276.12712983537301
 20
-1351.641921642168
 30
0.0
 11
274.12712983537301
 21
-1351.641921642168
 31
0.0
  0
LINE
  5
207F8
  8
0
  6
BYBLOCK
 10
256.12345685227672
 20
-1352.177820022167
 30
0.0
 11
254.12345685227669
 21
-1351.641921642168
 31
0.0
  0
LINE
  5
207F9
  8
0
  6
BYBLOCK
 10
254.12345685227669
 20
-1351.641921642168
 30
0.0
 11
256.12345685227672
 21
-1351.1060232621669
 31
0.0
  0
LINE
  5
207FA
  8
0
  6
BYBLOCK
 10
254.12345685227669
 20
-1351.641921642168
 30
0.0
 11
256.12345685227672
 21
-1351.641921642168
 31
0.0
  0
LINE
  5
207FB
  8
1DIM
 10
184.5317506756102
 20
-1359.6312593338159
 30
0.0
 11
200.50387753995469
 21
-1341.6419216421671
 31
0.0
  0
LINE
  5
207FC
  8
1DIM
 10
200.50387753995469
 20
-1341.6419216421671
 30
0.0
 11
240.07054420662141
 21
-1341.6419216421671
 31
0.0
  0
TEXT
  5
207FD
  8
1DIM
 10
212.1094415704774
 20
-1389.2669343529519
 30
0.0
 40
3.5
  1
50
 50
90.0
  0
LINE
  5
207FE
  8
0
  6
BYBLOCK
 10
212.27354319047711
 20
-1363.6419345349109
 30
0.0
 11
212.80944157047711
 21
-1361.6419345349109
 31
0.0
  0
LINE
  5
207FF
  8
0
  6
BYBLOCK
 10
212.80944157047711
 20
-1361.6419345349109
 30
0.0
 11
213.3453399504771
 21
-1363.6419345349109
 31
0.0
  0
LINE
  5
20800
  8
0
  6
BYBLOCK
 10
212.80944157047711
 20
-1361.6419345349109
 30
0.0
 11
212.80944157047711
 21
-1363.6419345349109
 31
0.0
  0
LINE
  5
20801
  8
0
  6
BYBLOCK
 10
213.3453399504771
 20
-1409.6419341709941
 30
0.0
 11
212.80944157047711
 21
-1411.6419341709941
 31
0.0
  0
LINE
  5
20802
  8
0
  6
BYBLOCK
 10
212.80944157047711
 20
-1411.6419341709941
 30
0.0
 11
212.27354319047711
 21
-1409.6419341709941
 31
0.0
  0
LINE
  5
20803
  8
0
  6
BYBLOCK
 10
212.80944157047711
 20
-1411.6419341709941
 30
0.0
 11
212.80944157047711
 21
-1409.6419341709941
 31
0.0
  0
VIEWPORT
  5
57
 67
     1
  8
0
 10
-12.71820606546885
 20
36.174098768480462
 30
0.0
 40
473.62568776146918
 41
335.34390213825458
 68
     1
 69
     1
1001
ACAD
1000
MVIEW
1002
{
1070
    16
1010
0.0
1020
0.0
1030
0.0
1010
0.0
1020
0.0
1030
1.0
1040
0.0
1040
335.34390213825458
1040
-12.71820606546885
1040
36.174098768480462
1040
50.0
1040
0.0
1040
0.0
1070
     0
1070
   100
1070
     1
1070
     1
1070
     0
1070
     0
1070
     0
1070
     0
1040
0.0
1040
0.0
1040
0.0
1040
10.0
1040
10.0
1040
10.0
1040
10.0
1070
     0
1002
{
1002
}
1002
}
  0
ENDSEC
  0
EOF
