  0
SECTION
  2
HEADER
  9
$ACADVER
  1
AC1009
  9
$INSBASE
 10
0.0
 20
0.0
 30
0.0
  9
$EXTMIN
 10
-38.32412081715983
 20
102.8793098774255
 30
0.0
  9
$EXTMAX
 10
282.29384394825189
 20
300.51946351137281
 30
0.0
  9
$LIMMIN
 10
0.0
 20
0.0
  9
$LIMMAX
 10
420.0
 20
297.0
  9
$ORTHOMODE
 70
     0
  9
$REGENMODE
 70
     1
  9
$FILLMODE
 70
     1
  9
$QTEXTMODE
 70
     0
  9
$MIRRTEXT
 70
     1
  9
$DRAGMODE
 70
     2
  9
$LTSCALE
 40
0.5
  9
$OSMODE
 70
  2175
  9
$ATTMODE
 70
     1
  9
$TEXTSIZE
 40
4.0
  9
$TRACEWID
 40
1.0
  9
$TEXTSTYLE
  7
STANDARD
  9
$CLAYER
  8
1TEXT
  9
$CELTYPE
  6
BYLAYER
  9
$CECOLOR
 62
   256
  9
$DIMSCALE
 40
1.0
  9
$DIMASZ
 40
2.0
  9
$DIMEXO
 40
0.0
  9
$DIMDLI
 40
7.0
  9
$DIMRND
 40
0.0
  9
$DIMDLE
 40
0.0
  9
$DIMEXE
 40
1.0
  9
$DIMTP
 40
0.0
  9
$DIMTM
 40
0.0
  9
$DIMTXT
 40
3.5
  9
$DIMCEN
 40
0.0
  9
$DIMTSZ
 40
0.0
  9
$DIMTOL
 70
     0
  9
$DIMLIM
 70
     0
  9
$DIMTIH
 70
     0
  9
$DIMTOH
 70
     0
  9
$DIMSE1
 70
     0
  9
$DIMSE2
 70
     0
  9
$DIMTAD
 70
     1
  9
$DIMZIN
 70
     8
  9
$DIMBLK
  1

  9
$DIMASO
 70
     1
  9
$DIMSHO
 70
     1
  9
$DIMPOST
  1
 
  9
$DIMAPOST
  1

  9
$DIMALT
 70
     0
  9
$DIMALTD
 70
     2
  9
$DIMALTF
 40
25.399999999999999
  9
$DIMLFAC
 40
1.0
  9
$DIMTOFL
 70
     1
  9
$DIMTVP
 40
0.0
  9
$DIMTIX
 70
     0
  9
$DIMSOXD
 70
     0
  9
$DIMSAH
 70
     1
  9
$DIMBLK1
  1
OPEN30
  9
$DIMBLK2
  1
OPEN30
  9
$DIMSTYLE
  2
NEWX10
  9
$DIMCLRD
 70
   256
  9
$DIMCLRE
 70
   256
  9
$DIMCLRT
 70
   201
  9
$DIMTFAC
 40
0.7
  9
$DIMGAP
 40
0.7
  9
$LUNITS
 70
     2
  9
$LUPREC
 70
     4
  9
$SKETCHINC
 40
1.0
  9
$FILLETRAD
 40
0.5
  9
$AUNITS
 70
     0
  9
$AUPREC
 70
     2
  9
$MENU
  1
acad
  9
$ELEVATION
 40
0.0
  9
$PELEVATION
 40
0.0
  9
$THICKNESS
 40
0.0
  9
$LIMCHECK
 70
     0
  9
$BLIPMODE
 70
     0
  9
$CHAMFERA
 40
1.0
  9
$CHAMFERB
 40
1.0
  9
$SKPOLY
 70
     0
  9
$TDCREATE
 40
2453733.5494981478
  9
$TDUPDATE
 40
2455281.5917840279
  9
$TDINDWG
 40
0.2425886227
  9
$TDUSRTIMER
 40
0.2425866319
  9
$USRTIMER
 70
     1
  9
$ANGBASE
 50
0.0
  9
$ANGDIR
 70
     0
  9
$PDMODE
 70
     0
  9
$PDSIZE
 40
0.0
  9
$PLINEWID
 40
0.0
  9
$COORDS
 70
     2
  9
$SPLFRAME
 70
     0
  9
$SPLINETYPE
 70
     6
  9
$SPLINESEGS
 70
     8
  9
$ATTDIA
 70
     0
  9
$ATTREQ
 70
     1
  9
$HANDLING
 70
     1
  9
$HANDSEED
  5
4533
  9
$SURFTAB1
 70
     6
  9
$SURFTAB2
 70
     6
  9
$SURFTYPE
 70
     6
  9
$SURFU
 70
     6
  9
$SURFV
 70
     6
  9
$UCSNAME
  2

  9
$UCSORG
 10
0.0
 20
0.0
 30
0.0
  9
$UCSXDIR
 10
1.0
 20
0.0
 30
0.0
  9
$UCSYDIR
 10
0.0
 20
1.0
 30
0.0
  9
$PUCSNAME
  2

  9
$PUCSORG
 10
0.0
 20
0.0
 30
0.0
  9
$PUCSXDIR
 10
1.0
 20
0.0
 30
0.0
  9
$PUCSYDIR
 10
0.0
 20
1.0
 30
0.0
  9
$USERI1
 70
     0
  9
$USERI2
 70
     0
  9
$USERI3
 70
     0
  9
$USERI4
 70
     0
  9
$USERI5
 70
     0
  9
$USERR1
 40
0.0
  9
$USERR2
 40
0.0
  9
$USERR3
 40
0.0
  9
$USERR4
 40
0.0
  9
$USERR5
 40
30.0
  9
$WORLDVIEW
 70
     1
  9
$SHADEDGE
 70
     3
  9
$SHADEDIF
 70
    70
  9
$TILEMODE
 70
     1
  9
$MAXACTVP
 70
    48
  9
$PLIMCHECK
 70
     0
  9
$PEXTMIN
 10
1.0000000000000000E+020
 20
1.0000000000000000E+020
 30
1.0000000000000000E+020
  9
$PEXTMAX
 10
-1.0000000000000000E+020
 20
-1.0000000000000000E+020
 30
-1.0000000000000000E+020
  9
$PLIMMIN
 10
0.0
 20
0.0
  9
$PLIMMAX
 10
420.0
 20
297.0
  9
$UNITMODE
 70
     0
  9
$VISRETAIN
 70
     1
  9
$PLINEGEN
 70
     0
  9
$PSLTSCALE
 70
     1
  0
ENDSEC
  0
SECTION
  2
TABLES
  0
TABLE
  2
VPORT
 70
     1
  0
VPORT
  2
*ACTIVE
 70
     0
 10
0.0
 20
0.0
 11
1.0
 21
1.0
 12
121.9804060312691
 22
201.6982866220028
 13
0.0
 23
0.0
 14
10.0
 24
10.0
 15
10.0
 25
10.0
 16
0.0
 26
0.0
 36
1.0
 17
0.0
 27
0.0
 37
0.0
 40
240.26182408078691
 41
1.4123581336696089
 42
50.0
 43
0.0
 44
0.0
 50
0.0
 51
0.0
 71
     0
 72
  1000
 73
     1
 74
     1
 75
     0
 76
     0
 77
     0
 78
     0
  0
ENDTAB
  0
TABLE
  2
LTYPE
 70
    14
  0
LTYPE
  2
CONTINUOUS
 70
     0
  3
Solid line
 72
    65
 73
     0
 40
0.0
  0
LTYPE
  2
CENTER2
 70
     0
  3
Center (.5x) ___ _ ___ _ ___ _ ___ _ ___ _ ___
 72
    65
 73
     4
 40
28.574999999999999
 49
19.050000000000001
 49
-3.1749999999999989
 49
3.1749999999999989
 49
-3.1749999999999989
  0
LTYPE
  2
XREF1|CENTER2
 70
    48
  3
Center (.5x) ___ _ ___ _ ___ _ ___ _ ___ _ ___
 72
    65
 73
     4
 40
28.574999999999999
 49
19.050000000000001
 49
-3.1749999999999989
 49
3.1749999999999989
 49
-3.1749999999999989
  0
LTYPE
  2
HIDDEN
 70
     0
  3
Hidden __ __ __ __ __ __ __ __ __ __ __ __ __ _
 72
    65
 73
     2
 40
9.5249999999999986
 49
6.3499999999999988
 49
-3.1749999999999989
  0
LTYPE
  2
PHANTOM2
 70
     0
  3
Phantom (.5x) ___ _ _ ___ _ _ ___ _ _ ___ _ _
 72
    65
 73
     6
 40
31.75
 49
15.875
 49
-3.1749999999999989
 49
3.1749999999999989
 49
-3.1749999999999989
 49
3.1749999999999989
 49
-3.1749999999999989
  0
LTYPE
  2
A3WAKUDAKE|CENTER2
 70
    48
  3
Center (.5x) ___ _ ___ _ ___ _ ___ _ ___ _ ___
 72
    65
 73
     4
 40
28.574999999999999
 49
19.050000000000001
 49
-3.1749999999999989
 49
3.1749999999999989
 49
-3.1749999999999989
  0
ENDTAB
  0
TABLE
  2
LAYER
 70
    43
  0
LAYER
  2
0
 70
     0
 62
     7
  6
CONTINUOUS
  0
LAYER
  2
1CENTER
 70
     0
 62
     7
  6
CENTER2
  0
LAYER
  2
1TEXT
 70
     0
 62
     7
  6
CONTINUOUS
  0
LAYER
  2
1DIM
 70
     0
 62
     7
  6
CONTINUOUS
  0
LAYER
  2
1HIDDEN
 70
     0
 62
     7
  6
HIDDEN
  0
LAYER
  2
1PHANTOM
 70
     0
 62
     7
  6
PHANTOM2
  0
LAYER
  2
01
 70
     0
 62
     1
  6
CONTINUOUS
  0
LAYER
  2
1DIM1
 70
     0
 62
     7
  6
CONTINUOUS
  0
LAYER
  2
1HATCH
 70
     0
 62
     7
  6
CONTINUOUS
  0
LAYER
  2
XREF1|1CENTER
 70
    48
 62
     7
  6
XREF1|CENTER2
  0
LAYER
  2
A3WAKUDAKE|THICK
 70
    48
 62
     7
  6
CONTINUOUS
  0
LAYER
  2
A3WAKUDAKE|POINT
 70
    48
 62
     7
  6
CONTINUOUS
  0
LAYER
  2
A3WAKUDAKE|1CENTER
 70
    48
 62
     7
  6
A3WAKUDAKE|CENTER2
  0
LAYER
  2
A3WAKUDAKE|0-6
 70
    48
 62
     7
  6
CONTINUOUS
  0
LAYER
  2
A3WAKUDAKE|1DIM
 70
    48
 62
     7
  6
CONTINUOUS
  0
ENDTAB
  0
TABLE
  2
STYLE
 70
    21
  0
STYLE
  2
STANDARD
 70
     0
 40
0.0
 41
1.0
 50
0.0
 71
     0
 42
4.0
  3
txt.shx
  4
extfont.shx
  0
ENDTAB
  0
TABLE
  2
VIEW
 70
     0
  0
ENDTAB
  0
TABLE
  2
UCS
 70
     0
  0
ENDTAB
  0
TABLE
  2
APPID
 70
     9
  0
APPID
  2
ACAD
 70
     0
  0
APPID
  2
DRAWINGVARIABLESXDATA
 70
     0
  0
APPID
  2
CONTENTTABDATA
 70
     0
  0
APPID
  2
CONTENTCURRENTTAB
 70
     0
  0
APPID
  2
CONTENTBLOCKDESCRIPTION
 70
     0
  0
APPID
  2
CONTENTBLOCKICON
 70
     0
  0
APPID
  2
CONTENTLONGBLOCKNAME
 70
     0
  0
APPID
  2
ACAD_PSEXT
 70
     0
  0
APPID
  2
ACAD_MLEADERVER
 70
     0
  0
ENDTAB
  0
TABLE
  2
DIMSTYLE
 70
     8
  0
DIMSTYLE
  2
NEWX10
 70
     0
  3
 
  4

  5

  6
OPEN30
  7
OPEN30
 40
1.0
 41
2.0
 42
0.0
 43
7.0
 44
1.0
 45
0.0
 46
0.0
 47
0.0
 48
0.0
140
3.5
141
0.0
142
0.0
143
25.399999999999999
144
1.0
145
0.0
146
0.7
147
0.7
 71
     0
 72
     0
 73
     0
 74
     0
 75
     0
 76
     0
 77
     1
 78
     8
170
     0
171
     2
172
     1
173
     1
174
     0
175
     0
176
   256
177
   256
178
   201
  0
ENDTAB
  0
ENDSEC
  0
SECTION
  2
BLOCKS
  0
BLOCK
  8
0
  2
$MODEL_SPACE
 70
     0
 10
0.0
 20
0.0
 30
0.0
  3
$MODEL_SPACE
  1

  0
ENDBLK
  5
1A
  8
0
  0
BLOCK
 67
     1
  8
0
  2
$PAPER_SPACE
 70
     0
 10
0.0
 20
0.0
 30
0.0
  3
$PAPER_SPACE
  1

  0
ENDBLK
  5
17
 67
     1
  8
0
  0
BLOCK
  8
0
  2
_OPEN30
 70
     0
 10
0.0
 20
0.0
 30
0.0
  3
_OPEN30
  1

  0
LINE
  5
44
  8
0
  6
BYBLOCK
 62
     0
 10
-1.0
 20
0.26794919
 30
0.0
 11
0.0
 21
0.0
 31
0.0
  0
LINE
  5
45
  8
0
  6
BYBLOCK
 62
     0
 10
0.0
 20
0.0
 30
0.0
 11
-1.0
 21
-0.26794919
 31
0.0
  0
LINE
  5
46
  8
0
  6
BYBLOCK
 62
     0
 10
0.0
 20
0.0
 30
0.0
 11
-1.0
 21
0.0
 31
0.0
  0
ENDBLK
  5
47
  8
0
  0
BLOCK
  8
0
  2
XREF1
 70
    36
 10
0.0
 20
0.0
 30
0.0
  3
XREF1
  1
D:\ACLT\FORMAT\KAWAJUN(9)図面用.dwg
  0
ENDBLK
  5
5D
  8
0
  0
BLOCK
  8
0
  2
A3WAKUDAKE
 70
    36
 10
0.0
 20
0.0
 30
0.0
  3
A3WAKUDAKE
  1
D:\ACLT\FORMAT\A3WAKUdake.dwg
  0
ENDBLK
  5
41CA
  8
0
  0
BLOCK
  8
0
  2
*U28
 70
     1
 10
0.0
 20
0.0
 30
0.0
  3
*U28
  1

  0
TEXT
  5
442E
  8
1TEXT
 10
2.92314629345401
 20
-53.74544447106647
 30
0.0
 40
2.8576800000000002
  1
9)指示無き角Ｒは最小（R0.3以下）の事。
  0
ENDBLK
  5
4430
  8
0
  0
BLOCK
  8
0
  2
*U29
 70
     1
 10
0.0
 20
0.0
 30
0.0
  3
*U29
  1

  0
TEXT
  5
4432
  8
1TEXT
 10
2.92314629345401
 20
-58.245444471066477
 30
0.0
 40
2.8576800000000002
  1
10)＊印寸法は嵌合部につき要調整寸法とする。トライ後調整有り。
  0
ENDBLK
  5
4434
  8
0
  0
BLOCK
  8
0
  2
*U30
 70
     1
 10
0.0
 20
0.0
 30
0.0
  3
*U30
  1

  0
TEXT
  5
4436
  8
1TEXT
 10
5.543543039778922
 20
-27.32725786104713
 30
0.0
 40
2.8576800000000002
  1
の処理はバフ研磨のみでは行なわない事（ﾊﾞﾘ処理方法は打合せ後、ﾄﾗｲ時に試し、決定）
  0
ENDBLK
  5
4438
  8
0
  0
BLOCK
  8
0
  2
*U31
 70
     1
 10
0.0
 20
0.0
 30
0.0
  3
*U31
  1

  0
TEXT
  5
443A
  8
1TEXT
 10
2.92314629345401
 20
-31.245444471066481
 30
0.0
 40
2.8576800000000002
  1
5)型割りの都合や、指定なき箇所等での抜きテーパーは0.5°以下とする。
  0
ENDBLK
  5
443C
  8
0
  0
BLOCK
  8
0
  2
*U32
 70
     1
 10
0.0
 20
0.0
 30
0.0
  3
*U32
  1

  0
TEXT
  5
443E
  8
1TEXT
 10
2.92314629345401
 20
-44.74544447106647
 30
0.0
 40
2.8576800000000002
  1
7)角Ｒの研磨指示のある場所は刃とならず、またダレ過ぎない事（寸法参照）
  0
ENDBLK
  5
4440
  8
0
  0
BLOCK
  8
0
  2
*U33
 70
     1
 10
0.0
 20
0.0
 30
0.0
  3
*U33
  1

  0
TEXT
  5
4442
  8
1TEXT
 10
2.92314629345401
 20
-40.245444471066477
 30
0.0
 40
2.8576800000000002
  1
6)外観有効面はバフ研磨時、直線とR 及びRとRが滑らかに繋がる様に処理する事。
  0
ENDBLK
  5
4444
  8
0
  0
BLOCK
  8
0
  2
*U34
 70
     1
 10
0.0
 20
0.0
 30
0.0
  3
*U34
  1

  0
TEXT
  5
4446
  8
1TEXT
 10
3.003430943392686
 20
-17.745444471066481
 30
0.0
 40
2.8576800000000002
  1
3)ゲート・P.L・突出しピン・フロー等は、外観有効面を考慮し配置の事。（打合せにより決定）
  0
ENDBLK
  5
4448
  8
0
  0
BLOCK
  8
0
  2
*U35
 70
     1
 10
0.0
 20
0.0
 30
0.0
  3
*U35
  1

  0
TEXT
  5
444A
  8
1TEXT
 10
3.003430943392686
 20
-22.245444471066481
 30
0.0
 40
2.8576800000000002
  1
4)壁面・他部品との接地部分については、真直度・平面度が出るように処理する事。 ｹﾞｰﾄやﾊﾞﾘ等
  0
ENDBLK
  5
444C
  8
0
  0
BLOCK
  8
0
  2
*U36
 70
     1
 10
0.0
 20
0.0
 30
0.0
  3
*U36
  1

  0
TEXT
  5
444E
  8
1TEXT
 10
2.92314629345401
 20
-49.24544447106647
 30
0.0
 40
2.8576800000000002
  1
8)表記寸法は全てクロームめっき後の寸法とする。
  0
ENDBLK
  5
4450
  8
0
  0
BLOCK
  8
0
  2
*U37
 70
     1
 10
0.0
 20
0.0
 30
0.0
  3
*U37
  1

  0
TEXT
  5
4452
  8
1TEXT
 10
6.12293279377809
 20
-36.393522569806279
 30
0.0
 40
2.8576800000000002
  1
0.5°以上必要の場合は、打合せにより決定。特にコネクターとの嵌合時、接触する部分は要注意。
  0
ENDBLK
  5
4454
  8
0
  0
BLOCK
  8
0
  2
*U38
 70
     1
 10
0.0
 20
0.0
 30
0.0
  3
*U38
  1

  0
TEXT
  5
4456
  8
1TEXT
 10
3.0815391307314708
 20
-13.135202732034919
 30
0.0
 40
2.8576800000000002
  1
2)表面処理 :表参照（外観面はバフ研磨後、当社指定メッキ工程に移る）
  0
ENDBLK
  5
4458
  8
0
  0
BLOCK
  8
0
  2
*U39
 70
     1
 10
0.0
 20
0.0
 30
0.0
  3
*U39
  1

  0
TEXT
  5
445A
  8
1TEXT
 10
2.92314629345401
 20
-62.745444471066477
 30
0.0
 40
2.8576800000000002
  1
11)バリ、傷、鋳巣の無い事。タップ部は、メッキ工程後再確認の事。
  0
ENDBLK
  5
445C
  8
0
  0
BLOCK
  8
0
  2
*U40
 70
     1
 10
0.0
 20
0.0
 30
0.0
  3
*U40
  1

  0
TEXT
  5
445E
  8
1TEXT
 10
2.92314629345401
 20
-67.245444471066477
 30
0.0
 40
2.8576800000000002
  1
12)限度見本設定管理の事。
  0
ENDBLK
  5
4460
  8
0
  0
BLOCK
  8
0
  2
*U41
 70
     1
 10
0.0
 20
0.0
 30
0.0
  3
*U41
  1

  0
TEXT
  5
4462
  8
1TEXT
 10
3.0056454802902399
 20
-71.745444471066463
 30
0.0
 40
2.8576800000000002
  1
13)許可無き仕様変更は不可とする。
  0
ENDBLK
  5
4464
  8
0
  0
BLOCK
  8
0
  2
*U42
 70
     1
 10
0.0
 20
0.0
 30
0.0
  3
*U42
  1

  0
TEXT
  5
4466
  8
1TEXT
 10
2.9892403061171531
 20
-76.245444471066463
 30
0.0
 40
2.8576800000000002
  1
14)特記無き寸法公差は表参照の事。
  0
ENDBLK
  5
4468
  8
0
  0
BLOCK
  8
0
  2
*U43
 70
     1
 10
0.0
 20
0.0
 30
0.0
  3
*U43
  1

  0
TEXT
  5
446A
  8
1TEXT
 10
2.9728351319431559
 20
-80.745444471066477
 30
0.0
 40
2.8576800000000002
  1
15)機械加工を行う場合、寸法が変化しないように注意の事。
  0
ENDBLK
  5
446C
  8
0
  0
BLOCK
  8
0
  2
*U44
 70
     1
 10
0.0
 20
0.0
 30
0.0
  3
*U44
  1

  0
TEXT
  5
446E
  8
1TEXT
 10
2.9728351319431559
 20
-85.245444471066463
 30
0.0
 40
2.8576800000000002
  1
16)外観形状は、3Dデータに基き製作の事。
  0
ENDBLK
  5
4470
  8
0
  0
BLOCK
  8
0
  2
*U45
 70
     1
 10
0.0
 20
0.0
 30
0.0
  3
*U45
  1

  0
TEXT
  5
4472
  8
1TEXT
 10
3.5388586074950581
 20
-8.6247452577785406
 30
0.0
 40
2.8576800000000002
  1
1)材質 :亜鉛合金ダイカスト(JIS:ZDC2相当)
  0
ENDBLK
  5
4474
  8
0
  0
BLOCK
  8
0
  2
*U46
 70
     1
 10
0.0
 20
0.0
 30
0.0
  3
*U46
  1

  0
TEXT
  5
4476
  8
1TEXT
 10
0.0
 20
-4.0823999999999989
 30
0.0
 40
4.0823999999999989
  1
注記
  0
ENDBLK
  5
4478
  8
0
  0
BLOCK
  8
0
  2
*U47
 70
     1
 10
0.0
 20
0.0
 30
0.0
  3
*U47
  1

  0
TEXT
  5
447A
  8
1TEXT
 10
19.133333333333329
 20
29.18712996968091
 30
0.0
 40
3.2000000000000002
  1
10
  0
ENDBLK
  5
447C
  8
0
  0
BLOCK
  8
0
  2
*U48
 70
     1
 10
0.0
 20
0.0
 30
0.0
  3
*U48
  1

  0
TEXT
  5
447E
  8
1TEXT
 10
17.586666666666659
 20
34.787129969680869
 30
0.0
 40
3.2000000000000002
  1
以下
  0
ENDBLK
  5
4480
  8
0
  0
BLOCK
  8
0
  2
*U49
 70
     1
 10
0.0
 20
0.0
 30
0.0
  3
*U49
  1

  0
TEXT
  5
4482
  8
1TEXT
 10
18.333333333333329
 20
17.987129969680922
 30
0.0
 40
3.2000000000000002
  1
25
  0
ENDBLK
  5
4484
  8
0
  0
BLOCK
  8
0
  2
*U50
 70
     1
 10
0.0
 20
0.0
 30
0.0
  3
*U50
  1

  0
TEXT
  5
4486
  8
1TEXT
 10
18.86666666666666
 20
23.587129969680891
 30
0.0
 40
3.2000000000000002
  1
16
  0
ENDBLK
  5
4488
  8
0
  0
BLOCK
  8
0
  2
*U51
 70
     1
 10
0.0
 20
0.0
 30
0.0
  3
*U51
  1

  0
TEXT
  5
448A
  8
1TEXT
 10
13.04945458036701
 20
40.673253733800912
 30
0.0
 40
3.2000000000000002
  1
特記なき寸法公差
  0
ENDBLK
  5
448C
  8
0
  0
BLOCK
  8
0
  2
*U52
 70
     1
 10
0.0
 20
0.0
 30
0.0
  3
*U52
  1

  0
TEXT
  5
448E
  8
1TEXT
 10
17.800000000000001
 20
1.187129969680905
 30
0.0
 40
3.2000000000000002
  1
100
  0
ENDBLK
  5
4490
  8
0
  0
BLOCK
  8
0
  2
*U53
 70
     1
 10
0.0
 20
0.0
 30
0.0
  3
*U53
  1

  0
TEXT
  5
4492
  8
1TEXT
 10
18.333333333333329
 20
6.78712996968087
 30
0.0
 40
3.2000000000000002
  1
63
  0
ENDBLK
  5
4494
  8
0
  0
BLOCK
  8
0
  2
*U54
 70
     1
 10
0.0
 20
0.0
 30
0.0
  3
*U54
  1

  0
TEXT
  5
4496
  8
1TEXT
 10
18.600000000000001
 20
12.38712996968089
 30
0.0
 40
3.2000000000000002
  1
40
  0
ENDBLK
  5
4498
  8
0
  0
BLOCK
  8
0
  2
*U55
 70
     1
 10
0.0
 20
0.0
 30
0.0
  3
*U55
  1

  0
TEXT
  5
449A
  8
1TEXT
 10
4.333333333333333
 20
1.1871299696809039
 30
0.0
 40
3.2000000000000002
  1
63
  0
ENDBLK
  5
449C
  8
0
  0
BLOCK
  8
0
  2
*U56
 70
     1
 10
0.0
 20
0.0
 30
0.0
  3
*U56
  1

  0
TEXT
  5
449E
  8
1TEXT
 10
4.8666666666666671
 20
17.987129969680922
 30
0.0
 40
3.2000000000000002
  1
16
  0
ENDBLK
  5
44A0
  8
0
  0
BLOCK
  8
0
  2
*U57
 70
     1
 10
0.0
 20
0.0
 30
0.0
  3
*U57
  1

  0
TEXT
  5
44A2
  8
1TEXT
 10
5.1333333333333329
 20
23.587129969680891
 30
0.0
 40
3.2000000000000002
  1
10
  0
ENDBLK
  5
44A4
  8
0
  0
BLOCK
  8
0
  2
*U58
 70
     1
 10
0.0
 20
0.0
 30
0.0
  3
*U58
  1

  0
TEXT
  5
44A6
  8
1TEXT
 10
4.5999999999999988
 20
6.78712996968087
 30
0.0
 40
3.2000000000000002
  1
40
  0
ENDBLK
  5
44A8
  8
0
  0
BLOCK
  8
0
  2
*U59
 70
     1
 10
0.0
 20
0.0
 30
0.0
  3
*U59
  1

  0
TEXT
  5
44AA
  8
1TEXT
 10
4.333333333333333
 20
12.38712996968089
 30
0.0
 40
3.2000000000000002
  1
25
  0
ENDBLK
  5
44AC
  8
0
  0
BLOCK
  8
0
  2
*U60
 70
     1
 10
0.0
 20
0.0
 30
0.0
  3
*U60
  1

  0
TEXT
  5
44AE
  8
1TEXT
 10
5.9333333333333327
 20
29.18712996968091
 30
0.0
 40
3.2000000000000002
  1
-
  0
ENDBLK
  5
44B0
  8
0
  0
BLOCK
  8
0
  2
*U61
 70
     1
 10
0.0
 20
0.0
 30
0.0
  3
*U61
  1

  0
TEXT
  5
44B2
  8
1TEXT
 10
1.6666666666666641
 20
34.787129969680869
 30
0.0
 40
3.2000000000000002
  1
を超え
  0
ENDBLK
  5
44B4
  8
0
  0
BLOCK
  8
0
  2
*U62
 70
     1
 10
0.0
 20
0.0
 30
0.0
  3
*U62
  1

  0
TEXT
  5
44B6
  8
1TEXT
 10
37.466666666666669
 20
1.412748506776289
 30
0.0
 40
3.2000000000000002
  1
±0.2
  0
ENDBLK
  5
44B8
  8
0
  0
BLOCK
  8
0
  2
*U63
 70
     1
 10
0.0
 20
0.0
 30
0.0
  3
*U63
  1

  0
TEXT
  5
44BA
  8
1TEXT
 10
36.399999999999999
 20
29.412748506776289
 30
0.0
 40
3.2000000000000002
  1
±0.13
  0
ENDBLK
  5
44BC
  8
0
  0
BLOCK
  8
0
  2
*U64
 70
     1
 10
0.0
 20
0.0
 30
0.0
  3
*U64
  1

  0
TEXT
  5
44BE
  8
1TEXT
 10
34.440076937850471
 20
34.800000000000033
 30
0.0
 40
3.2000000000000002
  1
寸法公差
  0
ENDBLK
  5
44C0
  8
0
  0
BLOCK
  8
0
  2
*U65
 70
     1
 10
0.0
 20
0.0
 30
0.0
  3
*U65
  1

  0
TEXT
  5
44C2
  8
1TEXT
 10
36.399999999999999
 20
18.2127485067763
 30
0.0
 40
3.2000000000000002
  1
±0.15
  0
ENDBLK
  5
44C4
  8
0
  0
BLOCK
  8
0
  2
*U66
 70
     1
 10
0.0
 20
0.0
 30
0.0
  3
*U66
  1

  0
TEXT
  5
44C6
  8
1TEXT
 10
36.399999999999999
 20
23.81274850677627
 30
0.0
 40
3.2000000000000002
  1
±0.14
  0
ENDBLK
  5
44C8
  8
0
  0
BLOCK
  8
0
  2
*U67
 70
     1
 10
0.0
 20
0.0
 30
0.0
  3
*U67
  1

  0
TEXT
  5
44CA
  8
1TEXT
 10
36.399999999999999
 20
7.0127485067763118
 30
0.0
 40
3.2000000000000002
  1
±0.18
  0
ENDBLK
  5
44CC
  8
0
  0
BLOCK
  8
0
  2
*U68
 70
     1
 10
0.0
 20
0.0
 30
0.0
  3
*U68
  1

  0
TEXT
  5
44CE
  8
1TEXT
 10
36.399999999999999
 20
12.612748506776279
 30
0.0
 40
3.2000000000000002
  1
±0.16
  0
ENDBLK
  5
44D0
  8
0
  0
BLOCK
  8
0
  2
*U69
 70
     1
 10
0.0
 20
0.0
 30
0.0
  3
*U69
  1

  0
LINE
  5
44D2
  8
0
 10
-29.999999999837598
 20
0.0000465358979227
 30
0.0
 11
-24.700003489975941
 21
-1.4999534641020771
 31
0.0
  0
LINE
  5
44D3
  8
0
 10
-24.700003489975941
 20
-1.4999534641020771
 30
0.0
 11
-0.0000034900840618
 21
-1.499953464101849
 31
0.0
  0
LINE
  5
44D4
  8
0
 10
-29.999999999837598
 20
0.0000465358979227
 30
0.0
 11
-24.6999965095923
 21
1.5000465358980359
 31
0.0
  0
LINE
  5
44D5
  8
0
 10
-0.0000081437821464
 20
-3.4999999999998859
 30
0.0
 11
-0.0000034900840618
 21
-1.499953464101849
 31
0.0
  0
LINE
  5
44D6
  8
0
 10
-24.6999965095923
 20
1.5000465358980359
 30
0.0
 11
0.0000034903006139
 21
1.500046535897922
 31
0.0
  0
LINE
  5
44D7
  8
0
 10
-0.0000081437821464
 20
-3.4999999999998859
 30
0.0
 11
1.0999953464131731
 21
-3.5
 31
0.0
  0
LINE
  5
44D8
  8
0
 10
0.0000034903006139
 20
1.500046535897922
 30
0.0
 11
0.0000081437821322
 21
3.5
 31
0.0
  0
ARC
  5
44D9
  8
0
 10
1.0999953464131731
 20
-2.0
 30
0.0
 40
1.5
 50
270.0
 51
359.99986668447059
  0
LINE
  5
44DA
  8
0
 10
0.0000081437821322
 20
3.5
 30
0.0
 11
1.100004653592769
 21
3.5
 31
0.0
  0
LINE
  5
44DB
  8
0
 10
2.5999953464091159
 20
-2.0000034901923982
 30
0.0
 11
2.6000046535887051
 21
1.9999965098076009
 31
0.0
  0
ARC
  5
44DC
  8
0
 10
1.100004653592769
 20
2.0
 30
0.0
 40
1.5
 50
359.99986668447059
 51
90.0
  0
ENDBLK
  5
44DE
  8
0
  0
BLOCK
  8
0
  2
*U70
 70
     1
 10
0.0
 20
0.0
 30
0.0
  3
*U70
  1

  0
TEXT
  5
44E0
  8
0
 62
   201
 10
402.49352849429471
 20
672.70964048834276
 30
0.0
 40
3.5
  1
R0.5
 50
28.973484893571872
  0
ENDBLK
  5
44E2
  8
0
  0
BLOCK
  8
0
  2
*U71
 70
     1
 10
0.0
 20
0.0
 30
0.0
  3
*U71
  1

  0
TEXT
  5
44E4
  8
0
 62
   201
 10
387.22437513958067
 20
673.43640134522695
 30
0.0
 40
3.5
  1
4
  0
ENDBLK
  5
44E6
  8
0
  0
BLOCK
  8
0
  2
*U72
 70
     1
 10
0.0
 20
0.0
 30
0.0
  3
*U72
  1

  0
TEXT
  5
44E8
  8
0
 62
   201
 10
390.5564185695041
 20
667.23002619554825
 30
0.0
 40
3.5
  1
3
 50
90.0
  0
ENDBLK
  5
44EA
  8
0
  0
BLOCK
  8
0
  2
*U73
 70
     1
 10
0.0
 20
0.0
 30
0.0
  3
*U73
  1

  0
TEXT
  5
44F1
  8
1DIM
 62
   201
 10
18.305173519538581
 20
-15.61666130507364
 30
0.0
 40
2.5
  1
二文字
  0
TEXT
  5
44F2
  8
1DIM
 62
   201
 10
16.805173519538581
 20
-19.783327971740309
 30
0.0
 40
2.5
  1
（別途指定）
  0
TEXT
  5
44F3
  8
1DIM
 62
   201
 10
18.305173519538581
 20
-23.949994638406981
 30
0.0
 40
2.5
  1
天地 約1.8
  0
TEXT
  5
44F4
  8
1DIM
 62
   201
 10
18.305173519538581
 20
-28.116661305073649
 30
0.0
 40
2.5
  1
凸0.2
  0
ENDBLK
  5
44F6
  8
0
  0
BLOCK
  8
0
  2
*U74
 70
     1
 10
0.0
 20
0.0
 30
0.0
  3
*U74
  1

  0
INSERT
  5
44F8
  8
1DIM
  2
_OPEN30
 10
14.4103255879545
 20
-14.624089158227431
 30
0.0
 41
1.399999999999999
 42
1.399999999999999
 43
1.399999999999999
 50
98.159565912905407
  0
POLYLINE
  5
44F9
  8
1DIM
 66
     1
 10
0.0
 20
0.0
 30
0.0
  0
VERTEX
  5
44FA
  8
1DIM
 10
14.60902815536398
 20
-16.009916452555579
 30
0.0
  0
VERTEX
  5
44FB
  8
1DIM
 10
16.415173519538591
 20
-28.606661305073651
 30
0.0
  0
VERTEX
  5
44FC
  8
1DIM
 10
32.971840186205249
 20
-28.606661305073651
 30
0.0
  0
SEQEND
  5
44FD
  8
1DIM
  0
ENDBLK
  5
44FF
  8
0
  0
BLOCK
  8
0
  2
*U75
 70
     1
 10
0.0
 20
0.0
 30
0.0
  3
*U75
  1

  0
INSERT
  5
4501
  8
1DIM
  2
_OPEN30
 10
12.45758654450947
 20
-14.64446772310475
 30
0.0
 41
1.399999999999999
 42
1.399999999999999
 43
1.399999999999999
 50
79.831190492106685
  0
POLYLINE
  5
4502
  8
1DIM
 66
     1
 10
0.0
 20
0.0
 30
0.0
  0
VERTEX
  5
4503
  8
1DIM
 10
12.21041802729375
 20
-16.02247633124092
 30
0.0
  0
VERTEX
  5
4504
  8
1DIM
 10
10.586991350720661
 20
-25.07336986815206
 30
0.0
  0
VERTEX
  5
4505
  8
1DIM
 10
1.2803246840539939
 20
-25.07336986815206
 30
0.0
  0
SEQEND
  5
4506
  8
1DIM
  0
ENDBLK
  5
4508
  8
0
  0
BLOCK
  8
0
  2
*U76
 70
     1
 10
0.0
 20
0.0
 30
0.0
  3
*U76
  1

  0
TEXT
  5
450A
  8
1DIM
 62
   201
 10
1.280324684053993
 20
-20.41670320148539
 30
0.0
 40
2.5
  1
枠
  0
TEXT
  5
450B
  8
1DIM
 62
   201
 10
1.1136580173873269
 20
-24.583369868152062
 30
0.0
 40
2.5
  1
凹0.3
  0
ENDBLK
  5
450D
  8
0
  0
BLOCK
  8
0
  2
*U77
 70
     1
 10
0.0
 20
0.0
 30
0.0
  3
*U77
  1

  0
LINE
  5
450F
  8
0
 10
-23.468911086754559
 20
-1.75
 30
0.0
 11
0.0000000000000284
 21
-1.75
 31
0.0
  0
LINE
  5
4510
  8
0
 10
0.0000000000000284
 20
-1.75
 30
0.0
 11
0.0000000000000284
 21
-4.5
 31
0.0
  0
LINE
  5
4511
  8
0
 10
-29.999999999999972
 20
0.0
 30
0.0
 11
-23.468911086754559
 21
-1.75
 31
0.0
  0
LINE
  5
4512
  8
0
 10
0.0000000000000284
 20
-4.5
 30
0.0
 11
0.7999999999998125
 21
-4.5
 31
0.0
  0
LINE
  5
4513
  8
0
 10
-29.999999999999972
 20
0.0
 30
0.0
 11
-23.468911086754499
 21
1.75
 31
0.0
  0
ARC
  5
4514
  8
0
 10
0.8000000000000113
 20
-2.0
 30
0.0
 40
2.5
 50
269.9999999999954
 51
0.0
  0
LINE
  5
4515
  8
0
 10
-23.468911086754499
 20
1.75
 30
0.0
 11
0.0000000000000284
 21
1.75
 31
0.0
  0
LINE
  5
4516
  8
0
 10
3.3000000000000389
 20
2.0
 30
0.0
 11
3.3000000000000109
 21
-2.0
 31
0.0
  0
LINE
  5
4517
  8
0
 10
0.0000000000000284
 20
4.5
 30
0.0
 11
0.0000000000000284
 21
1.75
 31
0.0
  0
ARC
  5
4518
  8
0
 10
0.8000000000000397
 20
2.0
 30
0.0
 40
2.5
 50
0.0
 51
90.0
  0
LINE
  5
4519
  8
0
 10
0.0000000000000284
 20
4.5
 30
0.0
 11
0.8000000000000397
 21
4.5
 31
0.0
  0
ENDBLK
  5
451B
  8
0
  0
BLOCK
  8
0
  2
*U78
 70
     1
 10
0.0
 20
0.0
 30
0.0
  3
*U78
  1

  0
TEXT
  5
451D
  8
1DIM
 62
   201
 10
90.593843109807864
 20
137.5126432107586
 30
0.0
 40
3.5
  1
φ28
 50
90.0
  0
ENDBLK
  5
451F
  8
0
  0
BLOCK
  8
0
  2
*U79
 70
     1
 10
0.0
 20
0.0
 30
0.0
  3
*U79
  1

  0
TEXT
  5
4521
  8
1DIM
 62
   201
 10
98.593843109807864
 20
138.09592321213199
 30
0.0
 40
3.5
  1
φ21
 50
90.0
  0
ENDBLK
  5
4523
  8
0
  0
BLOCK
  8
0
  2
*U80
 70
     1
 10
0.0
 20
0.0
 30
0.0
  3
*U80
  1

  0
TEXT
  5
4525
  8
1DIM
 62
   201
 10
145.87717686236309
 20
184.87482471063819
 30
0.0
 40
3.5
  1
47
  0
ENDBLK
  5
4527
  8
0
  0
BLOCK
  8
0
  2
*U81
 70
     1
 10
0.0
 20
0.0
 30
0.0
  3
*U81
  1

  0
TEXT
  5
4529
  8
1DIM
 62
   201
 10
209.320861580328
 20
147.5459765440919
 30
0.0
 40
3.5
  1
14
 50
90.0
  0
ENDBLK
  5
452B
  8
0
  0
BLOCK
  8
0
  2
*U82
 70
     1
 10
0.0
 20
0.0
 30
0.0
  3
*U82
  1

  0
TEXT
  5
452D
  8
1DIM1
 62
   201
 10
106.23423778094021
 20
138.095976544092
 30
0.0
 40
3.5
  1
φ13
 50
90.0
  0
ENDBLK
  5
452F
  8
0
  0
ENDSEC
  0
SECTION
  2
ENTITIES
  0
LINE
  5
19FD
  8
1CENTER
 10
59.293843948252217
 20
175.3716593634843
 30
0.0
 11
59.293843948252217
 21
233.25294437380131
 31
0.0
  0
LINE
  5
1A01
  8
01
 10
45.293843948252217
 20
228.4155355934856
 30
0.0
 11
73.293843948252231
 21
228.4155355934856
 31
0.0
  0
LINE
  5
1A02
  8
01
 10
51.29384394825211
 20
193.4155355934856
 30
0.0
 11
67.293843948250895
 21
193.4155355934856
 31
0.0
  0
ARC
  5
1A03
  8
01
 10
67.293843948250895
 20
193.9155355934856
 30
0.0
 40
0.5
 50
270.00000000000011
 51
0.0
  0
LINE
  5
1A06
  8
01
 10
45.793843948252217
 20
224.9155355934883
 30
0.0
 11
72.793843948252203
 21
224.9155355934856
 31
0.0
  0
LINE
  5
1A07
  8
01
 10
45.293843948252217
 20
225.4155355934883
 30
0.0
 11
45.293843948252217
 21
228.4155355934856
 31
0.0
  0
ARC
  5
1A08
  8
01
 10
45.793843948252217
 20
225.4155355934883
 30
0.0
 40
0.5
 50
180.0
 51
270.0
  0
LINE
  5
1A09
  8
01
 10
50.793843948252139
 20
224.9155355934883
 30
0.0
 11
50.79384394825211
 21
193.9155355934856
 31
0.0
  0
ARC
  5
1A0A
  8
01
 10
51.29384394825211
 20
193.9155355934856
 30
0.0
 40
0.5
 50
180.0
 51
270.0
  0
LINE
  5
1A0F
  8
01
 10
67.793843948250895
 20
224.9155355934856
 30
0.0
 11
67.793843948250895
 21
193.9155355934856
 31
0.0
  0
LINE
  5
1A10
  8
01
 10
73.293843948252203
 20
225.4155355934856
 30
0.0
 11
73.293843948252231
 21
228.4155355934856
 31
0.0
  0
ARC
  5
1A11
  8
01
 10
72.793843948252203
 20
225.4155355934856
 30
0.0
 40
0.5
 50
270.0
 51
0.0
  0
CIRCLE
  5
1A3C
  8
01
 10
59.29384394825172
 20
142.85785118810119
 30
0.0
 40
14.0
  0
LINE
  5
1C5C
  8
1CENTER
 10
121.99312825266129
 20
142.87930987742519
 30
0.0
 11
177.1312527285672
 21
142.87930987742519
 31
0.0
  0
LINE
  5
1C5E
  8
01
 10
172.29384394825161
 20
156.87930987742519
 30
0.0
 11
172.29384394825161
 21
128.87930987742519
 31
0.0
  0
LINE
  5
1C60
  8
01
 10
137.29384394825161
 20
150.8793098774253
 30
0.0
 11
137.29384394825161
 21
134.87930987742661
 31
0.0
  0
ARC
  5
1C61
  8
01
 10
137.79384394825161
 20
134.87930987742661
 30
0.0
 40
0.5
 50
180.0
 51
270.0
  0
LINE
  5
1C63
  8
1HIDDEN
 10
55.02238525892809
 20
224.91553559348699
 30
0.0
 11
59.272385258928203
 21
224.91553559348699
 31
0.0
  0
LINE
  5
1C65
  8
01
 10
168.79384394825419
 20
156.37930987742519
 30
0.0
 11
168.79384394825161
 21
129.37930987742519
 31
0.0
  0
LINE
  5
1C66
  8
01
 10
169.29384394825419
 20
156.87930987742519
 30
0.0
 11
172.29384394825161
 21
156.87930987742519
 31
0.0
  0
ARC
  5
1C68
  8
01
 10
169.29384394825419
 20
156.37930987742519
 30
0.0
 40
0.5
 50
90.0
 51
180.0
  0
LINE
  5
1C69
  8
01
 10
168.79384394825419
 20
151.3793098774253
 30
0.0
 11
137.79384394825161
 21
151.3793098774253
 31
0.0
  0
ARC
  5
1C6A
  8
01
 10
137.79384394825161
 20
150.8793098774253
 30
0.0
 40
0.5
 50
90.0
 51
180.0
  0
LINE
  5
1C6C
  8
1HIDDEN
 10
57.022385258928203
 20
228.41553559348691
 30
0.0
 11
57.022385258928203
 21
224.91553559348699
 31
0.0
  0
LINE
  5
1C70
  8
01
 10
168.79384394825161
 20
134.37930987742661
 30
0.0
 11
137.79384394825161
 21
134.37930987742661
 31
0.0
  0
LINE
  5
1C71
  8
01
 10
169.29384394825149
 20
128.87930987742519
 30
0.0
 11
172.29384394825161
 21
128.87930987742519
 31
0.0
  0
ARC
  5
1C72
  8
01
 10
169.29384394825149
 20
129.37930987742519
 30
0.0
 40
0.5
 50
180.0
 51
270.0
  0
LINE
  5
1D03
  8
1HIDDEN
 10
63.522385258928317
 20
224.91553559348699
 30
0.0
 11
59.272385258928203
 21
224.91553559348699
 31
0.0
  0
LINE
  5
1D06
  8
1HIDDEN
 10
61.522385258928203
 20
228.41553559348691
 30
0.0
 11
61.522385258928203
 21
224.91553559348699
 31
0.0
  0
LINE
  5
3E80
  8
01
 10
49.29384394825211
 20
186.4155355934856
 30
0.0
 11
69.293843948252231
 21
186.4155355934856
 31
0.0
  0
ARC
  5
3E81
  8
01
 10
66.29384394825226
 20
186.9155355934856
 30
0.0
 40
0.5
 50
180.0
 51
270.0
  0
ARC
  5
3E82
  8
01
 10
69.29384394825226
 20
185.9155355934856
 30
0.0
 40
0.5
 50
0.0
 51
90.0
  0
ARC
  5
3E83
  8
01
 10
49.293843948252132
 20
185.9155355934856
 30
0.0
 40
0.5
 50
90.0
 51
180.0
  0
LINE
  5
3E8D
  8
01
 10
69.793897280212235
 20
182.0972292474741
 30
0.0
 11
69.793843948252231
 21
185.9155355934856
 31
0.0
  0
LINE
  5
3E8E
  8
01
 10
48.793897280212093
 20
182.09879214580531
 30
0.0
 11
48.79384394825211
 21
185.9155355934856
 31
0.0
  0
LINE
  5
3E94
  8
01
 10
65.793843948252231
 20
186.9155355934856
 30
0.0
 11
65.793843948252203
 21
193.4155355934856
 31
0.0
  0
LINE
  5
3E97
  8
01
 10
52.793843948252217
 20
186.9155355934856
 30
0.0
 11
52.793843948252189
 21
193.4155355934856
 31
0.0
  0
ARC
  5
3E98
  8
01
 10
52.293843948252253
 20
186.9155355934856
 30
0.0
 40
0.5
 50
270.0
 51
0.0
  0
ARC
  5
3EA8
  8
01
 10
59.315302637576274
 20
456.01675432764938
 30
0.0
 40
274.60121957260748
 50
267.90474398927898
 51
272.08630126292098
  0
ARC
  5
3EA9
  8
01
 10
49.2938972802121
 20
182.09879214580531
 30
0.0
 40
0.5
 50
180.0
 51
267.90474398928222
  0
ARC
  5
3EAA
  8
01
 10
69.293897280212235
 20
182.0972292474741
 30
0.0
 40
0.5
 50
272.08630126291268
 51
0.0
  0
CIRCLE
  5
3EB4
  8
01
 10
59.29384394825172
 20
142.85785118810119
 30
0.0
 40
10.499999999999609
  0
LINE
  5
3EB5
  8
01
 10
130.29384394825161
 20
152.8793098774253
 30
0.0
 11
130.29384394825161
 21
132.87930987742519
 31
0.0
  0
ARC
  5
3EB6
  8
01
 10
130.79384394825161
 20
135.87930987742519
 30
0.0
 40
0.5
 50
90.0
 51
180.0
  0
ARC
  5
3EB7
  8
01
 10
129.79384394825161
 20
132.87930987742519
 30
0.0
 40
0.5
 50
270.0
 51
0.0
  0
ARC
  5
3EB8
  8
01
 10
129.79384394825161
 20
152.8793098774253
 30
0.0
 40
0.5
 50
0.0
 51
90.0
  0
LINE
  5
3EB9
  8
01
 10
125.9755376022401
 20
132.37925654546521
 30
0.0
 11
129.79384394825161
 21
132.37930987742519
 31
0.0
  0
LINE
  5
3EBA
  8
01
 10
125.9771005005713
 20
153.3792565454653
 30
0.0
 11
129.79384394825161
 21
153.3793098774253
 31
0.0
  0
LINE
  5
3EBB
  8
01
 10
130.79384394825161
 20
136.37930987742519
 30
0.0
 11
137.29384394825161
 21
136.3793098774253
 31
0.0
  0
LINE
  5
3EBC
  8
01
 10
130.79384394825161
 20
149.37930987742519
 30
0.0
 11
137.29384394825161
 21
149.37930987742519
 31
0.0
  0
ARC
  5
3EBD
  8
01
 10
130.79384394825161
 20
149.87930987742519
 30
0.0
 40
0.5
 50
180.0
 51
270.0
  0
ARC
  5
3EBE
  8
01
 10
399.89506268241541
 20
142.85785118810119
 30
0.0
 40
274.60121957260748
 50
177.9047439892789
 51
182.0863012629209
  0
ARC
  5
3EBF
  8
01
 10
125.9771005005713
 20
152.87925654546541
 30
0.0
 40
0.5
 50
90.0
 51
177.9047439892822
  0
ARC
  5
3EC0
  8
01
 10
125.9755376022401
 20
132.87925654546521
 30
0.0
 40
0.5
 50
182.08630126291271
 51
270.0
  0
LINE
  5
412F
  8
1CENTER
 10
62.795745483253157
 20
142.85785118810119
 30
0.0
 11
55.791942413250283
 21
142.85785118810119
 31
0.0
  0
LINE
  5
4130
  8
1CENTER
 10
59.29384394825172
 20
146.35975272310259
 30
0.0
 11
59.29384394825172
 21
139.3559496530998
 31
0.0
  0
LINE
  5
4189
  8
01
 10
181.29384394825161
 20
182.87930987742499
 30
0.0
 11
181.29384394825161
 21
102.8793098774255
 31
0.0
  0
LINE
  5
418A
  8
01
 10
190.29384394825161
 20
182.87930987742499
 30
0.0
 11
190.29384394825161
 21
102.8793098774255
 31
0.0
  0
LINE
  5
418B
  8
01
 10
172.29384394825161
 20
182.87930987742499
 30
0.0
 11
172.29384394825161
 21
102.8793098774255
 31
0.0
  0
LINE
  5
41AE
  8
1HIDDEN
 10
168.79384394825161
 20
147.1293098774253
 30
0.0
 11
168.79384394825161
 21
142.87930987742519
 31
0.0
  0
LINE
  5
41AF
  8
1HIDDEN
 10
172.29384394825161
 20
145.12930987742519
 30
0.0
 11
168.79384394825161
 21
145.12930987742519
 31
0.0
  0
LINE
  5
41B0
  8
1HIDDEN
 10
168.79384394825161
 20
138.6293098774251
 30
0.0
 11
168.79384394825161
 21
142.87930987742519
 31
0.0
  0
LINE
  5
41B1
  8
1HIDDEN
 10
172.29384394825161
 20
140.62930987742519
 30
0.0
 11
168.79384394825161
 21
140.62930987742519
 31
0.0
  0
TEXT
  5
41BC
  8
1TEXT
 10
219.04622490063261
 20
126.379309877425
 30
0.0
 40
4.0
  1
表面処理：
 72
     1
 11
229.6938439482517
 21
126.379309877425
 31
0.0
  0
TEXT
  5
41BD
  8
1TEXT
 10
220.36051061491841
 20
119.4014148574407
 30
0.0
 40
4.0
  1
クローム
 72
     1
 11
229.6938439482517
 21
119.4014148574407
 31
0.0
  0
LINE
  5
41BE
  8
1DIM
 10
212.29384394825161
 20
131.87930987742499
 30
0.0
 11
282.29384394825161
 21
131.87930987742499
 31
0.0
  0
LINE
  5
41BF
  8
1DIM
 10
212.29384394825161
 20
117.879309877425
 30
0.0
 11
282.29384394825161
 21
117.879309877425
 31
0.0
  0
LINE
  5
41C0
  8
1DIM
 10
212.29384394825161
 20
124.8793098774251
 30
0.0
 11
282.29384394825161
 21
124.8793098774251
 31
0.0
  0
LINE
  5
41C1
  8
1DIM
 10
247.29384394825161
 20
131.87930987742499
 30
0.0
 11
247.29384394825189
 21
110.879309877425
 31
0.0
  0
TEXT
  5
41C2
  8
1TEXT
 10
251.69384394825221
 20
119.16495289377571
 30
0.0
 40
4.0
  1
SA505XC
 72
     1
 11
264.69384394825209
 21
119.16495289377571
 31
0.0
  0
TEXT
  5
41C3
  8
1TEXT
 10
257.89384394825169
 20
126.379309877425
 30
0.0
 40
4.0
  1
コード
 72
     1
 11
264.6938439482517
 21
126.379309877425
 31
0.0
  0
LINE
  5
41C4
  8
1DIM
 10
212.293843948252
 20
110.879309877425
 30
0.0
 11
212.29384394825161
 21
131.87930987742499
 31
0.0
  0
LINE
  5
41C5
  8
1DIM
 10
282.29384394825189
 20
110.879309877425
 30
0.0
 11
282.29384394825161
 21
131.87930987742499
 31
0.0
  0
TEXT
  5
41C6
  8
1TEXT
 10
-38.32412081715983
 20
292.51946351137281
 30
0.0
 40
8.0
  1
SA505
  0
TEXT
  5
428B
  8
1TEXT
 10
213.42717728158499
 20
112.4014148574407
 30
0.0
 40
4.0
  1
サテンニッケル
 72
     1
 11
229.6938439482517
 21
112.4014148574407
 31
0.0
  0
LINE
  5
428C
  8
1DIM
 10
212.29384394825161
 20
110.879309877425
 30
0.0
 11
282.29384394825161
 21
110.879309877425
 31
0.0
  0
TEXT
  5
428D
  8
1TEXT
 10
251.69384394825221
 20
112.16495289377571
 30
0.0
 40
4.0
  1
SA505XN
 72
     1
 11
264.69384394825209
 21
112.16495289377571
 31
0.0
  0
LINE
  5
4325
  8
1DIM1
 10
134.04384394825161
 20
136.3793098774253
 30
0.0
 11
105.93423778094029
 21
136.3793098774253
 31
0.0
  0
LINE
  5
4326
  8
1DIM1
 10
134.04384394825161
 20
149.37930987742519
 30
0.0
 11
105.93423778094029
 21
149.37930987742519
 31
0.0
  0
LINE
  5
4327
  8
1DIM1
 10
106.93423778094029
 20
138.3793098774253
 30
0.0
 11
106.93423778094029
 21
147.37930987742519
 31
0.0
  0
TEXT
  5
432B
  8
1HATCH
 10
175.94894519064269
 20
203.17115268408921
 30
0.0
 40
3.5
  1
PB
  0
TEXT
  5
4330
  8
1DIM
 10
182.1162896851813
 20
197.1698066669652
 30
0.0
 40
3.5
  1
合板9mm以上
  0
TEXT
  5
4331
  8
1DIM
 10
87.84158523974952
 20
231.50823481027211
 30
0.0
 40
3.5
  1
材質：亜鉛ダイキャスト
  0
TEXT
  5
4332
  8
1DIM
 10
87.84158523974952
 20
225.6749014769388
 30
0.0
 40
3.5
  1
仕上げ：クロームメッキ
  0
TEXT
  5
4335
  8
1DIM
 10
89.793870614232219
 20
210.024631238692
 30
0.0
 40
3.5
  1
材質：亜鉛ダイキャスト
  0
TEXT
  5
4336
  8
1DIM
 10
89.793870614232219
 20
204.1912979053586
 30
0.0
 40
3.5
  1
仕上げ：クロームメッキ
  0
LINE
  5
4339
  8
1PHANTOM
 10
167.7938520920338
 20
146.62930987742519
 30
0.0
 11
168.79384394825161
 21
146.62930987742519
 31
0.0
  0
LINE
  5
433A
  8
1PHANTOM
 10
168.79384394825161
 20
146.62930987742519
 30
0.0
 11
168.79384394825161
 21
139.1293098774253
 31
0.0
  0
LINE
  5
433B
  8
1PHANTOM
 10
168.79384394825161
 20
139.1293098774253
 30
0.0
 11
167.7938520920338
 21
139.1293098774253
 31
0.0
  0
LINE
  5
433C
  8
1PHANTOM
 10
167.7938520920338
 20
139.1293098774253
 30
0.0
 11
167.7938520920338
 21
146.62930987742519
 31
0.0
  0
LINE
  5
433E
  8
1CENTER
 10
200.7547585393977
 20
142.8793098774253
 30
0.0
 11
164.12356753894281
 21
142.8793098774253
 31
0.0
  0
LINE
  5
433F
  8
0
 10
195.6938464944115
 20
143.9736336914203
 30
0.0
 11
196.4938419284625
 21
142.01129860254491
 31
0.0
  0
LINE
  5
4340
  8
0
 10
196.4938419284625
 20
142.01129860254491
 30
0.0
 11
196.80561178471461
 21
142.5995751775873
 31
0.0
  0
LINE
  5
4341
  8
0
 10
173.29384860162151
 20
144.87926334152741
 30
0.0
 11
174.0938392944397
 21
140.87926334152741
 31
0.0
  0
LINE
  5
4342
  8
0
 10
184.4938486016259
 20
144.87926334152741
 30
0.0
 11
185.29383929444839
 21
140.87926334152741
 31
0.0
  0
LINE
  5
4343
  8
0
 10
187.69384860162589
 20
144.87926334152741
 30
0.0
 11
188.49383929444849
 21
140.87926334152741
 31
0.0
  0
LINE
  5
4344
  8
0
 10
188.49383929444849
 20
140.87926334152741
 30
0.0
 11
188.59384045784569
 21
141.37926334152729
 31
0.0
  0
LINE
  5
4345
  8
0
 10
189.19384743822869
 20
144.37926334152741
 30
0.0
 11
189.29384860162591
 21
144.87926334152741
 31
0.0
  0
LINE
  5
4346
  8
0
 10
185.29383929444839
 20
140.87926334152741
 30
0.0
 11
185.3938404578457
 21
141.37926334152729
 31
0.0
  0
LINE
  5
4347
  8
0
 10
186.89383929444861
 20
140.87926334152741
 30
0.0
 11
186.99384045784569
 21
141.37926334152729
 31
0.0
  0
LINE
  5
4348
  8
0
 10
187.59384743822881
 20
144.37926334152741
 30
0.0
 11
187.69384860162589
 21
144.87926334152741
 31
0.0
  0
LINE
  5
4349
  8
0
 10
185.9938474382289
 20
144.37926334152741
 30
0.0
 11
186.09384860162601
 21
144.87926334152741
 31
0.0
  0
LINE
  5
434A
  8
0
 10
186.09384860162601
 20
144.87926334152741
 30
0.0
 11
186.89383929444861
 21
140.87926334152741
 31
0.0
  0
LINE
  5
434B
  8
0
 10
194.89384087485681
 20
141.55848449813811
 30
0.0
 11
195.07660501748481
 21
142.11023396194139
 31
0.0
  0
LINE
  5
434C
  8
0
 10
191.69383929444851
 20
140.87926334152741
 30
0.0
 11
191.79384045784559
 21
141.37926334152729
 31
0.0
  0
LINE
  5
434D
  8
0
 10
190.09383929444849
 20
140.87926334152741
 30
0.0
 11
190.19384045784551
 21
141.37926334152729
 31
0.0
  0
LINE
  5
434E
  8
0
 10
193.2938398212512
 20
141.10567039373129
 30
0.0
 11
193.423110518881
 21
141.64226412900251
 31
0.0
  0
LINE
  5
434F
  8
0
 10
193.98107803566569
 20
143.95834874431861
 30
0.0
 11
194.0938475480157
 21
144.42644719946861
 31
0.0
  0
LINE
  5
4350
  8
0
 10
190.79384743822879
 20
144.37926334152741
 30
0.0
 11
190.8938486016259
 21
144.87926334152741
 31
0.0
  0
LINE
  5
4351
  8
0
 10
192.3938474382287
 20
144.37926334152741
 30
0.0
 11
192.4938486016259
 21
144.87926334152741
 31
0.0
  0
LINE
  5
4352
  8
0
 10
195.54241069797109
 20
143.51646185078931
 30
0.0
 11
195.6938464944115
 21
143.9736336914203
 31
0.0
  0
LINE
  5
4353
  8
0
 10
194.0938475480157
 20
144.42644719946861
 30
0.0
 11
194.89384087485681
 21
141.55848449813811
 31
0.0
  0
LINE
  5
4354
  8
0
 10
190.8938486016259
 20
144.87926334152741
 30
0.0
 11
191.69383929444851
 21
140.87926334152741
 31
0.0
  0
LINE
  5
4355
  8
0
 10
192.4938486016259
 20
144.87926334152741
 30
0.0
 11
193.2938398212512
 21
141.10567039373129
 31
0.0
  0
LINE
  5
4356
  8
0
 10
189.29384860162591
 20
144.87926334152741
 30
0.0
 11
190.09383929444849
 21
140.87926334152741
 31
0.0
  0
LINE
  5
4357
  8
0
 10
176.49384860162149
 20
144.87926334152741
 30
0.0
 11
177.29383929443981
 21
140.87926334152741
 31
0.0
  0
LINE
  5
4358
  8
0
 10
177.29383929443981
 20
140.87926334152741
 30
0.0
 11
177.39384045783751
 21
141.37926334152729
 31
0.0
  0
LINE
  5
4359
  8
0
 10
177.99384743822819
 20
144.37926334152741
 30
0.0
 11
178.09384860162589
 21
144.87926334152741
 31
0.0
  0
LINE
  5
435A
  8
0
 10
175.69383929443961
 20
140.87926334152741
 30
0.0
 11
175.79384045783729
 21
141.37926334152729
 31
0.0
  0
LINE
  5
435B
  8
0
 10
174.0938392944397
 20
140.87926334152741
 30
0.0
 11
174.19384045783741
 21
141.37926334152729
 31
0.0
  0
LINE
  5
435C
  8
0
 10
176.3938474382239
 20
144.37926334152741
 30
0.0
 11
176.49384860162149
 21
144.87926334152741
 31
0.0
  0
LINE
  5
435D
  8
0
 10
174.79384743822371
 20
144.37926334152741
 30
0.0
 11
174.89384860162139
 21
144.87926334152741
 31
0.0
  0
LINE
  5
435E
  8
0
 10
174.89384860162139
 20
144.87926334152741
 30
0.0
 11
175.69383929443961
 21
140.87926334152741
 31
0.0
  0
LINE
  5
435F
  8
0
 10
182.09383929444419
 20
140.87926334152741
 30
0.0
 11
182.1938404578419
 21
141.37926334152729
 31
0.0
  0
LINE
  5
4360
  8
0
 10
183.69383929444851
 20
140.87926334152741
 30
0.0
 11
183.79384045784559
 21
141.37926334152729
 31
0.0
  0
LINE
  5
4361
  8
0
 10
178.89383929444409
 20
140.87926334152741
 30
0.0
 11
178.9938404578418
 21
141.37926334152729
 31
0.0
  0
LINE
  5
4362
  8
0
 10
180.49383929444409
 20
140.87926334152741
 30
0.0
 11
180.59384045784171
 21
141.37926334152729
 31
0.0
  0
LINE
  5
4363
  8
0
 10
184.3938474382287
 20
144.37926334152741
 30
0.0
 11
184.4938486016259
 21
144.87926334152741
 31
0.0
  0
LINE
  5
4364
  8
0
 10
182.7938474382282
 20
144.37926334152741
 30
0.0
 11
182.8938486016259
 21
144.87926334152741
 31
0.0
  0
LINE
  5
4365
  8
0
 10
179.5938474382281
 20
144.37926334152741
 30
0.0
 11
179.6938486016258
 21
144.87926334152741
 31
0.0
  0
LINE
  5
4366
  8
0
 10
181.1938474382282
 20
144.37926334152741
 30
0.0
 11
181.29384860162591
 21
144.87926334152741
 31
0.0
  0
LINE
  5
4367
  8
0
 10
181.29384860162591
 20
144.87926334152741
 30
0.0
 11
182.09383929444419
 21
140.87926334152741
 31
0.0
  0
LINE
  5
4368
  8
0
 10
182.8938486016259
 20
144.87926334152741
 30
0.0
 11
183.69383929444851
 21
140.87926334152741
 31
0.0
  0
LINE
  5
4369
  8
0
 10
179.6938486016258
 20
144.87926334152741
 30
0.0
 11
180.49383929444409
 21
140.87926334152741
 31
0.0
  0
LINE
  5
436A
  8
0
 10
178.09384860162589
 20
144.87926334152741
 30
0.0
 11
178.89383929444409
 21
140.87926334152741
 31
0.0
  0
LINE
  5
436B
  8
0
 10
167.79384045795109
 20
141.37926334152729
 30
0.0
 11
167.7938474383358
 21
144.37926334152709
 31
0.0
  0
LINE
  5
436C
  8
0
 10
168.39384743821969
 20
144.37926334152741
 30
0.0
 11
168.49384860161729
 21
144.87926334152741
 31
0.0
  0
LINE
  5
436D
  8
0
 10
168.49384860161729
 20
144.87926334152741
 30
0.0
 11
169.2938392944356
 21
140.87926334152741
 31
0.0
  0
LINE
  5
436E
  8
0
 10
169.2938392944356
 20
140.87926334152741
 30
0.0
 11
169.39384045783319
 21
141.37926334152729
 31
0.0
  0
LINE
  5
436F
  8
0
 10
169.99384743821949
 20
144.37926334152741
 30
0.0
 11
170.0938486016172
 21
144.87926334152741
 31
0.0
  0
LINE
  5
4370
  8
0
 10
171.59384743821951
 20
144.37926334152741
 30
0.0
 11
171.69384860161711
 21
144.87926334152741
 31
0.0
  0
LINE
  5
4371
  8
0
 10
171.69384860161711
 20
144.87926334152741
 30
0.0
 11
172.49383929443539
 21
140.87926334152741
 31
0.0
  0
LINE
  5
4372
  8
0
 10
170.89383929443551
 20
140.87926334152741
 30
0.0
 11
170.99384045783319
 21
141.37926334152729
 31
0.0
  0
LINE
  5
4373
  8
0
 10
172.49383929443539
 20
140.87926334152741
 30
0.0
 11
172.5938404578331
 21
141.37926334152729
 31
0.0
  0
LINE
  5
4374
  8
0
 10
170.0938486016172
 20
144.87926334152741
 30
0.0
 11
170.89383929443551
 21
140.87926334152741
 31
0.0
  0
LINE
  5
4375
  8
0
 10
173.1938474382238
 20
144.37926334152741
 30
0.0
 11
173.29384860162151
 21
144.87926334152741
 31
0.0
  0
LINE
  5
4376
  8
1DIM
 10
172.29384394825161
 20
156.87930987742519
 30
0.0
 11
211.0208615803281
 21
156.87930987742519
 31
0.0
  0
LINE
  5
4377
  8
1DIM
 10
198.44019717879959
 20
142.87930987742519
 30
0.0
 11
211.0208615803281
 21
142.87930987742519
 31
0.0
  0
LINE
  5
4378
  8
1DIM
 10
210.0208615803281
 20
154.87930987742519
 30
0.0
 11
210.0208615803281
 21
144.87930987742519
 31
0.0
  0
LINE
  5
437C
  8
1DIM
 10
125.2938431098079
 20
142.90076856674929
 30
0.0
 11
125.2938431098079
 21
185.17482471063821
 31
0.0
  0
LINE
  5
437D
  8
1DIM
 10
172.29384394825161
 20
156.8793098774253
 30
0.0
 11
172.29384394825161
 21
185.17482471063821
 31
0.0
  0
LINE
  5
437E
  8
1DIM
 10
127.2938431098079
 20
184.17482471063821
 30
0.0
 11
170.29384394825161
 21
184.17482471063821
 31
0.0
  0
LINE
  5
4382
  8
1DIM
 10
125.9755376022401
 20
132.37925654546521
 30
0.0
 11
98.293843109807881
 21
132.37925654546521
 31
0.0
  0
LINE
  5
4383
  8
1DIM
 10
125.9771005005713
 20
153.3792565454653
 30
0.0
 11
98.293843109807881
 21
153.3792565454653
 31
0.0
  0
LINE
  5
4384
  8
1DIM
 10
99.293843109807881
 20
134.37925654546521
 30
0.0
 11
99.293843109807881
 21
151.37925654546541
 31
0.0
  0
LINE
  5
4388
  8
1DIM
 10
169.29384394825149
 20
128.87930987742519
 30
0.0
 11
90.293843109807881
 21
128.87930987742519
 31
0.0
  0
LINE
  5
4389
  8
1DIM
 10
169.29384394825419
 20
156.87930987742519
 30
0.0
 11
90.293843109807881
 21
156.87930987742519
 31
0.0
  0
LINE
  5
438A
  8
1DIM
 10
91.293843109807867
 20
130.87930987742519
 30
0.0
 11
91.293843109807867
 21
154.87930987742519
 31
0.0
  0
LINE
  5
438E
  8
1PHANTOM
 10
55.52238525892826
 20
223.91554373726919
 30
0.0
 11
55.52238525892826
 21
224.91553559348699
 31
0.0
  0
LINE
  5
438F
  8
1PHANTOM
 10
55.52238525892826
 20
224.91553559348699
 30
0.0
 11
63.022385258928139
 21
224.91553559348699
 31
0.0
  0
LINE
  5
4390
  8
1PHANTOM
 10
63.022385258928139
 20
224.91553559348699
 30
0.0
 11
63.022385258928139
 21
223.91554373726919
 31
0.0
  0
LINE
  5
4391
  8
1PHANTOM
 10
63.022385258928139
 20
223.91554373726919
 30
0.0
 11
55.52238525892826
 21
223.91554373726919
 31
0.0
  0
LINE
  5
4393
  8
1CENTER
 10
59.272385258928168
 20
256.87645018463309
 30
0.0
 11
59.272385258928161
 21
220.2452591841782
 31
0.0
  0
LINE
  5
4394
  8
0
 10
58.1780614449331
 20
251.8155381396468
 30
0.0
 11
60.14039653380852
 21
252.6155335736978
 31
0.0
  0
LINE
  5
4395
  8
0
 10
60.14039653380852
 20
252.6155335736978
 30
0.0
 11
59.552119958766113
 21
252.92730342994989
 31
0.0
  0
LINE
  5
4396
  8
0
 10
57.272431794826083
 20
229.41554024685681
 30
0.0
 11
61.272431794826083
 21
230.21553093967509
 31
0.0
  0
LINE
  5
4397
  8
0
 10
57.272431794826083
 20
240.6155402468612
 30
0.0
 11
61.272431794826083
 21
241.4155309396838
 31
0.0
  0
LINE
  5
4398
  8
0
 10
57.27243179482609
 20
243.8155402468613
 30
0.0
 11
61.27243179482609
 21
244.61553093968379
 31
0.0
  0
LINE
  5
4399
  8
0
 10
61.27243179482609
 20
244.61553093968379
 30
0.0
 11
60.77243179482609
 21
244.71553210308099
 31
0.0
  0
LINE
  5
439A
  8
0
 10
57.77243179482609
 20
245.31553908346399
 30
0.0
 11
57.27243179482609
 21
245.4155402468613
 31
0.0
  0
LINE
  5
439B
  8
0
 10
61.272431794826083
 20
241.4155309396838
 30
0.0
 11
60.772431794826083
 21
241.515532103081
 31
0.0
  0
LINE
  5
439C
  8
0
 10
61.27243179482609
 20
243.01553093968391
 30
0.0
 11
60.77243179482609
 21
243.11553210308099
 31
0.0
  0
LINE
  5
439D
  8
0
 10
57.77243179482609
 20
243.71553908346411
 30
0.0
 11
57.27243179482609
 21
243.8155402468613
 31
0.0
  0
LINE
  5
439E
  8
0
 10
57.772431794826083
 20
242.1155390834642
 30
0.0
 11
57.272431794826083
 21
242.21554024686139
 31
0.0
  0
LINE
  5
439F
  8
0
 10
57.272431794826083
 20
242.21554024686139
 30
0.0
 11
61.27243179482609
 21
243.01553093968391
 31
0.0
  0
LINE
  5
43A0
  8
0
 10
60.593210638215318
 20
251.01553252009219
 30
0.0
 11
60.041461174412049
 21
251.19829666272011
 31
0.0
  0
LINE
  5
43A1
  8
0
 10
61.27243179482609
 20
247.8155309396839
 30
0.0
 11
60.77243179482609
 21
247.91553210308101
 31
0.0
  0
LINE
  5
43A2
  8
0
 10
61.27243179482609
 20
246.21553093968379
 30
0.0
 11
60.77243179482609
 21
246.3155321030809
 31
0.0
  0
LINE
  5
43A3
  8
0
 10
61.046024742622123
 20
249.4155314664865
 30
0.0
 11
60.509431007350983
 21
249.54480216411639
 31
0.0
  0
LINE
  5
43A4
  8
0
 10
58.19334639203479
 20
250.10276968090099
 30
0.0
 11
57.72524793688482
 21
250.21553919325109
 31
0.0
  0
LINE
  5
43A5
  8
0
 10
57.77243179482609
 20
246.91553908346421
 30
0.0
 11
57.27243179482609
 21
247.01554024686129
 31
0.0
  0
LINE
  5
43A6
  8
0
 10
57.77243179482609
 20
248.51553908346409
 30
0.0
 11
57.27243179482609
 21
248.6155402468612
 31
0.0
  0
LINE
  5
43A7
  8
0
 10
58.635233285564183
 20
251.66410234320639
 30
0.0
 11
58.1780614449331
 21
251.8155381396468
 31
0.0
  0
LINE
  5
43A8
  8
0
 10
57.72524793688482
 20
250.21553919325109
 30
0.0
 11
60.593210638215318
 21
251.01553252009219
 31
0.0
  0
LINE
  5
43A9
  8
0
 10
57.27243179482609
 20
247.01554024686129
 30
0.0
 11
61.27243179482609
 21
247.8155309396839
 31
0.0
  0
LINE
  5
43AA
  8
0
 10
57.27243179482609
 20
248.6155402468612
 30
0.0
 11
61.046024742622123
 21
249.4155314664865
 31
0.0
  0
LINE
  5
43AB
  8
0
 10
57.27243179482609
 20
245.4155402468613
 30
0.0
 11
61.27243179482609
 21
246.21553093968379
 31
0.0
  0
LINE
  5
43AC
  8
0
 10
57.272431794826083
 20
232.61554024685691
 30
0.0
 11
61.272431794826083
 21
233.41553093967511
 31
0.0
  0
LINE
  5
43AD
  8
0
 10
61.272431794826083
 20
233.41553093967511
 30
0.0
 11
60.772431794826083
 21
233.51553210307279
 31
0.0
  0
LINE
  5
43AE
  8
0
 10
57.772431794826083
 20
234.11553908346349
 30
0.0
 11
57.272431794826083
 21
234.2155402468612
 31
0.0
  0
LINE
  5
43AF
  8
0
 10
61.272431794826083
 20
231.815530939675
 30
0.0
 11
60.772431794826083
 21
231.91553210307271
 31
0.0
  0
LINE
  5
43B0
  8
0
 10
61.272431794826083
 20
230.21553093967509
 30
0.0
 11
60.772431794826083
 21
230.3155321030728
 31
0.0
  0
LINE
  5
43B1
  8
0
 10
57.772431794826083
 20
232.5155390834592
 30
0.0
 11
57.272431794826083
 21
232.61554024685691
 31
0.0
  0
LINE
  5
43B2
  8
0
 10
57.772431794826083
 20
230.91553908345901
 30
0.0
 11
57.272431794826083
 21
231.01554024685669
 31
0.0
  0
LINE
  5
43B3
  8
0
 10
57.272431794826083
 20
231.01554024685669
 30
0.0
 11
61.272431794826083
 21
231.815530939675
 31
0.0
  0
LINE
  5
43B4
  8
0
 10
61.272431794826083
 20
238.2155309396795
 30
0.0
 11
60.772431794826083
 21
238.3155321030772
 31
0.0
  0
LINE
  5
43B5
  8
0
 10
61.272431794826083
 20
239.8155309396839
 30
0.0
 11
60.772431794826083
 21
239.91553210308101
 31
0.0
  0
LINE
  5
43B6
  8
0
 10
61.272431794826083
 20
235.01553093967951
 30
0.0
 11
60.772431794826083
 21
235.11553210307719
 31
0.0
  0
LINE
  5
43B7
  8
0
 10
61.272431794826083
 20
236.61553093967939
 30
0.0
 11
60.772431794826083
 21
236.71553210307709
 31
0.0
  0
LINE
  5
43B8
  8
0
 10
57.772431794826083
 20
240.51553908346409
 30
0.0
 11
57.272431794826083
 21
240.6155402468612
 31
0.0
  0
LINE
  5
43B9
  8
0
 10
57.772431794826083
 20
238.9155390834635
 30
0.0
 11
57.272431794826083
 21
239.01554024686129
 31
0.0
  0
LINE
  5
43BA
  8
0
 10
57.772431794826083
 20
235.7155390834634
 30
0.0
 11
57.272431794826083
 21
235.8155402468611
 31
0.0
  0
LINE
  5
43BB
  8
0
 10
57.772431794826083
 20
237.31553908346359
 30
0.0
 11
57.272431794826083
 21
237.4155402468613
 31
0.0
  0
LINE
  5
43BC
  8
0
 10
57.272431794826083
 20
237.4155402468613
 30
0.0
 11
61.272431794826083
 21
238.2155309396795
 31
0.0
  0
LINE
  5
43BD
  8
0
 10
57.272431794826083
 20
239.01554024686129
 30
0.0
 11
61.272431794826083
 21
239.8155309396839
 31
0.0
  0
LINE
  5
43BE
  8
0
 10
57.272431794826083
 20
235.8155402468611
 30
0.0
 11
61.272431794826083
 21
236.61553093967939
 31
0.0
  0
LINE
  5
43BF
  8
0
 10
57.272431794826083
 20
234.2155402468612
 30
0.0
 11
61.272431794826083
 21
235.01553093967951
 31
0.0
  0
LINE
  5
43C0
  8
0
 10
60.772431794826083
 20
223.91553210318639
 30
0.0
 11
57.772431794826311
 21
223.9155390835711
 31
0.0
  0
LINE
  5
43C1
  8
0
 10
57.772431794826083
 20
224.515539083455
 30
0.0
 11
57.272431794826083
 21
224.6155402468527
 31
0.0
  0
LINE
  5
43C2
  8
0
 10
57.272431794826083
 20
224.6155402468527
 30
0.0
 11
61.272431794826083
 21
225.4155309396709
 31
0.0
  0
LINE
  5
43C3
  8
0
 10
61.272431794826083
 20
225.4155309396709
 30
0.0
 11
60.772431794826083
 21
225.51553210306861
 31
0.0
  0
LINE
  5
43C4
  8
0
 10
57.772431794826083
 20
226.11553908345491
 30
0.0
 11
57.272431794826083
 21
226.21554024685261
 31
0.0
  0
LINE
  5
43C5
  8
0
 10
57.772431794826083
 20
227.71553908345479
 30
0.0
 11
57.272431794826083
 21
227.81554024685249
 31
0.0
  0
LINE
  5
43C6
  8
0
 10
57.272431794826083
 20
227.81554024685249
 30
0.0
 11
61.272431794826083
 21
228.6155309396708
 31
0.0
  0
LINE
  5
43C7
  8
0
 10
61.272431794826083
 20
227.0155309396709
 30
0.0
 11
60.772431794826083
 21
227.11553210306849
 31
0.0
  0
LINE
  5
43C8
  8
0
 10
61.272431794826083
 20
228.6155309396708
 30
0.0
 11
60.772431794826083
 21
228.7155321030684
 31
0.0
  0
LINE
  5
43C9
  8
0
 10
57.272431794826083
 20
226.21554024685261
 30
0.0
 11
61.272431794826083
 21
227.0155309396709
 31
0.0
  0
LINE
  5
43CA
  8
0
 10
57.772431794826083
 20
229.3155390834591
 30
0.0
 11
57.272431794826083
 21
229.41554024685681
 31
0.0
  0
LINE
  5
43CB
  8
0
 10
59.27243179482609
 20
253.91553559332459
 30
0.0
 11
57.77243179482609
 21
248.61553908346301
 31
0.0
  0
LINE
  5
43CC
  8
0
 10
57.77243179482609
 20
248.61553908346301
 30
0.0
 11
57.772431794826311
 21
223.9155390835711
 31
0.0
  0
LINE
  5
43CD
  8
0
 10
59.27243179482609
 20
253.91553559332459
 30
0.0
 11
60.772431794826197
 21
248.6155321030794
 31
0.0
  0
LINE
  5
43CE
  8
0
 10
55.772385258928267
 20
223.91554373726919
 30
0.0
 11
57.772431794826311
 21
223.9155390835711
 31
0.0
  0
LINE
  5
43CF
  8
0
 10
60.772431794826197
 20
248.6155321030794
 30
0.0
 11
60.772431794826083
 21
223.91553210318639
 31
0.0
  0
LINE
  5
43D0
  8
0
 10
55.772385258928267
 20
223.91554373726919
 30
0.0
 11
55.772385258928161
 21
222.8155402470739
 31
0.0
  0
LINE
  5
43D1
  8
0
 10
60.772431794826083
 20
223.91553210318639
 30
0.0
 11
62.772385258928161
 21
223.91552744970491
 31
0.0
  0
ARC
  5
43D2
  8
0
 10
57.272385258928161
 20
222.8155402470739
 30
0.0
 40
1.5
 50
180.0
 51
269.99986668447059
  0
LINE
  5
43D3
  8
0
 10
62.772385258928161
 20
223.91552744970491
 30
0.0
 11
62.772385258928161
 21
222.8155309398943
 31
0.0
  0
LINE
  5
43D4
  8
0
 10
57.272381768735762
 20
221.31554024707791
 30
0.0
 11
61.272381768735762
 21
221.31553093989831
 31
0.0
  0
ARC
  5
43D5
  8
0
 10
61.272385258928161
 20
222.8155309398943
 30
0.0
 40
1.5
 50
269.99986668447059
 51
0.0
  0
TEXT
  5
43D6
  8
1DIM
 10
90.593843109807864
 20
137.5126432107586
 30
0.0
 40
3.5
  1
φ28
 50
90.0
  0
LINE
  5
43D7
  8
0
  6
BYBLOCK
 10
90.757944729807875
 20
154.87930987742519
 30
0.0
 11
91.293843109807867
 21
156.87930987742519
 31
0.0
  0
LINE
  5
43D8
  8
0
  6
BYBLOCK
 10
91.293843109807867
 20
156.87930987742519
 30
0.0
 11
91.829741489807887
 21
154.87930987742519
 31
0.0
  0
LINE
  5
43D9
  8
0
  6
BYBLOCK
 10
91.293843109807867
 20
156.87930987742519
 30
0.0
 11
91.293843109807867
 21
154.87930987742519
 31
0.0
  0
LINE
  5
43DA
  8
0
  6
BYBLOCK
 10
91.829741489807887
 20
130.87930987742519
 30
0.0
 11
91.293843109807867
 21
128.87930987742519
 31
0.0
  0
LINE
  5
43DB
  8
0
  6
BYBLOCK
 10
91.293843109807867
 20
128.87930987742519
 30
0.0
 11
90.757944729807875
 21
130.87930987742519
 31
0.0
  0
LINE
  5
43DC
  8
0
  6
BYBLOCK
 10
91.293843109807867
 20
128.87930987742519
 30
0.0
 11
91.293843109807867
 21
130.87930987742519
 31
0.0
  0
TEXT
  5
43DD
  8
1DIM
 10
98.593843109807864
 20
138.09592321213199
 30
0.0
 40
3.5
  1
φ21
 50
90.0
  0
LINE
  5
43DE
  8
0
  6
BYBLOCK
 10
98.757944729807875
 20
151.37925654546541
 30
0.0
 11
99.293843109807881
 21
153.3792565454653
 31
0.0
  0
LINE
  5
43DF
  8
0
  6
BYBLOCK
 10
99.293843109807881
 20
153.3792565454653
 30
0.0
 11
99.829741489807887
 21
151.37925654546541
 31
0.0
  0
LINE
  5
43E0
  8
0
  6
BYBLOCK
 10
99.293843109807881
 20
153.3792565454653
 30
0.0
 11
99.293843109807881
 21
151.37925654546541
 31
0.0
  0
LINE
  5
43E1
  8
0
  6
BYBLOCK
 10
99.829741489807887
 20
134.37925654546521
 30
0.0
 11
99.293843109807881
 21
132.37925654546521
 31
0.0
  0
LINE
  5
43E2
  8
0
  6
BYBLOCK
 10
99.293843109807881
 20
132.37925654546521
 30
0.0
 11
98.757944729807875
 21
134.37925654546521
 31
0.0
  0
LINE
  5
43E3
  8
0
  6
BYBLOCK
 10
99.293843109807881
 20
132.37925654546521
 30
0.0
 11
99.293843109807881
 21
134.37925654546521
 31
0.0
  0
TEXT
  5
43E4
  8
1DIM
 10
145.87717686236309
 20
184.87482471063819
 30
0.0
 40
3.5
  1
47
  0
LINE
  5
43E5
  8
0
  6
BYBLOCK
 10
170.29384394825161
 20
184.7107230906382
 30
0.0
 11
172.29384394825161
 21
184.17482471063821
 31
0.0
  0
LINE
  5
43E6
  8
0
  6
BYBLOCK
 10
172.29384394825161
 20
184.17482471063821
 30
0.0
 11
170.29384394825161
 21
183.63892633063821
 31
0.0
  0
LINE
  5
43E7
  8
0
  6
BYBLOCK
 10
172.29384394825161
 20
184.17482471063821
 30
0.0
 11
170.29384394825161
 21
184.17482471063821
 31
0.0
  0
LINE
  5
43E8
  8
0
  6
BYBLOCK
 10
127.2938431098079
 20
183.63892633063821
 30
0.0
 11
125.2938431098079
 21
184.17482471063821
 31
0.0
  0
LINE
  5
43E9
  8
0
  6
BYBLOCK
 10
125.2938431098079
 20
184.17482471063821
 30
0.0
 11
127.2938431098079
 21
184.7107230906382
 31
0.0
  0
LINE
  5
43EA
  8
0
  6
BYBLOCK
 10
125.2938431098079
 20
184.17482471063821
 30
0.0
 11
127.2938431098079
 21
184.17482471063821
 31
0.0
  0
TEXT
  5
43EB
  8
1DIM
 10
209.320861580328
 20
147.5459765440919
 30
0.0
 40
3.5
  1
14
 50
90.0
  0
LINE
  5
43EC
  8
0
  6
BYBLOCK
 10
210.55675996032801
 20
144.87930987742519
 30
0.0
 11
210.0208615803281
 21
142.87930987742519
 31
0.0
  0
LINE
  5
43ED
  8
0
  6
BYBLOCK
 10
210.0208615803281
 20
142.87930987742519
 30
0.0
 11
209.48496320032811
 21
144.87930987742519
 31
0.0
  0
LINE
  5
43EE
  8
0
  6
BYBLOCK
 10
210.0208615803281
 20
142.87930987742519
 30
0.0
 11
210.0208615803281
 21
144.87930987742519
 31
0.0
  0
LINE
  5
43EF
  8
0
  6
BYBLOCK
 10
209.48496320032811
 20
154.87930987742519
 30
0.0
 11
210.0208615803281
 21
156.87930987742519
 31
0.0
  0
LINE
  5
43F0
  8
0
  6
BYBLOCK
 10
210.0208615803281
 20
156.87930987742519
 30
0.0
 11
210.55675996032801
 21
154.87930987742519
 31
0.0
  0
LINE
  5
43F1
  8
0
  6
BYBLOCK
 10
210.0208615803281
 20
156.87930987742519
 30
0.0
 11
210.0208615803281
 21
154.87930987742519
 31
0.0
  0
LINE
  5
43F2
  8
0
 10
197.79384394808929
 20
142.87926334152741
 30
0.0
 11
192.49384743822759
 21
144.37926334152741
 31
0.0
  0
LINE
  5
43F3
  8
0
 10
192.49384743822759
 20
144.37926334152741
 30
0.0
 11
167.7938474383358
 21
144.37926334152709
 31
0.0
  0
LINE
  5
43F4
  8
0
 10
197.79384394808929
 20
142.87926334152741
 30
0.0
 11
192.49384045784399
 21
141.37926334152721
 31
0.0
  0
LINE
  5
43F5
  8
0
 10
167.7938520920338
 20
146.3793098774251
 30
0.0
 11
167.7938474383358
 21
144.37926334152709
 31
0.0
  0
LINE
  5
43F6
  8
0
 10
192.49384045784399
 20
141.37926334152721
 30
0.0
 11
167.79384045795109
 21
141.37926334152729
 31
0.0
  0
LINE
  5
43F7
  8
0
 10
167.7938520920338
 20
146.3793098774251
 30
0.0
 11
166.69384860183851
 21
146.3793098774253
 31
0.0
  0
LINE
  5
43F8
  8
0
 10
167.79384045795109
 20
141.37926334152729
 30
0.0
 11
167.79383580446961
 21
139.3793098774253
 31
0.0
  0
ARC
  5
43F9
  8
0
 10
166.69384860183851
 20
144.8793098774253
 30
0.0
 40
1.5
 50
90.0
 51
179.99986668447059
  0
LINE
  5
43FA
  8
0
 10
167.79383580446961
 20
139.3793098774253
 30
0.0
 11
166.69383929465889
 21
139.3793098774253
 31
0.0
  0
LINE
  5
43FB
  8
0
 10
165.1938486018426
 20
144.8793133676177
 30
0.0
 11
165.19383929466301
 21
140.8793133676177
 31
0.0
  0
ARC
  5
43FC
  8
0
 10
166.69383929465889
 20
140.8793098774253
 30
0.0
 40
1.5
 50
179.99986668447059
 51
270.0
  0
LINE
  5
43FD
  8
1DIM
 10
71.121743749887742
 20
185.50196021371039
 30
0.0
 11
87.093870614232188
 21
203.49129790535881
 31
0.0
  0
LINE
  5
43FE
  8
1DIM
 10
87.093870614232188
 20
203.49129790535881
 30
0.0
 11
135.06053728089881
 21
203.49129790535881
 31
0.0
  0
LINE
  5
43FF
  8
0
  6
BYBLOCK
 10
71.522482608165859
 20
185.14615768258881
 30
0.0
 11
69.793870614232233
 21
184.00638242047989
 31
0.0
  0
LINE
  5
4400
  8
0
  6
BYBLOCK
 10
69.793870614232233
 20
184.00638242047989
 30
0.0
 11
70.721004891609624
 21
185.85776274483209
 31
0.0
  0
LINE
  5
4401
  8
0
  6
BYBLOCK
 10
69.793870614232233
 20
184.00638242047989
 30
0.0
 11
71.121743749887742
 21
185.50196021371039
 31
0.0
  0
LINE
  5
4402
  8
1DIM
 10
69.169458375405014
 20
206.98556378529059
 30
0.0
 11
85.141585239749475
 21
224.97490147693901
 31
0.0
  0
LINE
  5
4403
  8
1DIM
 10
85.141585239749475
 20
224.97490147693901
 30
0.0
 11
133.10825190641609
 21
224.97490147693901
 31
0.0
  0
LINE
  5
4404
  8
0
  6
BYBLOCK
 10
69.570197233683146
 20
206.6297612541689
 30
0.0
 11
67.84158523974952
 21
205.48998599206001
 31
0.0
  0
LINE
  5
4405
  8
0
  6
BYBLOCK
 10
67.84158523974952
 20
205.48998599206001
 30
0.0
 11
68.768719517126911
 21
207.34136631641229
 31
0.0
  0
LINE
  5
4406
  8
0
  6
BYBLOCK
 10
67.84158523974952
 20
205.48998599206001
 30
0.0
 11
69.169458375405014
 21
206.98556378529059
 31
0.0
  0
LINE
  5
4407
  8
1DIM
 10
184.60886812412781
 20
183.88685070694299
 30
0.0
 11
179.4162896851812
 21
196.46980666696541
 31
0.0
  0
LINE
  5
4408
  8
1DIM
 10
179.4162896851812
 20
196.46980666696541
 30
0.0
 11
211.31628968518129
 21
196.46980666696541
 31
0.0
  0
LINE
  5
4409
  8
0
  6
BYBLOCK
 10
185.10424399725551
 20
184.09127628755769
 30
0.0
 11
185.3717947842708
 21
182.03808276281291
 31
0.0
  0
LINE
  5
440A
  8
0
  6
BYBLOCK
 10
185.3717947842708
 20
182.03808276281291
 30
0.0
 11
184.1134922510002
 21
183.6824251263283
 31
0.0
  0
LINE
  5
440B
  8
0
  6
BYBLOCK
 10
185.3717947842708
 20
182.03808276281291
 30
0.0
 11
184.60886812412781
 21
183.88685070694299
 31
0.0
  0
LINE
  5
440C
  8
1HATCH
 10
176.52524352358941
 20
183.96029683927591
 30
0.0
 11
173.24894519064259
 21
202.47115268408939
 31
0.0
  0
LINE
  5
440D
  8
1HATCH
 10
173.24894519064259
 20
202.47115268408939
 30
0.0
 11
181.78227852397589
 21
202.47115268408939
 31
0.0
  0
LINE
  5
440E
  8
0
  6
BYBLOCK
 10
177.0529401589925
 20
184.05369563300911
 30
0.0
 11
176.87381257032959
 21
181.99090616709981
 31
0.0
  0
LINE
  5
440F
  8
0
  6
BYBLOCK
 10
176.87381257032959
 20
181.99090616709981
 30
0.0
 11
175.99754688818621
 21
183.86689804554291
 31
0.0
  0
LINE
  5
4410
  8
0
  6
BYBLOCK
 10
176.87381257032959
 20
181.99090616709981
 30
0.0
 11
176.52524352358941
 21
183.96029683927591
 31
0.0
  0
TEXT
  5
4411
  8
1DIM1
 10
106.23423778094021
 20
138.095976544092
 30
0.0
 40
3.5
  1
φ13
 50
90.0
  0
LINE
  5
4412
  8
0
  6
BYBLOCK
 10
106.3983394009403
 20
147.37930987742519
 30
0.0
 11
106.93423778094029
 21
149.37930987742519
 31
0.0
  0
LINE
  5
4413
  8
0
  6
BYBLOCK
 10
106.93423778094029
 20
149.37930987742519
 30
0.0
 11
107.4701361609403
 21
147.37930987742519
 31
0.0
  0
LINE
  5
4414
  8
0
  6
BYBLOCK
 10
106.93423778094029
 20
149.37930987742519
 30
0.0
 11
106.93423778094029
 21
147.37930987742519
 31
0.0
  0
LINE
  5
4415
  8
0
  6
BYBLOCK
 10
107.4701361609403
 20
138.3793098774253
 30
0.0
 11
106.93423778094029
 21
136.3793098774253
 31
0.0
  0
LINE
  5
4416
  8
0
  6
BYBLOCK
 10
106.93423778094029
 20
136.3793098774253
 30
0.0
 11
106.3983394009403
 21
138.3793098774253
 31
0.0
  0
LINE
  5
4417
  8
0
  6
BYBLOCK
 10
106.93423778094029
 20
136.3793098774253
 30
0.0
 11
106.93423778094029
 21
138.3793098774253
 31
0.0
  0
VIEWPORT
  5
57
 67
     1
  8
0
 10
-12.71820606546887
 20
10.09248672500371
 30
0.0
 40
405.30338832619208
 41
286.96927405595568
 68
     1
 69
     1
1001
ACAD
1000
MVIEW
1002
{
1070
    16
1010
0.0
1020
0.0
1030
0.0
1010
0.0
1020
0.0
1030
1.0
1040
0.0
1040
286.96927405595568
1040
-12.71820606546887
1040
10.09248672500371
1040
50.0
1040
0.0
1040
0.0
1070
     0
1070
  1000
1070
     1
1070
     1
1070
     0
1070
     0
1070
     0
1070
     0
1040
0.0
1040
0.0
1040
0.0
1040
10.0
1040
10.0
1040
10.0
1040
10.0
1070
     0
1002
{
1002
}
1002
}
  0
ENDSEC
  0
EOF
