  0
SECTION
  2
HEADER
  9
$ACADVER
  1
AC1009
  9
$DWGCODEPAGE
  3
ansi_1252
  9
$INSBASE
 10
0.0
 20
0.0
 30
0.0
  9
$EXTMIN
 10
-44.62895471827802
 20
-1800.804089670804
 30
0.0
  9
$EXTMAX
 10
223.4081768532296
 20
-1556.182059759691
 30
0.0
  9
$LIMMIN
 10
0.0
 20
0.0
  9
$LIMMAX
 10
420.0
 20
297.0
  9
$ORTHOMODE
 70
     0
  9
$REGENMODE
 70
     1
  9
$FILLMODE
 70
     1
  9
$QTEXTMODE
 70
     0
  9
$MIRRTEXT
 70
     0
  9
$DRAGMODE
 70
     2
  9
$LTSCALE
 40
0.5
  9
$OSMODE
 70
 15199
  9
$ATTMODE
 70
     1
  9
$TEXTSIZE
 40
116.3508
  9
$TRACEWID
 40
1.0
  9
$TEXTSTYLE
  7
STANDARD
  9
$CLAYER
  8
1TEXT
  9
$CELTYPE
  6
BYLAYER
  9
$CECOLOR
 62
   256
  9
$DIMSCALE
 40
1.0
  9
$DIMASZ
 40
2.0
  9
$DIMEXO
 40
0.0
  9
$DIMDLI
 40
7.0
  9
$DIMRND
 40
0.0
  9
$DIMDLE
 40
0.0
  9
$DIMEXE
 40
1.0
  9
$DIMTP
 40
0.0
  9
$DIMTM
 40
0.0
  9
$DIMTXT
 40
3.5
  9
$DIMCEN
 40
0.0
  9
$DIMTSZ
 40
0.0
  9
$DIMTOL
 70
     0
  9
$DIMLIM
 70
     0
  9
$DIMTIH
 70
     0
  9
$DIMTOH
 70
     0
  9
$DIMSE1
 70
     0
  9
$DIMSE2
 70
     0
  9
$DIMTAD
 70
     1
  9
$DIMZIN
 70
     8
  9
$DIMBLK
  1

  9
$DIMASO
 70
     1
  9
$DIMSHO
 70
     1
  9
$DIMPOST
  1
 
  9
$DIMAPOST
  1

  9
$DIMALT
 70
     0
  9
$DIMALTD
 70
     2
  9
$DIMALTF
 40
25.4
  9
$DIMLFAC
 40
1.0
  9
$DIMTOFL
 70
     1
  9
$DIMTVP
 40
0.0
  9
$DIMTIX
 70
     0
  9
$DIMSOXD
 70
     0
  9
$DIMSAH
 70
     1
  9
$DIMBLK1
  1
OPEN30
  9
$DIMBLK2
  1
OPEN30
  9
$DIMSTYLE
  2
NEWX10
  9
$DIMCLRD
 70
   256
  9
$DIMCLRE
 70
   256
  9
$DIMCLRT
 70
   201
  9
$DIMTFAC
 40
0.7
  9
$DIMGAP
 40
0.7
  9
$LUNITS
 70
     2
  9
$LUPREC
 70
     4
  9
$SKETCHINC
 40
1.0
  9
$FILLETRAD
 40
3.0
  9
$AUNITS
 70
     0
  9
$AUPREC
 70
     2
  9
$MENU
  1
acad
  9
$ELEVATION
 40
0.0
  9
$PELEVATION
 40
0.0
  9
$THICKNESS
 40
0.0
  9
$LIMCHECK
 70
     0
  9
$CHAMFERA
 40
0.5
  9
$CHAMFERB
 40
0.5
  9
$SKPOLY
 70
     0
  9
$TDCREATE
 40
2451027.585754618
  9
$TDUPDATE
 40
2459103.574512778
  9
$TDINDWG
 40
41.5508592708
  9
$TDUSRTIMER
 40
41.5508588889
  9
$USRTIMER
 70
     1
  9
$ANGBASE
 50
0.0
  9
$ANGDIR
 70
     0
  9
$PDMODE
 70
     0
  9
$PDSIZE
 40
0.0
  9
$PLINEWID
 40
0.0
  9
$COORDS
 70
     2
  9
$SPLFRAME
 70
     0
  9
$SPLINETYPE
 70
     6
  9
$SPLINESEGS
 70
     8
  9
$ATTDIA
 70
     0
  9
$ATTREQ
 70
     1
  9
$HANDLING
 70
     1
  9
$HANDSEED
  5
E80DE
  9
$SURFTAB1
 70
     6
  9
$SURFTAB2
 70
     6
  9
$SURFTYPE
 70
     6
  9
$SURFU
 70
     6
  9
$SURFV
 70
     6
  9
$UCSNAME
  2

  9
$UCSORG
 10
0.0
 20
0.0
 30
0.0
  9
$UCSXDIR
 10
1.0
 20
0.0
 30
0.0
  9
$UCSYDIR
 10
0.0
 20
1.0
 30
0.0
  9
$PUCSNAME
  2

  9
$PUCSORG
 10
0.0
 20
0.0
 30
0.0
  9
$PUCSXDIR
 10
1.0
 20
0.0
 30
0.0
  9
$PUCSYDIR
 10
0.0
 20
1.0
 30
0.0
  9
$USERI1
 70
     0
  9
$USERI2
 70
     0
  9
$USERI3
 70
     0
  9
$USERI4
 70
     0
  9
$USERI5
 70
     0
  9
$USERR1
 40
0.0
  9
$USERR2
 40
0.0
  9
$USERR3
 40
0.0
  9
$USERR4
 40
0.0
  9
$USERR5
 40
4.5
  9
$WORLDVIEW
 70
     1
  9
$SHADEDGE
 70
     1
  9
$SHADEDIF
 70
    70
  9
$TILEMODE
 70
     1
  9
$MAXACTVP
 70
    48
  9
$PLIMCHECK
 70
     0
  9
$PEXTMIN
 10
1.000000000000000E+20
 20
1.000000000000000E+20
 30
1.000000000000000E+20
  9
$PEXTMAX
 10
-1.000000000000000E+20
 20
-1.000000000000000E+20
 30
-1.000000000000000E+20
  9
$PLIMMIN
 10
0.0
 20
0.0
  9
$PLIMMAX
 10
420.0
 20
297.0
  9
$UNITMODE
 70
     0
  9
$VISRETAIN
 70
     1
  9
$PLINEGEN
 70
     0
  9
$PSLTSCALE
 70
     1
  0
ENDSEC
  0
SECTION
  2
TABLES
  0
TABLE
  2
VPORT
 70
     1
  0
VPORT
  2
*ACTIVE
 70
     0
 10
0.0
 20
0.0
 11
1.0
 21
1.0
 12
-10972.27093393252
 22
-9165.076723715247
 13
0.0
 23
0.0
 14
10.0
 24
10.0
 15
10.0
 25
10.0
 16
0.0
 26
0.0
 36
1.0
 17
11061.660545
 27
7486.583649
 37
474.311593
 40
262.6468110624587
 41
2.07168458781362
 42
50.0
 43
0.0
 44
0.0
 50
0.0
 51
0.0
 71
    16
 72
    20
 73
     1
 74
     1
 75
     0
 76
     0
 77
     0
 78
     0
  0
ENDTAB
  0
TABLE
  2
LTYPE
 70
    16
  0
LTYPE
  2
CONTINUOUS
 70
     0
  3
Solid line
 72
    65
 73
     0
 40
0.0
  0
LTYPE
  2
CENTER2
 70
     0
  3
Center (.5x) ___ _ ___ _ ___ _ ___ _ ___ _ ___
 72
    65
 73
     4
 40
28.575
 49
19.05
 49
-3.175
 49
3.175
 49
-3.175
  0
LTYPE
  2
HIDDEN
 70
     0
  3
Hidden __ __ __ __ __ __ __ __ __ __ __ __ __ _
 72
    65
 73
     2
 40
9.524999999999999
 49
6.35
 49
-3.175
  0
ENDTAB
  0
TABLE
  2
LAYER
 70
    68
  0
LAYER
  2
0
 70
     0
 62
     7
  6
CONTINUOUS
  0
LAYER
  2
01
 70
     0
 62
     1
  6
CONTINUOUS
  0
LAYER
  2
1CENTER
 70
     0
 62
     7
  6
CENTER2
  0
LAYER
  2
1DIM
 70
     0
 62
     7
  6
CONTINUOUS
  0
LAYER
  2
1TEXT
 70
     0
 62
     7
  6
CONTINUOUS
  0
LAYER
  2
1HATCH
 70
     0
 62
     7
  6
CONTINUOUS
  0
LAYER
  2
1TEXT2
 70
     0
 62
     7
  6
CONTINUOUS
  0
LAYER
  2
1HIDDEN
 70
     0
 62
     7
  6
HIDDEN
  0
ENDTAB
  0
TABLE
  2
STYLE
 70
    35
  0
STYLE
  2
STANDARD
 70
     0
 40
0.0
 41
1.0
 50
0.0
 71
     0
 42
116.3508
  3
txt.shx
  4
extfont.shx
  0
STYLE
  2
MAKER
 70
     0
 40
0.0
 41
1.0
 50
0.0
 71
     0
 42
4.0
  3
Meiryo.ttf
  4

  0
ENDTAB
  0
TABLE
  2
VIEW
 70
     0
  0
ENDTAB
  0
TABLE
  2
UCS
 70
     5
  0
UCS
  2
U
 70
     0
 10
0.0
 20
0.0
 30
0.0
 11
1.0
 21
0.0
 31
0.0
 12
0.0
 22
2.000000000000000E-16
 32
1.0
  0
UCS
  2
L
 70
     0
 10
0.0
 20
0.0
 30
0.0
 11
-2.000000000000000E-16
 21
-1.0
 31
2.000000000000000E-16
 12
0.0
 22
2.000000000000000E-16
 32
1.0
  0
UCS
  2
R
 70
     0
 10
0.0
 20
0.0
 30
0.0
 11
3.000000000000000E-16
 21
1.0
 31
-2.000000000000000E-16
 12
0.0
 22
2.000000000000000E-16
 32
1.0
  0
UCS
  2
ISOME
 70
     0
 10
0.0
 20
0.0
 30
0.0
 11
0.7071450863198266
 21
-0.7070684729403536
 31
-3.830824619470000E-5
 12
0.4082704059428736
 22
0.408270407740115
 32
0.8164744636514736
  0
UCS
  2
PERSPECTIVE
 70
     0
 10
0.0
 20
0.0
 30
0.0
 11
0.8191477691768962
 21
-0.5735823260466403
 31
-0.0004974931557765
 12
0.1584844715982971
 22
0.225502028986108
 32
0.9612655757829659
  0
ENDTAB
  0
TABLE
  2
APPID
 70
    40
  0
APPID
  2
ACAD
 70
     0
  0
APPID
  2
CONTENTTABDATA
 70
     0
  0
APPID
  2
CONTENTCURRENTTAB
 70
     0
  0
APPID
  2
CONTENTBLOCKICON
 70
     0
  0
APPID
  2
CONTENTBLOCKDESCRIPTION
 70
     0
  0
APPID
  2
DRAWINGVARIABLESXDATA
 70
     0
  0
APPID
  2
CONTENTLONGBLOCKNAME
 70
     0
  0
APPID
  2
ACAD_PSEXT
 70
     0
  0
APPID
  2
ACAD_MLEADERVER
 70
     0
  0
APPID
  2
ACAD_DSTYLE_DIMRADIAL_EXTE
 70
     0
  0
APPID
  2
ACDBBLOCKREPETAG
 70
     0
  0
APPID
  2
ACDBDYNAMICBLOCKTRUENAME
 70
     0
  0
APPID
  2
ACDBDYNAMICBLOCKGUID
 70
     0
  0
APPID
  2
ACDBBLOCKREPBTAG
 70
     0
  0
APPID
  2
ACADANNOTATIVE
 70
     0
  0
APPID
  2
ACAUTHENVIRON
 70
     0
  0
APPID
  2
ACADANNOPO
 70
     0
  0
APPID
  2
ACLAYERTOOLS
 70
     0
  0
APPID
  2
ACAD_EXEMPT_FROM_CAD_STAND
 70
     0
  0
APPID
  2
ACAECLAYERSTANDARD
 70
     0
  0
APPID
  2
ACAD_DSTYLE_DIMJOGGED_JOGA
 70
     0
  0
APPID
  2
ACAD_DSTYLE_DIM_LINETYPE
 70
     0
  0
APPID
  2
ACAD_DSTYLE_DIM_EXT1_LINET
 70
     0
  0
APPID
  2
ACAD_DSTYLE_DIM_EXT2_LINET
 70
     0
  0
APPID
  2
ACAD_DIMASSOC_CALC_DIMLFAC
 70
     0
  0
APPID
  2
ACAD_DIMASSOC_DIMLFAC
 70
     0
  0
APPID
  2
ACAD_DIMASSOC_OVERRIDDEN_D
 70
     0
  0
APPID
  2
ACAD_NAV_VCDISPLAY
 70
     0
  0
APPID
  2
ACAD_OBJECT_CHANGE_GUID
 70
     0
  0
APPID
  2
ACADANNOTATIVEDECOMPOSITIO
 70
     0
  0
APPID
  2
ACAD_DSTYLE_DIMJAG
 70
     0
  0
APPID
  2
ACAD_DSTYLE_DIMTALN
 70
     0
  0
APPID
  2
ACADSTRINGINFO
 70
     0
  0
APPID
  2
GRADIENTCOLOR1ACI
 70
     0
  0
APPID
  2
GRADIENTCOLOR2ACI
 70
     0
  0
APPID
  2
ACADANNOMONITORALERTICONDI
 70
     0
  0
APPID
  2
ACADANNOAV
 70
     0
  0
APPID
  2
ACAD_SPLINE_DATA
 70
     0
  0
APPID
  2
N8SOL-TLINK
 70
     0
  0
APPID
  2
ACDBATTR
 70
     0
  0
ENDTAB
  0
TABLE
  2
DIMSTYLE
 70
     7
  0
DIMSTYLE
  2
NEWX10
 70
     0
  3
 
  4

  5

  6
OPEN30
  7
OPEN30
 40
1.0
 41
2.0
 42
0.0
 43
7.0
 44
1.0
 45
0.0
 46
0.0
 47
0.0
 48
0.0
140
3.5
141
0.0
142
0.0
143
25.4
144
1.0
145
0.0
146
0.7
147
0.7
 71
     0
 72
     0
 73
     0
 74
     0
 75
     0
 76
     0
 77
     1
 78
     8
170
     0
171
     2
172
     1
173
     1
174
     0
175
     0
176
   256
177
   256
178
   201
  0
DIMSTYLE
  2
ISO-25
 70
     0
  3

  4

  5

  6

  7

 40
1.0
 41
20.0
 42
3.0
 43
3.75
 44
2.0
 45
0.0
 46
0.0
 47
0.0
 48
0.0
140
30.0
141
5.0
142
0.0
143
0.03937
144
1.0
145
0.0
146
1.0
147
8.0
 71
     0
 72
     0
 73
     0
 74
     0
 75
     0
 76
     0
 77
     1
 78
     8
170
     0
171
     3
172
     1
173
     0
174
     0
175
     0
176
     1
177
     1
178
     1
  0
ENDTAB
  0
ENDSEC
  0
SECTION
  2
BLOCKS
  0
BLOCK
  8
0
  2
$MODEL_SPACE
 70
     0
 10
0.0
 20
0.0
 30
0.0
  3
$MODEL_SPACE
  1

  0
ENDBLK
  5
1A
  8
0
  0
BLOCK
 67
     1
  8
0
  2
$PAPER_SPACE
 70
     0
 10
0.0
 20
0.0
 30
0.0
  3
$PAPER_SPACE
  1

  0
ENDBLK
  5
99D8C
 67
     1
  8
0
  0
BLOCK
  8
0
  2
_OPEN30
 70
     0
 10
0.0
 20
0.0
 30
0.0
  3
_OPEN30
  1

  0
LINE
  5
2F1
  8
0
  6
BYBLOCK
 62
     0
 10
-1.0
 20
0.267949
 30
0.0
 11
0.0
 21
0.0
 31
0.0
  0
LINE
  5
2F2
  8
0
  6
BYBLOCK
 62
     0
 10
0.0
 20
0.0
 30
0.0
 11
-1.0
 21
-0.267949
 31
0.0
  0
LINE
  5
2F3
  8
0
  6
BYBLOCK
 62
     0
 10
0.0
 20
0.0
 30
0.0
 11
-1.0
 21
0.0
 31
0.0
  0
ENDBLK
  5
2F4
  8
0
  0
BLOCK
  8
0
  2
A3WAKUKAWAJUN2017_HYOUDAI_
 70
     0
 10
0.0
 20
0.0
 30
0.0
  3
A3WAKUKAWAJUN2017_HYOUDAI_
  1

  0
LINE
  5
940D1
  8
0
 10
13.26299999998673
 20
-0.0001000000000317
 30
0.0
 11
9.236999999990758
 21
8.999899999990987
 31
0.0
1001
ACAD
1000
ASC_BOUNDS
1002
{
1070
    19
1005
94112
1002
}
  0
LINE
  5
940D2
  8
0
 10
5.657999999994331
 20
0.9999999999989768
 30
0.0
 11
9.236999999990758
 21
8.999999999991019
 31
0.0
1001
ACAD
1000
ASC_BOUNDS
1002
{
1070
    19
1005
94112
1002
}
  0
LINE
  5
940D3
  8
0
 10
18.59199999998134
 20
-0.2368999999997641
 30
0.0
 11
16.46099999998353
 21
5.432899999994561
 31
0.0
1001
ACAD
1000
ASC_BOUNDS
1002
{
1070
    19
1005
94113
1002
}
  0
LINE
  5
940D4
  8
0
 10
18.59199999998134
 20
-0.2368999999997641
 30
0.0
 11
22.38199999997767
 21
8.763099999991255
 31
0.0
1001
ACAD
1000
ASC_BOUNDS
1002
{
1070
    19
1005
94113
1002
}
  0
LINE
  5
940D5
  8
0
 10
14.32899999998563
 20
-0.2368999999997641
 30
0.0
 11
16.46099999998353
 21
5.432899999994561
 31
0.0
1001
ACAD
1000
ASC_BOUNDS
1002
{
1070
    19
1005
94113
1002
}
  0
LINE
  5
940D6
  8
0
 10
14.32899999998563
 20
-0.2368999999997641
 30
0.0
 11
10.53899999998941
 21
8.763099999991255
 31
0.0
1001
ACAD
1000
ASC_BOUNDS
1002
{
1070
    19
1005
94113
1002
}
  0
LINE
  5
940D7
  8
0
 10
19.53899999998043
 20
-0.0001000000000317
 30
0.0
 11
23.56599999997638
 21
8.999899999990987
 31
0.0
1001
ACAD
1000
ASC_BOUNDS
1002
{
1070
    19
1005
94114
1002
}
  0
LINE
  5
940D8
  8
0
 10
26.97358892824991
 20
1.383099999991202
 30
0.0
 11
23.56599999997638
 21
8.999899999990987
 31
0.0
1001
ACAD
1000
ASC_BOUNDS
1002
{
1070
    19
1005
94114
1002
}
  0
LINE
  5
940D9
  8
0
 10
5.657999999994331
 20
0.9999999999989768
 30
0.0
 11
3.181999999996833
 21
4.668599999995308
 31
0.0
1001
ACAD
1000
ASC_BOUNDS
1002
{
1070
    19
1005
94112
1002
}
  0
LINE
  5
940DA
  8
0
 10
4.617999999995391
 20
-0.0001000000000317
 30
0.0
 11
1.420999999998571
 21
4.736799999995242
 31
0.0
1001
ACAD
1000
ASC_BOUNDS
1002
{
1070
    19
1005
94112
1002
}
  0
LINE
  5
940DB
  8
0
 10
1.420999999998571
 20
8.763099999991255
 30
0.0
 11
1.420999999998571
 21
0.0
 31
0.0
1001
ACAD
1000
ASC_BOUNDS
1002
{
1070
    19
1005
94117
1002
}
  0
LINE
  5
940DC
  8
0
 10
0.0
 20
8.763099999991255
 30
0.0
 11
0.0
 21
0.0
 31
0.0
1001
ACAD
1000
ASC_BOUNDS
1002
{
1070
    19
1005
94117
1002
}
  0
LINE
  5
940DD
  8
0
 10
6.766999999993232
 20
-0.0001000000000317
 30
0.0
 11
7.826999999992154
 21
2.368399999997621
 31
0.0
1001
ACAD
1000
ASC_BOUNDS
1002
{
1070
    19
1005
94112
1002
}
  0
LINE
  5
940DE
  8
0
 10
0.0
 20
0.0
 30
0.0
 11
1.420999999998571
 21
0.0
 31
0.0
1001
ACAD
1000
ASC_BOUNDS
1002
{
1070
    19
1005
94117
1002
}
  0
LINE
  5
940DF
  8
0
 10
4.617999999995391
 20
0.0
 30
0.0
 11
6.766999999993232
 21
0.0
 31
0.0
1001
ACAD
1000
ASC_BOUNDS
1002
{
1070
    19
1005
94112
1002
}
  0
LINE
  5
940E0
  8
0
 10
11.70599999998831
 20
-0.0001000000000317
 30
0.0
 11
10.64699999998936
 21
2.368399999997621
 31
0.0
1001
ACAD
1000
ASC_BOUNDS
1002
{
1070
    19
1005
94112
1002
}
  0
LINE
  5
940E1
  8
0
 10
7.826999999992154
 20
2.368399999997621
 30
0.0
 11
10.64699999998936
 21
2.368399999997621
 31
0.0
1001
ACAD
1000
ASC_BOUNDS
1002
{
1070
    19
1005
94112
1002
}
  0
LINE
  5
940E2
  8
0
 10
11.70599999998831
 20
0.0
 30
0.0
 11
13.26299999998673
 21
0.0
 31
0.0
1001
ACAD
1000
ASC_BOUNDS
1002
{
1070
    19
1005
94112
1002
}
  0
LINE
  5
940E3
  8
0
 10
22.15599999997789
 20
2.368399999997621
 30
0.0
 11
24.97599999997499
 21
2.368399999997621
 31
0.0
1001
ACAD
1000
ASC_BOUNDS
1002
{
1070
    19
1005
94114
1002
}
  0
LINE
  5
940E4
  8
0
 10
19.53899999998043
 20
0.0
 30
0.0
 11
21.09599999997886
 21
0.0
 31
0.0
1001
ACAD
1000
ASC_BOUNDS
1002
{
1070
    19
1005
94114
1002
}
  0
LINE
  5
940E5
  8
0
 10
21.09599999997886
 20
-0.0001000000000317
 30
0.0
 11
22.15599999997789
 21
2.368399999997621
 31
0.0
1001
ACAD
1000
ASC_BOUNDS
1002
{
1070
    19
1005
94114
1002
}
  0
LINE
  5
940E6
  8
0
 10
26.02015566812236
 20
0.0330999999912365
 30
0.0
 11
24.97599999997499
 21
2.368399999997621
 31
0.0
1001
ACAD
1000
ASC_BOUNDS
1002
{
1070
    19
1005
94114
1002
}
  0
LINE
  5
940E7
  8
0
 10
14.32399999998563
 20
3.315799999996671
 30
0.0
 11
16.46099999998353
 21
8.999899999990987
 31
0.0
1001
ACAD
1000
ASC_BOUNDS
1002
{
1070
    19
1005
94113
1002
}
  0
LINE
  5
940E8
  8
0
 10
6.432999999993513
 20
8.763099999991255
 30
0.0
 11
3.181999999996833
 21
4.668599999995308
 31
0.0
1001
ACAD
1000
ASC_BOUNDS
1002
{
1070
    19
1005
94112
1002
}
  0
LINE
  5
940E9
  8
0
 10
4.617999999995391
 20
8.763099999991255
 30
0.0
 11
1.420999999998571
 21
4.736799999995242
 31
0.0
1001
ACAD
1000
ASC_BOUNDS
1002
{
1070
    19
1005
94112
1002
}
  0
LINE
  5
940EA
  8
0
 10
0.0
 20
8.763099999991255
 30
0.0
 11
1.420999999998571
 21
8.763099999991255
 31
0.0
1001
ACAD
1000
ASC_BOUNDS
1002
{
1070
    19
1005
94117
1002
}
  0
LINE
  5
940EB
  8
0
 10
4.617999999995391
 20
8.763099999991255
 30
0.0
 11
6.432999999993513
 21
8.763099999991255
 31
0.0
1001
ACAD
1000
ASC_BOUNDS
1002
{
1070
    19
1005
94112
1002
}
  0
LINE
  5
940EC
  8
0
 10
14.32399999998563
 20
3.315799999996671
 30
0.0
 11
12.02999999998792
 21
8.763099999991255
 31
0.0
1001
ACAD
1000
ASC_BOUNDS
1002
{
1070
    19
1005
94113
1002
}
  0
LINE
  5
940ED
  8
0
 10
10.06399999998996
 20
3.670999999996297
 30
0.0
 11
9.236999999990758
 21
5.5200999999945
 31
0.0
1001
ACAD
1000
ASC_BOUNDS
1002
{
1070
    19
1005
94112
1002
}
  0
LINE
  5
940EE
  8
0
 10
8.409999999991555
 20
3.670999999996297
 30
0.0
 11
9.236999999990758
 21
5.5200999999945
 31
0.0
1001
ACAD
1000
ASC_BOUNDS
1002
{
1070
    19
1005
94112
1002
}
  0
LINE
  5
940EF
  8
0
 10
8.409999999991555
 20
3.670999999996297
 30
0.0
 11
10.06399999998996
 21
3.670999999996297
 31
0.0
1001
ACAD
1000
ASC_BOUNDS
1002
{
1070
    19
1005
94112
1002
}
  0
LINE
  5
940F0
  8
0
 10
10.53899999998941
 20
8.763099999991255
 30
0.0
 11
12.02999999998792
 21
8.763099999991255
 31
0.0
1001
ACAD
1000
ASC_BOUNDS
1002
{
1070
    19
1005
94113
1002
}
  0
LINE
  5
940F1
  8
0
 10
22.7389999999773
 20
3.670999999996297
 30
0.0
 11
23.56599999997638
 21
5.5200999999945
 31
0.0
1001
ACAD
1000
ASC_BOUNDS
1002
{
1070
    19
1005
94114
1002
}
  0
LINE
  5
940F2
  8
0
 10
22.7389999999773
 20
3.670999999996297
 30
0.0
 11
24.39299999997559
 21
3.670999999996297
 31
0.0
1001
ACAD
1000
ASC_BOUNDS
1002
{
1070
    19
1005
94114
1002
}
  0
LINE
  5
940F3
  8
0
 10
18.59799999998143
 20
3.315799999996671
 30
0.0
 11
20.89099999997916
 21
8.763099999991255
 31
0.0
1001
ACAD
1000
ASC_BOUNDS
1002
{
1070
    19
1005
94113
1002
}
  0
LINE
  5
940F4
  8
0
 10
18.59799999998143
 20
3.315799999996671
 30
0.0
 11
16.46099999998353
 21
8.999899999990987
 31
0.0
1001
ACAD
1000
ASC_BOUNDS
1002
{
1070
    19
1005
94113
1002
}
  0
LINE
  5
940F5
  8
0
 10
20.89099999997916
 20
8.763099999991255
 30
0.0
 11
22.38199999997767
 21
8.763099999991255
 31
0.0
1001
ACAD
1000
ASC_BOUNDS
1002
{
1070
    19
1005
94113
1002
}
  0
LINE
  5
940F6
  8
0
 10
24.39299999997559
 20
3.670999999996297
 30
0.0
 11
23.56599999997638
 21
5.5200999999945
 31
0.0
1001
ACAD
1000
ASC_BOUNDS
1002
{
1070
    19
1005
94114
1002
}
  0
LINE
  5
940F7
  8
0
 10
44.99999999995498
 20
-0.2368999999997641
 30
0.0
 11
40.02599999995994
 21
5.341799999994635
 31
0.0
1001
ACAD
1000
ASC_BOUNDS
1002
{
1070
    19
1005
94116
1002
}
  0
LINE
  5
940F8
  8
0
 10
40.02599999995994
 20
5.341799999994635
 30
0.0
 11
40.02599999995994
 21
0.0
 31
0.0
1001
ACAD
1000
ASC_BOUNDS
1002
{
1070
    19
1005
94116
1002
}
  0
LINE
  5
940F9
  8
0
 10
38.60499999996136
 20
8.999999999991019
 30
0.0
 11
38.60499999996136
 21
0.0
 31
0.0
1001
ACAD
1000
ASC_BOUNDS
1002
{
1070
    19
1005
94116
1002
}
  0
LINE
  5
940FA
  8
0
 10
44.99999999995498
 20
8.763099999991255
 30
0.0
 11
44.99999999995498
 21
-0.2368999999997641
 31
0.0
1001
ACAD
1000
ASC_BOUNDS
1002
{
1070
    19
1005
94116
1002
}
  0
LINE
  5
940FB
  8
0
 10
38.60499999996136
 20
0.0
 30
0.0
 11
40.02599999995994
 21
0.0
 31
0.0
1001
ACAD
1000
ASC_BOUNDS
1002
{
1070
    19
1005
94116
1002
}
  0
LINE
  5
940FC
  8
0
 10
43.57899999995641
 20
3.421199999996588
 30
0.0
 11
38.60499999996136
 21
8.999899999990987
 31
0.0
1001
ACAD
1000
ASC_BOUNDS
1002
{
1070
    19
1005
94116
1002
}
  0
LINE
  5
940FD
  8
0
 10
43.57899999995641
 20
8.763099999991255
 30
0.0
 11
43.57899999995641
 21
3.421199999996588
 31
0.0
1001
ACAD
1000
ASC_BOUNDS
1002
{
1070
    19
1005
94116
1002
}
  0
LINE
  5
940FE
  8
0
 10
43.57899999995641
 20
8.763099999991255
 30
0.0
 11
44.99999999995498
 21
8.763099999991255
 31
0.0
1001
ACAD
1000
ASC_BOUNDS
1002
{
1070
    19
1005
94116
1002
}
  0
LINE
  5
940FF
  8
0
 10
37.67199999996831
 20
8.763099999991255
 30
0.0
 11
36.23199999996837
 21
8.763099999991255
 31
0.0
  0
LINE
  5
94100
  8
0
 10
31.64199999996833
 20
8.763099999991255
 30
0.0
 11
31.64199999996833
 21
2.481619422925121
 31
0.0
  0
LINE
  5
94101
  8
0
 10
37.67199999996831
 20
8.763099999991255
 30
0.0
 11
37.67199999996831
 21
2.481619422925121
 31
0.0
  0
LINE
  5
94102
  8
0
 10
36.23199999996837
 20
8.763099999991255
 30
0.0
 11
36.23199999996837
 21
2.481619422925064
 31
0.0
  0
LINE
  5
94103
  8
0
 10
33.08199999996839
 20
8.763099999991255
 30
0.0
 11
33.08199999996839
 21
2.481619422925121
 31
0.0
  0
ARC
  5
94104
  8
0
 10
34.65699999996832
 20
3.183099999991214
 30
0.0
 40
3.420000000000007
 50
240.0000000000255
 51
299.9999999999766
  0
ARC
  5
94105
  8
0
 10
34.65699999996832
 20
3.183099999991214
 30
0.0
 40
1.97999999999999
 50
240.000000000026
 51
299.9999999999703
  0
LINE
  5
94106
  8
0
 10
33.08199999996828
 20
8.763099999991255
 30
0.0
 11
31.64199999996833
 21
8.763099999991255
 31
0.0
  0
ARC
  5
94107
  8
0
 10
35.06199999996829
 20
2.481619422925064
 30
0.0
 40
1.17
 50
299.9999999999699
 51
0.0
  0
ARC
  5
94108
  8
0
 10
34.25199999996835
 20
2.481619422925121
 30
0.0
 40
1.17
 50
180.0
 51
240.0000000000238
  0
ARC
  5
94109
  8
0
 10
35.06199999996841
 20
2.481619422925121
 30
0.0
 40
2.61
 50
299.9999999999756
 51
0.0
  0
ARC
  5
9410A
  8
0
 10
34.25199999996835
 20
2.481619422925121
 30
0.0
 40
2.61
 50
180.0
 51
240.0000000000244
  0
LINE
  5
9410B
  8
0
 10
29.30199999996933
 20
8.763099999991255
 30
0.0
 11
30.74199999996927
 21
8.763099999991255
 31
0.0
1001
ACAD
1000
ASC_BOUNDS
1002
{
1070
    19
1005
94114
1002
}
  0
LINE
  5
9410C
  8
0
 10
30.74199999996927
 20
8.763099999991255
 30
0.0
 11
30.74199999996927
 21
2.373099999991211
 31
0.0
1001
ACAD
1000
ASC_BOUNDS
1002
{
1070
    19
1005
94114
1002
}
  0
LINE
  5
9410D
  8
0
 10
26.02015566812236
 20
0.0330999999912365
 30
0.0
 11
28.40199999996923
 21
0.0330999999912365
 31
0.0
1001
ACAD
1000
ASC_BOUNDS
1002
{
1070
    19
1005
94114
1002
}
  0
LINE
  5
9410E
  8
0
 10
29.30199999996933
 20
8.763099999991255
 30
0.0
 11
29.30199999996933
 21
2.283099999991236
 31
0.0
1001
ACAD
1000
ASC_BOUNDS
1002
{
1070
    19
1005
94114
1002
}
  0
LINE
  5
9410F
  8
0
 10
26.97358892824991
 20
1.383099999991202
 30
0.0
 11
28.40199999996923
 21
1.383099999991202
 31
0.0
1001
ACAD
1000
ASC_BOUNDS
1002
{
1070
    19
1005
94114
1002
}
  0
ARC
  5
94110
  8
0
 10
28.40199999996923
 20
2.283099999991236
 30
0.0
 40
0.9
 50
270.0
 51
0.0
1001
ACAD
1000
ASC_BOUNDS
1002
{
1070
    19
1005
94114
1002
}
  0
ARC
  5
94111
  8
0
 10
28.40199999996923
 20
2.373099999991211
 30
0.0
 40
2.34
 50
270.0
 51
0.0
1001
ACAD
1000
ASC_BOUNDS
1002
{
1070
    19
1005
94114
1002
}
  0
INSERT
  5
94112
  8
0
  2
*X438
 10
0.0
 20
0.0
 30
0.0
1001
ACAD
1000
HATCH
1002
{
1070
    19
1000
ANSI37
1040
0.15
1040
0.0
1000
ASC_BOUNDS
1070
     2
1070
     2
1070
    12
1005
940D1
1005
940D2
1005
940D9
1005
940E8
1005
940EB
1005
940E9
1005
940DA
1005
940DF
1005
940DD
1005
940E1
1005
940E0
1005
940E2
1070
     2
1070
     3
1005
940ED
1005
940EF
1005
940EE
1000
ASC_SEEDPOINT
1011
3.614004224891801
1021
2.996669441146025
1031
0.0
1021
2.996669441146025
1031
0.0
1000
R14_HATCH_DATA
1000
94112
1011
1.0
1021
0.0
1031
0.0
1021
0.0
1031
0.0
1011
0.0
1021
1.0
1031
0.0
1021
1.0
1031
0.0
1011
0.0
1021
0.0
1031
1.0
1021
0.0
1031
1.0
1040
0.0
1010
0.0
1020
0.0
1030
1.0
1000
ANSI37
1070
     0
1070
     1
1071
        2
1071
        7
1070
     0
1070
     1
1071
       17
1040
13.26299999998673
1040
-0.0001000000000317
1040
9.236999999990758
1040
8.999899999990987
1040
9.236999999990758
1040
8.999999999991019
1040
5.657999999994331
1040
0.9999999999989768
1040
3.181999999996833
1040
4.668599999995308
1040
6.432999999993513
1040
8.763099999991255
1040
4.617999999995391
1040
8.763099999991255
1040
1.420999999998571
1040
4.736799999995242
1040
4.617999999995391
1040
-0.0001000000000317
1040
4.617999999995391
1040
0.0
1040
6.766999999993232
1040
0.0
1040
6.766999999993232
1040
-0.0001000000000317
1040
7.826999999992154
1040
2.368399999997621
1040
10.64699999998936
1040
2.368399999997621
1040
11.70599999998831
1040
-0.0001000000000317
1040
11.70599999998831
1040
0.0
1040
13.26299999998673
1040
0.0
1071
       12
1005
940D1
1005
940D2
1005
940D9
1005
940E8
1005
940EB
1005
940E9
1005
940DA
1005
940DF
1005
940DD
1005
940E1
1005
940E0
1005
940E2
1071
       22
1070
     0
1070
     1
1071
        3
1040
9.236999999990758
1040
5.5200999999945
1040
10.06399999998996
1040
3.670999999996297
1040
8.409999999991555
1040
3.670999999996297
1071
        3
1005
940ED
1005
940EF
1005
940EE
1070
     0
1070
     1
1040
0.0
1040
0.15
1070
     0
1070
     2
1040
0.7853981633974483
1040
49.29960901727088
1040
-10.17736998311392
1040
-0.3367596045400932
1040
0.3367596045400932
1070
     0
1040
2.356194490192345
1040
49.29960901727088
1040
-10.17736998311392
1040
-0.3367596045400932
1040
-0.3367596045400932
1070
     0
1040
0.0110235143455945
1071
        2
1040
3.614004224891801
1040
2.996669441146025
1040
0.0
1040
3.614004224891801
1040
2.996669441146025
1040
0.0
1002
}
  0
INSERT
  5
94113
  8
0
  2
*X439
 10
0.0
 20
0.0
 30
0.0
1001
ACAD
1000
HATCH
1002
{
1070
    19
1000
ANSI37
1040
0.15
1040
0.0
1000
ASC_BOUNDS
1070
     1
1070
     2
1070
    10
1005
940D3
1005
940D4
1005
940F5
1005
940F3
1005
940F4
1005
940E7
1005
940EC
1005
940F0
1005
940D6
1005
940D5
1000
ASC_SEEDPOINT
1011
14.73245321214324
1021
2.798246178283421
1031
0.0
1021
2.798246178283421
1031
0.0
1000
R14_HATCH_DATA
1000
94113
1011
1.0
1021
0.0
1031
0.0
1021
0.0
1031
0.0
1011
0.0
1021
1.0
1031
0.0
1021
1.0
1031
0.0
1011
0.0
1021
0.0
1031
1.0
1021
0.0
1031
1.0
1040
0.0
1010
0.0
1020
0.0
1030
1.0
1000
ANSI37
1070
     0
1070
     1
1071
        1
1071
        7
1070
     0
1070
     1
1071
       10
1040
16.46099999998353
1040
5.432899999994561
1040
18.59199999998134
1040
-0.2368999999997641
1040
22.38199999997767
1040
8.763099999991255
1040
20.89099999997916
1040
8.763099999991255
1040
18.59799999998143
1040
3.315799999996671
1040
16.46099999998353
1040
8.999899999990987
1040
14.32399999998563
1040
3.315799999996671
1040
12.02999999998792
1040
8.763099999991255
1040
10.53899999998941
1040
8.763099999991255
1040
14.32899999998563
1040
-0.2368999999997641
1071
       10
1005
940D3
1005
940D4
1005
940F5
1005
940F3
1005
940F4
1005
940E7
1005
940EC
1005
940F0
1005
940D6
1005
940D5
1070
     0
1070
     1
1040
0.0
1040
0.15
1070
     0
1070
     2
1040
0.7853981633974483
1040
49.29960901727088
1040
-10.17736998311392
1040
-0.3367596045400932
1040
0.3367596045400932
1070
     0
1040
2.356194490192345
1040
49.29960901727088
1040
-10.17736998311392
1040
-0.3367596045400932
1040
-0.3367596045400932
1070
     0
1040
0.0110235143455945
1071
        1
1040
14.73245321214324
1040
2.798246178283421
1040
0.0
1002
}
  0
INSERT
  5
94114
  8
0
  2
*X440
 10
0.0
 20
0.0
 30
0.0
1001
ACAD
1000
HATCH
1002
{
1070
    19
1000
ANSI37
1040
0.15
1040
0.0
1000
ASC_BOUNDS
1070
     2
1070
     2
1070
    13
1005
940D7
1005
940E4
1005
940E5
1005
940E3
1005
940E6
1005
9410D
1005
94111
1005
9410C
1005
9410B
1005
9410E
1005
94110
1005
9410F
1005
940D8
1070
     2
1070
     3
1005
940F1
1005
940F6
1005
940F2
1000
ASC_SEEDPOINT
1011
21.97929957367762
1021
3.294304244259308
1031
0.0
1021
3.294304244259308
1031
0.0
1000
R14_HATCH_DATA
1000
94114
1011
1.0
1021
0.0
1031
0.0
1021
0.0
1031
0.0
1011
0.0
1021
1.0
1031
0.0
1021
1.0
1031
0.0
1011
0.0
1021
0.0
1031
1.0
1021
0.0
1031
1.0
1040
0.0
1010
0.0
1020
0.0
1030
1.0
1000
ANSI37
1070
     0
1070
     1
1071
        2
1071
        7
1070
     1
1070
     1
1071
       15
1040
23.56599999997638
1040
8.999899999990987
1040
0.0
1040
19.53899999998043
1040
-0.0001000000000317
1040
0.0
1040
19.53899999998043
1040
0.0
1040
0.0
1040
21.09599999997886
1040
0.0
1040
0.0
1040
21.09599999997886
1040
-0.0001000000000317
1040
0.0
1040
22.15599999997789
1040
2.368399999997621
1040
0.0
1040
24.97599999997499
1040
2.368399999997621
1040
0.0
1040
26.02015566812236
1040
0.0330999999912365
1040
0.0
1040
28.40199999996923
1040
0.0330999999912365
1040
0.414213562373095
1040
30.74199999996923
1040
2.373099999991211
1040
0.0
1040
30.74199999996927
1040
8.763099999991255
1040
0.0
1040
29.30199999996933
1040
8.763099999991255
1040
0.0
1040
29.30199999996933
1040
2.283099999991236
1040
-0.414213562373095
1040
28.40199999996923
1040
1.383099999991237
1040
0.0
1040
26.97358892824991
1040
1.383099999991202
1040
0.0
1071
       13
1005
940D7
1005
940E4
1005
940E5
1005
940E3
1005
940E6
1005
9410D
1005
94111
1005
9410C
1005
9410B
1005
9410E
1005
94110
1005
9410F
1005
940D8
1071
       22
1070
     0
1070
     1
1071
        3
1040
22.7389999999773
1040
3.670999999996297
1040
23.56599999997638
1040
5.5200999999945
1040
24.39299999997559
1040
3.670999999996297
1071
        3
1005
940F1
1005
940F6
1005
940F2
1070
     0
1070
     1
1040
0.0
1040
0.15
1070
     0
1070
     2
1040
0.7853981633974483
1040
49.29960901727088
1040
-10.17736998311392
1040
-0.3367596045400932
1040
0.3367596045400932
1070
     0
1040
2.356194490192345
1040
49.29960901727088
1040
-10.17736998311392
1040
-0.3367596045400932
1040
-0.3367596045400932
1070
     0
1040
0.0110235143455945
1071
        2
1040
21.97929957367762
1040
3.294304244259308
1040
0.0
1040
21.97929957367762
1040
3.294304244259308
1040
0.0
1002
}
  0
INSERT
  5
94115
  8
0
  2
*X441
 10
0.0
 20
0.0
 30
0.0
1001
ACAD
1000
HATCH
1002
{
1070
    19
1000
ANSI37
1040
0.15
1040
0.0
1000
R14_HATCH_DATA
1000
94115
1011
1.0
1021
0.0
1031
0.0
1021
0.0
1031
0.0
1011
0.0
1021
1.0
1031
0.0
1021
1.0
1031
0.0
1011
0.0
1021
0.0
1031
1.0
1021
0.0
1031
1.0
1040
0.0
1010
0.0
1020
0.0
1030
1.0
1000
ANSI37
1070
     0
1070
     1
1071
        1
1071
        7
1070
     1
1070
     1
1071
       12
1040
31.64199999996833
1040
2.481619422925121
1040
0.2679491924310942
1040
32.94699999997067
1040
0.2212931190493919
1040
0.2679491924301353
1040
36.36699999995983
1040
0.2212931190459813
1040
0.2679491924321411
1040
37.67199999996831
1040
2.481619422928361
1040
0.0
1040
37.67199999996831
1040
8.763099999991255
1040
0.0
1040
36.23199999996837
1040
8.763099999991255
1040
0.0
1040
36.23199999996837
1040
2.481619422925064
1040
-0.2679491924310291
1040
35.64699999996708
1040
1.468369700498386
1040
-0.267949192430519
1040
33.66699999997093
1040
1.468369700497703
1040
-0.267949192431809
1040
33.08199999996839
1040
2.481619422926997
1040
0.0
1040
33.08199999996839
1040
8.763099999991255
1040
0.0
1040
31.64199999996833
1040
8.763099999991255
1040
0.0
1071
        0
1070
     0
1070
     1
1040
0.0
1040
0.15
1070
     0
1070
     2
1040
0.7853981633974483
1040
49.29960901727088
1040
-10.17736998311392
1040
-0.3367596045400932
1040
0.3367596045400932
1070
     0
1040
2.356194490192345
1040
49.29960901727088
1040
-10.17736998311392
1040
-0.3367596045400932
1040
-0.3367596045400932
1070
     0
1040
0.0110235143455945
1071
        1
1040
32.30357378967278
1040
3.988785755459219
1040
0.0
1002
}
  0
INSERT
  5
94116
  8
0
  2
*X442
 10
0.0
 20
0.0
 30
0.0
1001
ACAD
1000
HATCH
1002
{
1070
    19
1000
ANSI37
1040
0.15
1040
0.0
1000
ASC_BOUNDS
1070
     1
1070
     2
1070
     8
1005
940F7
1005
940FA
1005
940FE
1005
940FD
1005
940FC
1005
940F9
1005
940FB
1005
940F8
1000
ASC_SEEDPOINT
1011
39.74896370716704
1021
4.484843821435049
1031
0.0
1021
4.484843821435049
1031
0.0
1000
R14_HATCH_DATA
1000
94116
1011
1.0
1021
0.0
1031
0.0
1021
0.0
1031
0.0
1011
0.0
1021
1.0
1031
0.0
1021
1.0
1031
0.0
1011
0.0
1021
0.0
1031
1.0
1021
0.0
1031
1.0
1040
0.0
1010
0.0
1020
0.0
1030
1.0
1000
ANSI37
1070
     0
1070
     1
1071
        1
1071
        7
1070
     0
1070
     1
1071
        9
1040
40.02599999995994
1040
5.341799999994635
1040
44.99999999995498
1040
-0.2368999999997641
1040
44.99999999995498
1040
8.763099999991255
1040
43.57899999995641
1040
8.763099999991255
1040
43.57899999995641
1040
3.421199999996588
1040
38.60499999996136
1040
8.999899999990987
1040
38.60499999996136
1040
8.999999999991019
1040
38.60499999996136
1040
0.0
1040
40.02599999995994
1040
0.0
1071
        8
1005
940F7
1005
940FA
1005
940FE
1005
940FD
1005
940FC
1005
940F9
1005
940FB
1005
940F8
1070
     0
1070
     1
1040
0.0
1040
0.15
1070
     0
1070
     2
1040
0.7853981633974483
1040
49.29960901727088
1040
-10.17736998311392
1040
-0.3367596045400932
1040
0.3367596045400932
1070
     0
1040
2.356194490192345
1040
49.29960901727088
1040
-10.17736998311392
1040
-0.3367596045400932
1040
-0.3367596045400932
1070
     0
1040
0.0110235143455945
1071
        1
1040
39.74896370716704
1040
4.484843821435049
1040
0.0
1002
}
  0
INSERT
  5
94117
  8
0
  2
*X443
 10
0.0
 20
0.0
 30
0.0
1001
ACAD
1000
HATCH
1002
{
1070
    19
1000
ANSI37
1040
0.15
1040
0.0
1000
ASC_BOUNDS
1070
     1
1070
     2
1070
     4
1005
940DB
1005
940EA
1005
940DC
1005
940DE
1000
ASC_SEEDPOINT
1011
1.079051535452663
1021
4.148538732891836
1031
0.0
1021
4.148538732891836
1031
0.0
1000
R14_HATCH_DATA
1000
94117
1011
1.0
1021
0.0
1031
0.0
1021
0.0
1031
0.0
1011
0.0
1021
1.0
1031
0.0
1021
1.0
1031
0.0
1011
0.0
1021
0.0
1031
1.0
1021
0.0
1031
1.0
1040
0.0
1010
0.0
1020
0.0
1030
1.0
1000
ANSI37
1070
     0
1070
     1
1071
        1
1071
        7
1070
     0
1070
     1
1071
        4
1040
1.420999999998571
1040
0.0
1040
1.420999999998571
1040
8.763099999991255
1040
0.0
1040
8.763099999991255
1040
0.0
1040
0.0
1071
        4
1005
940DB
1005
940EA
1005
940DC
1005
940DE
1070
     0
1070
     1
1040
0.0
1040
0.15
1070
     0
1070
     2
1040
0.7853981633974483
1040
49.29960901727088
1040
-10.17736998311392
1040
-0.3367596045400932
1040
0.3367596045400932
1070
     0
1040
2.356194490192345
1040
49.29960901727088
1040
-10.17736998311392
1040
-0.3367596045400932
1040
-0.3367596045400932
1070
     0
1040
0.0053004257112761
1071
        1
1040
1.079051535452663
1040
4.148538732891836
1040
0.0
1002
}
  0
ENDBLK
  5
94820
  8
0
  0
BLOCK
  8
0
  2
_TAGCIRCLE
 70
     2
 10
0.0
 20
0.0
 30
0.0
  3
_TAGCIRCLE
  1

  0
CIRCLE
  5
7E2F8
  8
0
  6
BYBLOCK
 62
     0
 10
0.0
 20
0.0
 30
0.0
 40
0.1052552224523172
  0
ATTDEF
  5
7E2F9
  8
0
 62
     0
 10
-0.2125
 20
-0.046875
 30
0.0
 40
0.09375
  1
\U+30BF\U+30B0\U+756A\U+53F7
 72
     1
 11
0.0
 21
-0.046875
 31
0.0
  3
\U+30BF\U+30B0\U+756A\U+53F7\U+3092\U+5165\U+529B
  2
\U+30BF\U+30B0\U+756A\U+53F7
 70
     0
1001
ACADSTRINGINFO
1000
MIFCodePage
1070
     1
  0
ENDBLK
  5
7E3D8
  8
0
  0
BLOCK
  8
0
  2
_TAGTRIANGLE
 70
     2
 10
0.0
 20
0.0
 30
0.0
  3
_TAGTRIANGLE
  1

  0
POLYLINE
  5
7E2FE
  8
0
  6
BYBLOCK
 62
     0
 66
     1
 10
0.0
 20
0.0
 30
0.0
 70
     1
  0
VERTEX
  5
E80CC
  8
0
  6
BYBLOCK
 62
     0
 10
-0.2165063509461096
 20
-0.125
 30
0.0
  0
VERTEX
  5
E80CD
  8
0
  6
BYBLOCK
 62
     0
 10
0.0
 20
0.25
 30
0.0
  0
VERTEX
  5
E80CE
  8
0
  6
BYBLOCK
 62
     0
 10
0.2165063509461096
 20
-0.125
 30
0.0
  0
SEQEND
  5
E80DD
  8
0
  6
BYBLOCK
 62
     0
  0
ATTDEF
  5
7E2FF
  8
1TEXT
 62
     0
 10
-0.3805175846051759
 20
-0.046875
 30
0.0
 40
0.14
  1
\U+30BF\U+30B0\U+756A\U+53F7
  7
MAKER
 72
     1
 11
0.0
 21
-0.046875
 31
0.0
  3
\U+30BF\U+30B0\U+756A\U+53F7\U+3092\U+5165\U+529B
  2
\U+30BF\U+30B0\U+756A\U+53F7
 70
     0
1001
ACADSTRINGINFO
1000
MIFCodePage
1070
     1
  0
ENDBLK
  5
7E3DA
  8
0
  0
BLOCK
  8
0
  2
WELD111
 70
     0
 10
0.0
 20
0.0
 30
0.0
  3
WELD111
  1

  0
CIRCLE
  5
7E306
  8
0
 62
     0
 10
6.0
 20
0.0000000000000142
 30
0.0
 40
2.990262378117563
  0
LINE
  5
7E307
  8
0
 62
     0
 10
0.0
 20
0.0
 30
0.0
 11
11.99999999999999
 21
0.0000000000000142
 31
0.0
  0
ENDBLK
  5
7E3DC
  8
0
  0
BLOCK
  8
0
  2
WELD112
 70
     0
 10
0.0
 20
0.0
 30
0.0
  3
WELD112
  1

  0
INSERT
  5
7E30E
  8
0
  6
BYBLOCK
 62
     0
  2
\U+30B9\U+30DD\U+30C3\U+30C8\U+6EB6\U+63A5\U+8A18\U+53F7
 10
-6.0
 20
0.0
 30
0.0
  0
LINE
  5
7E31B
  8
0
  6
BYBLOCK
 62
     0
 10
-4.67642258006606
 20
-5.151751477760058
 30
0.0
 11
4.67642258006606
 21
-5.151751477760058
 31
0.0
  0
ENDBLK
  5
7E3DE
  8
0
  0
BLOCK
  8
0
  2
\U+30B9\U+30DD\U+30C3\U+30C8\U+6EB6\U+63A5\U+8A18\U+53F7
 70
     0
 10
0.0
 20
0.0
 30
0.0
  3
\U+30B9\U+30DD\U+30C3\U+30C8\U+6EB6\U+63A5\U+8A18\U+53F7
  1

1001
ACADSTRINGINFO
1000
MIFCodePage
1070
     1
  0
CIRCLE
  5
7E318
  8
0
 10
6.0
 20
0.0000000000000142
 30
0.0
 40
2.990262378117563
  0
LINE
  5
7E319
  8
0
 10
0.0
 20
0.0
 30
0.0
 11
11.99999999999999
 21
0.0000000000000142
 31
0.0
  0
ENDBLK
  5
7E3E0
  8
0
  0
BLOCK
  8
0
  2
WELD01
 70
     0
 10
0.0
 20
0.0
 30
0.0
  3
WELD01
  1

  0
LINE
  5
7E322
  8
0
  6
BYBLOCK
 62
     0
 10
0.0
 20
0.0
 30
0.0
 11
11.99999957320006
 21
0.0
 31
0.0
  0
LINE
  5
7E323
  8
0
  6
BYBLOCK
 62
     0
 10
3.591012473199953
 20
-5.462740899999972
 30
0.0
 11
3.591012473199953
 21
0.0
 31
0.0
  0
LINE
  5
7E324
  8
0
  6
BYBLOCK
 62
     0
 10
3.591012473199953
 20
-5.46274040000003
 30
0.0
 11
9.053753873200094
 21
0.0000002475924248
 31
0.0
  0
ENDBLK
  5
7E3E2
  8
0
  0
BLOCK
  8
0
  2
WELD05
 70
     0
 10
0.0
 20
0.0
 30
0.0
  3
WELD05
  1

  0
TEXT
  5
7E329
  8
0
 10
8.006110799999874
 20
-6.467742999999928
 30
0.0
 40
3.2
  1
\U+FF27
 41
0.90047268
  0
LINE
  5
7E32A
  8
1HATCH
 10
0.0
 20
0.0
 30
0.0
 11
11.99999999999989
 21
0.0
 31
0.0
  0
LINE
  5
7E32B
  8
0
 10
3.591012500000033
 20
-5.462740899999972
 30
0.0
 11
3.591012500000033
 21
0.0
 31
0.0
  0
LINE
  5
7E32C
  8
0
 10
3.591012200000023
 20
-5.46274040000003
 30
0.0
 11
9.05375390000006
 21
0.0000002483500339
 31
0.0
  0
LINE
  5
7E32D
  8
0
 10
4.298119099999894
 20
-6.169846999999891
 30
0.0
 11
9.76086040000007
 21
-0.7071065899999667
 31
0.0
  0
ENDBLK
  5
7E3E4
  8
0
  0
BLOCK
  8
0
  2
WELD02
 70
     0
 10
0.0
 20
0.0
 30
0.0
  3
WELD02
  1

  0
LINE
  5
7E332
  8
1HATCH
 10
0.0
 20
0.0
 30
0.0
 11
11.99999957320006
 21
0.0
 31
0.0
  0
LINE
  5
7E333
  8
0
 10
3.591012473199953
 20
-5.462740899999972
 30
0.0
 11
3.591012473199953
 21
0.0
 31
0.0
  0
LINE
  5
7E334
  8
0
 10
3.591012473199953
 20
-5.46274040000003
 30
0.0
 11
9.053753873200094
 21
0.0000002475924248
 31
0.0
  0
LINE
  5
7E335
  8
0
 10
3.591012473199953
 20
5.46274040000003
 30
0.0
 11
9.053752873199755
 21
0.0000004267571967
 31
0.0
  0
LINE
  5
7E336
  8
0
 10
3.591012473199953
 20
5.462740899999972
 30
0.0
 11
3.591012473199953
 21
0.0
 31
0.0
  0
ENDBLK
  5
7E3E6
  8
0
  0
BLOCK
  8
0
  2
WELD09
 70
     0
 10
0.0
 20
0.0
 30
0.0
  3
WELD09
  1

  0
LINE
  5
7E33B
  8
1HATCH
 10
0.0
 20
0.0
 30
0.0
 11
12.0
 21
0.0
 31
0.0
  0
LINE
  5
7E33C
  8
0
 10
4.5
 20
0.0
 30
0.0
 11
4.5
 21
-6.0
 31
0.0
  0
LINE
  5
7E33D
  8
0
 10
7.499999499999831
 20
0.0
 30
0.0
 11
7.499999499999831
 21
-6.0
 31
0.0
  0
ENDBLK
  5
7E3E8
  8
0
  0
BLOCK
  8
0
  2
WELD14
 70
     0
 10
0.0
 20
0.0
 30
0.0
  3
WELD14
  1

  0
LINE
  5
7E342
  8
1HATCH
 10
0.0
 20
0.0
 30
0.0
 11
12.0
 21
0.0
 31
0.0
  0
LINE
  5
7E343
  8
0
 10
10.0
 20
0.0
 30
0.0
 11
10.0
 21
-5.0
 31
0.0
  0
LINE
  5
7E344
  8
0
 10
2.0
 20
0.0
 30
0.0
 11
2.0
 21
-5.0
 31
0.0
  0
LINE
  5
7E345
  8
0
 10
2.0
 20
-5.0
 30
0.0
 11
10.0
 21
-5.0
 31
0.0
  0
ENDBLK
  5
7E3EA
  8
0
  0
BLOCK
  8
0
  2
WELD07
 70
     0
 10
0.0
 20
0.0
 30
0.0
  3
WELD07
  1

  0
LINE
  5
7E34A
  8
1HATCH
 10
0.0
 20
0.0
 30
0.0
 11
9.905951749230908
 21
0.0000000000000003
 31
0.0
  0
ARC
  5
7E34B
  8
0
 10
9.062741300000084
 20
0.0
 30
0.0
 40
5.0
 50
90.0
 51
270.0
  0
LINE
  5
7E34C
  8
0
 10
2.599999900000057
 20
-5.0
 30
0.0
 11
2.599999900000057
 21
0.0
 31
0.0
  0
LINE
  5
7E34D
  8
0
 10
2.599999900000057
 20
5.0
 30
0.0
 11
2.599999900000057
 21
0.0
 31
0.0
  0
ENDBLK
  5
7E3EC
  8
0
  0
BLOCK
  8
0
  2
WELD11
 70
     0
 10
0.0
 20
0.0
 30
0.0
  3
WELD11
  1

  0
LINE
  5
7E352
  8
1HATCH
 10
0.0
 20
0.0
 30
0.0
 11
12.0
 21
0.0
 31
0.0
  0
ARC
  5
7E353
  8
0
 10
11.73137099999985
 20
0.0
 30
0.0
 40
5.0
 50
179.9999900000006
 51
270.0
  0
ARC
  5
7E354
  8
0
 10
0.2686290699998608
 20
0.0
 30
0.0
 40
5.0
 50
270.0
 51
0.0
  0
ENDBLK
  5
7E3EE
  8
0
  0
BLOCK
  8
0
  2
WELD08
 70
     0
 10
0.0
 20
0.0
 30
0.0
  3
WELD08
  1

  0
ARC
  5
7E359
  8
0
 10
0.25
 20
0.0
 30
0.0
 40
5.0
 50
270.0
 51
90.00000300000015
  0
ARC
  5
7E35A
  8
0
 10
11.71274200000005
 20
0.0
 30
0.0
 40
5.0
 50
90.0
 51
270.0
  0
LINE
  5
7E35B
  8
1HATCH
 10
0.0
 20
0.0
 30
0.0
 11
11.99999999999989
 21
0.0
 31
0.0
  0
ENDBLK
  5
7E3F0
  8
0
  0
BLOCK
  8
0
  2
WELD06
 70
     0
 10
0.0
 20
0.0
 30
0.0
  3
WELD06
  1

  0
LINE
  5
7E360
  8
1HATCH
 10
0.0
 20
0.0
 30
0.0
 11
9.822628962642085
 21
0.0000000000000003
 31
0.0
  0
ARC
  5
7E361
  8
0
 10
9.062741300000084
 20
0.0
 30
0.0
 40
5.0
 50
179.9999900000006
 51
270.0
  0
LINE
  5
7E362
  8
0
 10
2.599999900000057
 20
-5.0
 30
0.0
 11
2.599999900000057
 21
0.0
 31
0.0
  0
ENDBLK
  5
7E3F2
  8
0
  0
BLOCK
  8
0
  2
NOCIRCLE
 70
     2
 10
0.0
 20
0.0
 30
0.0
  3
NOCIRCLE
  1

  0
CIRCLE
  5
7F5FC
  8
0
  6
BYBLOCK
 62
     0
 10
0.0
 20
0.0
 30
0.0
 40
4.2
  0
ATTDEF
  5
7F5FD
  8
1TEXT
 10
-1.904761904761904
 20
-2.0
 30
0.0
 40
4.0
  1
0
 72
     4
 11
0.0
 21
0.0
 31
0.0
  3
NO.
  2
NO
 70
     0
  0
ENDBLK
  5
7F6CF
  8
0
  0
BLOCK
  8
0
  2
_OPEN
 70
     0
 10
0.0
 20
0.0
 30
0.0
  3
_OPEN
  1

  0
LINE
  5
7F604
  8
0
  6
BYBLOCK
 62
     0
 10
-1.0
 20
0.166667
 30
0.0
 11
0.0
 21
0.0
 31
0.0
  0
LINE
  5
7F605
  8
0
  6
BYBLOCK
 62
     0
 10
-1.0
 20
-0.166667
 30
0.0
 11
0.0
 21
0.0
 31
0.0
  0
LINE
  5
7F606
  8
0
  6
BYBLOCK
 62
     0
 10
0.0
 20
0.0
 30
0.0
 11
-1.0
 21
0.0
 31
0.0
  0
ENDBLK
  5
7F6D1
  8
0
  0
BLOCK
  8
0
  2
*X437
 70
     1
 10
0.0
 20
0.0
 30
0.0
  3
*X437
  1

  0
ENDBLK
  5
E80D0
  8
0
  0
BLOCK
  8
0
  2
*X438
 70
     1
 10
0.0
 20
0.0
 30
0.0
  3
*X438
  1

  0
LINE
  5
E7F3F
  8
0
  6
CONTINUOUS
 10
3.418023043697893
 20
7.251849696850613
 30
0.0
 11
4.929273346838536
 21
8.763099999991255
 31
0.0
  0
LINE
  5
E7F40
  8
0
  6
CONTINUOUS
 10
1.483656411257782
 20
4.643963855330318
 30
0.0
 11
5.60279255591872
 21
8.763099999991255
 31
0.0
  0
LINE
  5
E7F41
  8
0
  6
CONTINUOUS
 10
1.755053947328235
 20
4.241842182320584
 30
0.0
 11
6.276311764998907
 21
8.763099999991255
 31
0.0
  0
LINE
  5
E7F42
  8
0
  6
CONTINUOUS
 10
2.026451483398688
 20
3.839720509310849
 30
0.0
 11
4.441040904851878
 21
6.254309930764039
 31
0.0
  0
LINE
  5
E7F43
  8
0
  6
CONTINUOUS
 10
2.297849019469139
 20
3.437598836301114
 30
0.0
 11
3.321765168359338
 21
4.461514985191313
 31
0.0
  0
LINE
  5
E7F44
  8
0
  6
CONTINUOUS
 10
2.569246555539591
 20
3.03547716329138
 30
0.0
 11
3.593163397972743
 21
4.059394005724531
 31
0.0
  0
LINE
  5
E7F45
  8
0
  6
CONTINUOUS
 10
2.840644091610043
 20
2.633355490281646
 30
0.0
 11
3.864561627586149
 21
3.657273026257751
 31
0.0
  0
LINE
  5
E7F46
  8
0
  6
CONTINUOUS
 10
3.112041627680496
 20
2.231233817271911
 30
0.0
 11
4.135959857199554
 21
3.25515204679097
 31
0.0
  0
LINE
  5
E7F47
  8
0
  6
CONTINUOUS
 10
3.383439163750948
 20
1.829112144262177
 30
0.0
 11
4.40735808681296
 21
2.853031067324189
 31
0.0
  0
LINE
  5
E7F48
  8
0
  6
CONTINUOUS
 10
3.654836699821399
 20
1.426990471252442
 30
0.0
 11
4.678756316426365
 21
2.450910087857407
 31
0.0
  0
LINE
  5
E7F49
  8
0
  6
CONTINUOUS
 10
3.926234235891853
 20
1.024868798242709
 30
0.0
 11
4.95015454603977
 21
2.048789108390626
 31
0.0
  0
LINE
  5
E7F4A
  8
0
  6
CONTINUOUS
 10
4.197631771962304
 20
0.6227471252329737
 30
0.0
 11
5.221552775653176
 21
1.646668128923846
 31
0.0
  0
LINE
  5
E7F4B
  8
0
  6
CONTINUOUS
 10
8.715877546767851
 20
7.835069736359266
 30
0.0
 11
9.435953450375058
 21
8.555145639966472
 31
0.0
  0
LINE
  5
E7F4C
  8
0
  6
CONTINUOUS
 10
8.170620868422267
 20
6.616293848933497
 30
0.0
 11
9.644120833743461
 21
8.08979381425469
 31
0.0
  0
LINE
  5
E7F4D
  8
0
  6
CONTINUOUS
 10
7.625364190076684
 20
5.397517961507727
 30
0.0
 11
9.852288217111864
 21
7.624441988542907
 31
0.0
  0
LINE
  5
E7F4E
  8
0
  6
CONTINUOUS
 10
7.080107511731101
 20
4.178742074081957
 30
0.0
 11
10.06045560048027
 21
7.159090162831124
 31
0.0
  0
LINE
  5
E7F4F
  8
0
  6
CONTINUOUS
 10
6.534850833385518
 20
2.959966186656187
 30
0.0
 11
10.26862298384867
 21
6.693738337119342
 31
0.0
  0
LINE
  5
E7F50
  8
0
  6
CONTINUOUS
 10
4.469029308032756
 20
0.2206254522232385
 30
0.0
 11
5.492951005266582
 21
1.244547149457064
 31
0.0
  0
LINE
  5
E7F51
  8
0
  6
CONTINUOUS
 10
5.989594155039935
 20
1.741190299230417
 30
0.0
 11
8.806950407233131
 21
4.558546551423613
 31
0.0
  0
LINE
  5
E7F52
  8
0
  6
CONTINUOUS
 10
9.401251593263643
 20
5.152847737454126
 30
0.0
 11
10.47679036721708
 21
6.228386511407559
 31
0.0
  0
LINE
  5
E7F53
  8
0
  6
CONTINUOUS
 10
4.921837203428691
 20
-0.0000858614610131
 30
0.0
 11
8.592923064886001
 21
3.670999999996297
 31
0.0
  0
LINE
  5
E7F54
  8
0
  6
CONTINUOUS
 10
9.609390446785305
 20
4.6874673818956
 30
0.0
 11
10.68495775058548
 21
5.763034685695775
 31
0.0
  0
LINE
  5
E7F55
  8
0
  6
CONTINUOUS
 10
5.595387755019432
 20
-0.0000545189504582
 30
0.0
 11
7.716137258923768
 21
2.120694984953879
 31
0.0
  0
LINE
  5
E7F56
  8
0
  6
CONTINUOUS
 10
6.268938306610172
 20
-0.000023176439905
 30
0.0
 11
7.170485805526503
 21
0.9015243224764267
 31
0.0
  0
LINE
  5
E7F57
  8
0
  6
CONTINUOUS
 10
7.963842273967511
 20
2.368399999997621
 30
0.0
 11
9.266442273966188
 21
3.670999999996297
 31
0.0
  0
LINE
  5
E7F58
  8
0
  6
CONTINUOUS
 10
8.637361483047696
 20
2.368399999997621
 30
0.0
 11
9.939961483046375
 21
3.670999999996297
 31
0.0
  0
LINE
  5
E7F59
  8
0
  6
CONTINUOUS
 10
9.817529300306965
 20
4.222087026337075
 30
0.0
 11
10.89312513395388
 21
5.297682859983993
 31
0.0
  0
LINE
  5
E7F5A
  8
0
  6
CONTINUOUS
 10
10.02566815382863
 20
3.756706670778549
 30
0.0
 11
11.10129251732229
 21
4.832331034272211
 31
0.0
  0
LINE
  5
E7F5B
  8
0
  6
CONTINUOUS
 10
9.310880692127883
 20
2.368399999997621
 30
0.0
 11
11.30945990069069
 21
4.366979208560428
 31
0.0
  0
LINE
  5
E7F5C
  8
0
  6
CONTINUOUS
 10
9.98439990120807
 20
2.36839999999762
 30
0.0
 11
11.5176272840591
 21
3.901627382848645
 31
0.0
  0
LINE
  5
E7F5D
  8
0
  6
CONTINUOUS
 10
10.65037369446246
 20
2.36085458417182
 30
0.0
 11
11.7257946674275
 21
3.436275557136862
 31
0.0
  0
LINE
  5
E7F5E
  8
0
  6
CONTINUOUS
 10
10.85847197087848
 20
1.895433651507656
 30
0.0
 11
11.9339620507959
 21
2.97092373142508
 31
0.0
  0
LINE
  5
E7F5F
  8
0
  6
CONTINUOUS
 10
11.0665702472945
 20
1.430012718843491
 30
0.0
 11
12.14212943416431
 21
2.505571905713296
 31
0.0
  0
LINE
  5
E7F60
  8
0
  6
CONTINUOUS
 10
11.27466852371052
 20
0.9645917861793256
 30
0.0
 11
12.35029681753271
 21
2.040220080001513
 31
0.0
  0
LINE
  5
E7F61
  8
0
  6
CONTINUOUS
 10
11.48276680012654
 20
0.4991708535151611
 30
0.0
 11
12.55846420090111
 21
1.57486825428973
 31
0.0
  0
LINE
  5
E7F62
  8
0
  6
CONTINUOUS
 10
11.69086507654257
 20
0.0337499208509957
 30
0.0
 11
12.76663158426952
 21
1.109516428577947
 31
0.0
  0
LINE
  5
E7F63
  8
0
  6
CONTINUOUS
 10
12.33057447873954
 20
-0.0000598860322123
 30
0.0
 11
12.97479896763792
 21
0.6441646028661663
 31
0.0
  0
LINE
  5
E7F64
  8
0
  6
CONTINUOUS
 10
13.00413694809395
 20
-0.0000166257579952
 30
0.0
 11
13.18296635100632
 21
0.1788127771543824
 31
0.0
  0
LINE
  5
E7F65
  8
0
  6
CONTINUOUS
 10
4.772852165289667
 20
-0.000092794222212
 30
0.0
 11
4.296495091028902
 21
0.4762642800385528
 31
0.0
  0
LINE
  5
E7F66
  8
0
  6
CONTINUOUS
 10
5.446340034776103
 20
-0.0000614546284616
 30
0.0
 11
2.898195908335625
 21
2.548082671812017
 31
0.0
  0
LINE
  5
E7F67
  8
0
  6
CONTINUOUS
 10
6.119827904262539
 20
-0.0000301150347113
 30
0.0
 11
1.499896725642348
 21
4.61990106358548
 31
0.0
  0
LINE
  5
E7F68
  8
0
  6
CONTINUOUS
 10
6.775136745476159
 20
0.0181802528318542
 30
0.0
 11
5.699826040202669
 21
1.093490958105344
 31
0.0
  0
LINE
  5
E7F69
  8
0
  6
CONTINUOUS
 10
6.983376846288489
 20
0.4834593610997118
 30
0.0
 11
5.908008617934405
 21
1.558827589453796
 31
0.0
  0
LINE
  5
E7F6A
  8
0
  6
CONTINUOUS
 10
5.377063484962296
 20
1.416253513345719
 30
0.0
 11
1.702276957014131
 21
5.091040041293883
 31
0.0
  0
LINE
  5
E7F6B
  8
0
  6
CONTINUOUS
 10
3.978745891735324
 20
3.488090315652877
 30
0.0
 11
2.000373521109399
 21
5.466462686278803
 31
0.0
  0
LINE
  5
E7F6C
  8
0
  6
CONTINUOUS
 10
7.191616947100819
 20
0.948738469367568
 30
0.0
 11
6.11619119566614
 21
2.024164220802247
 31
0.0
  0
LINE
  5
E7F6D
  8
0
  6
CONTINUOUS
 10
7.399857047913149
 20
1.414017577635424
 30
0.0
 11
6.324373773397875
 21
2.489500852150698
 31
0.0
  0
LINE
  5
E7F6E
  8
0
  6
CONTINUOUS
 10
7.608097148725479
 20
1.879296685903281
 30
0.0
 11
6.53255635112961
 21
2.95483748349915
 31
0.0
  0
LINE
  5
E7F6F
  8
0
  6
CONTINUOUS
 10
7.816337249537808
 20
2.344575794171138
 30
0.0
 11
6.740738928861345
 21
3.420174114847601
 31
0.0
  0
LINE
  5
E7F70
  8
0
  6
CONTINUOUS
 10
3.310241080789734
 20
4.830114335678653
 30
0.0
 11
2.298470085204666
 21
5.84188533126372
 31
0.0
  0
LINE
  5
E7F71
  8
0
  6
CONTINUOUS
 10
3.60832983563551
 20
5.205544789913063
 30
0.0
 11
2.596566649299935
 21
6.217307976248638
 31
0.0
  0
LINE
  5
E7F72
  8
0
  6
CONTINUOUS
 10
3.906418590481286
 20
5.580975244147473
 30
0.0
 11
2.894663213395203
 21
6.592730621233557
 31
0.0
  0
LINE
  5
E7F73
  8
0
  6
CONTINUOUS
 10
4.204507345327062
 20
5.956405698381884
 30
0.0
 11
3.192759777490472
 21
6.968153266218474
 31
0.0
  0
LINE
  5
E7F74
  8
0
  6
CONTINUOUS
 10
8.466032252791512
 20
2.368399999997621
 30
0.0
 11
6.948921506593081
 21
3.885510746196053
 31
0.0
  0
LINE
  5
E7F75
  8
0
  6
CONTINUOUS
 10
9.139551461871699
 20
2.36839999999762
 30
0.0
 11
7.157104084324816
 21
4.350847377544504
 31
0.0
  0
LINE
  5
E7F76
  8
0
  6
CONTINUOUS
 10
4.502596100172839
 20
6.331836152616295
 30
0.0
 11
3.49085634158574
 21
7.343575911203393
 31
0.0
  0
LINE
  5
E7F77
  8
0
  6
CONTINUOUS
 10
4.800684855018615
 20
6.707266606850705
 30
0.0
 11
3.788952905681008
 21
7.718998556188312
 31
0.0
  0
LINE
  5
E7F78
  8
0
  6
CONTINUOUS
 10
12.18154012887317
 20
-0.0000694579236642
 30
0.0
 11
11.32140332908496
 21
0.8600673418645499
 31
0.0
  0
LINE
  5
E7F79
  8
0
  6
CONTINUOUS
 10
12.85501608323566
 20
-0.0000262032059659
 30
0.0
 11
10.77672456435345
 21
2.078265315676246
 31
0.0
  0
LINE
  5
E7F7A
  8
0
  6
CONTINUOUS
 10
9.813070670951886
 20
2.36839999999762
 30
0.0
 11
8.51047067095321
 21
3.670999999996297
 31
0.0
  0
LINE
  5
E7F7B
  8
0
  6
CONTINUOUS
 10
10.48658988003207
 20
2.36839999999762
 30
0.0
 11
9.183989880033396
 21
3.670999999996297
 31
0.0
  0
LINE
  5
E7F7C
  8
0
  6
CONTINUOUS
 10
8.441048632286794
 20
3.740422038662712
 30
0.0
 11
7.365286662056551
 21
4.816184008892956
 31
0.0
  0
LINE
  5
E7F7D
  8
0
  6
CONTINUOUS
 10
8.649187485808454
 20
4.205802394221237
 30
0.0
 11
7.573469239788285
 21
5.281520640241407
 31
0.0
  0
LINE
  5
E7F7E
  8
0
  6
CONTINUOUS
 10
5.098773609864391
 20
7.082697061085115
 30
0.0
 11
4.087049469776277
 21
8.09442120117323
 31
0.0
  0
LINE
  5
E7F7F
  8
0
  6
CONTINUOUS
 10
5.396862364710167
 20
7.458127515319526
 30
0.0
 11
4.385146033871544
 21
8.469843846158149
 31
0.0
  0
LINE
  5
E7F80
  8
0
  6
CONTINUOUS
 10
13.04801363231285
 20
0.4804954567970334
 30
0.0
 11
9.85750908911358
 21
3.670999999996297
 31
0.0
  0
LINE
  5
E7F81
  8
0
  6
CONTINUOUS
 10
8.857326339330116
 20
4.671182749779763
 30
0.0
 11
7.781651817520021
 21
5.746857271589858
 31
0.0
  0
LINE
  5
E7F82
  8
0
  6
CONTINUOUS
 10
5.694951119555943
 20
7.833557969553937
 30
0.0
 11
4.765409089118624
 21
8.763099999991255
 31
0.0
  0
LINE
  5
E7F83
  8
0
  6
CONTINUOUS
 10
12.50286117236978
 20
1.699167125820288
 30
0.0
 11
9.68611877250287
 21
4.515909525687196
 31
0.0
  0
LINE
  5
E7F84
  8
0
  6
CONTINUOUS
 10
9.065465192851777
 20
5.136563105338288
 30
0.0
 11
7.989834395251757
 21
6.21219390293831
 31
0.0
  0
LINE
  5
E7F85
  8
0
  6
CONTINUOUS
 10
5.993039874401719
 20
8.208988423788346
 30
0.0
 11
5.43892829819881
 21
8.763099999991255
 31
0.0
  0
LINE
  5
E7F86
  8
0
  6
CONTINUOUS
 10
11.95770871242671
 20
2.917838794843543
 30
0.0
 11
8.19801697298349
 21
6.677530534286761
 31
0.0
  0
LINE
  5
E7F87
  8
0
  6
CONTINUOUS
 10
6.291128629247495
 20
8.584418878022756
 30
0.0
 11
6.112447507278997
 21
8.763099999991255
 31
0.0
  0
LINE
  5
E7F88
  8
0
  6
CONTINUOUS
 10
11.41255625248364
 20
4.136510463866797
 30
0.0
 11
8.406199550715227
 21
7.142867165635211
 31
0.0
  0
LINE
  5
E7F89
  8
0
  6
CONTINUOUS
 10
10.86740379254057
 20
5.355182132890051
 30
0.0
 11
8.614382128446962
 21
7.608203796983664
 31
0.0
  0
LINE
  5
E7F8A
  8
0
  6
CONTINUOUS
 10
10.3222513325975
 20
6.573853801913305
 30
0.0
 11
8.822564706178696
 21
8.073540428332114
 31
0.0
  0
LINE
  5
E7F8B
  8
0
  6
CONTINUOUS
 10
9.777098872654436
 20
7.792525470936562
 30
0.0
 11
9.030747283910433
 21
8.538877059680566
 31
0.0
  0
ENDBLK
  5
E80D2
  8
0
  0
BLOCK
  8
0
  2
*X439
 70
     1
 10
0.0
 20
0.0
 30
0.0
  3
*X439
  1

  0
LINE
  5
E7F8D
  8
0
  6
CONTINUOUS
 10
10.67292308101235
 20
8.445076852443387
 30
0.0
 11
10.99094622856022
 21
8.763099999991255
 31
0.0
  0
LINE
  5
E7F8E
  8
0
  6
CONTINUOUS
 10
10.87250383178748
 20
7.971138394138331
 30
0.0
 11
11.6644654376404
 21
8.763099999991255
 31
0.0
  0
LINE
  5
E7F8F
  8
0
  6
CONTINUOUS
 10
11.07208458256261
 20
7.497199935833273
 30
0.0
 11
12.12126590876355
 21
8.546381262034211
 31
0.0
  0
LINE
  5
E7F90
  8
0
  6
CONTINUOUS
 10
11.27166533333774
 20
7.023261477528216
 30
0.0
 11
12.32085164573666
 21
8.072447789927136
 31
0.0
  0
LINE
  5
E7F91
  8
0
  6
CONTINUOUS
 10
11.47124608411287
 20
6.549323019223158
 30
0.0
 11
12.52043738270977
 21
7.59851431782006
 31
0.0
  0
LINE
  5
E7F92
  8
0
  6
CONTINUOUS
 10
11.670826834888
 20
6.075384560918101
 30
0.0
 11
12.72002311968288
 21
7.124580845712984
 31
0.0
  0
LINE
  5
E7F93
  8
0
  6
CONTINUOUS
 10
11.87040758566313
 20
5.601446102613043
 30
0.0
 11
12.91960885665599
 21
6.650647373605907
 31
0.0
  0
LINE
  5
E7F94
  8
0
  6
CONTINUOUS
 10
12.06998833643825
 20
5.127507644307986
 30
0.0
 11
13.1191945936291
 21
6.176713901498832
 31
0.0
  0
LINE
  5
E7F95
  8
0
  6
CONTINUOUS
 10
12.26956908721338
 20
4.65356918600293
 30
0.0
 11
13.31878033060221
 21
5.702780429391757
 31
0.0
  0
LINE
  5
E7F96
  8
0
  6
CONTINUOUS
 10
12.46914983798851
 20
4.179630727697873
 30
0.0
 11
13.51836606757532
 21
5.228846957284683
 31
0.0
  0
LINE
  5
E7F97
  8
0
  6
CONTINUOUS
 10
12.66873058876364
 20
3.705692269392816
 30
0.0
 11
13.71795180454843
 21
4.754913485177607
 31
0.0
  0
LINE
  5
E7F98
  8
0
  6
CONTINUOUS
 10
12.86831133953877
 20
3.231753811087759
 30
0.0
 11
13.91753754152154
 21
4.280980013070531
 31
0.0
  0
LINE
  5
E7F99
  8
0
  6
CONTINUOUS
 10
13.0678920903139
 20
2.757815352782702
 30
0.0
 11
14.11712327849465
 21
3.807046540963456
 31
0.0
  0
LINE
  5
E7F9A
  8
0
  6
CONTINUOUS
 10
13.26747284108903
 20
2.283876894477644
 30
0.0
 11
14.31670901546777
 21
3.333113068856379
 31
0.0
  0
LINE
  5
E7F9B
  8
0
  6
CONTINUOUS
 10
16.36767838827179
 20
8.751678487061342
 30
0.0
 11
16.50332410898388
 21
8.887324207773432
 31
0.0
  0
LINE
  5
E7F9C
  8
0
  6
CONTINUOUS
 10
15.96190732182191
 20
7.67238821153127
 30
0.0
 11
16.68735328004734
 21
8.397834169756699
 31
0.0
  0
LINE
  5
E7F9D
  8
0
  6
CONTINUOUS
 10
15.55613625537202
 20
6.593097936001196
 30
0.0
 11
16.87138245111079
 21
7.908344131739965
 31
0.0
  0
LINE
  5
E7F9E
  8
0
  6
CONTINUOUS
 10
15.15036518892213
 20
5.513807660471122
 30
0.0
 11
17.05541162217424
 21
7.418854093723231
 31
0.0
  0
LINE
  5
E7F9F
  8
0
  6
CONTINUOUS
 10
14.74459412247225
 20
4.434517384941048
 30
0.0
 11
17.2394407932377
 21
6.929364055706499
 31
0.0
  0
LINE
  5
E7FA0
  8
0
  6
CONTINUOUS
 10
14.33882305602236
 20
3.355227109410975
 30
0.0
 11
17.42346996430115
 21
6.439874017689766
 31
0.0
  0
LINE
  5
E7FA1
  8
0
  6
CONTINUOUS
 10
13.46705359186416
 20
1.809938436172586
 30
0.0
 11
16.0819338255367
 21
4.424818669845129
 31
0.0
  0
LINE
  5
E7FA2
  8
0
  6
CONTINUOUS
 10
16.63283254238972
 20
4.975717386698149
 30
0.0
 11
17.60749913536461
 21
5.950383979673033
 31
0.0
  0
LINE
  5
E7FA3
  8
0
  6
CONTINUOUS
 10
13.66663434263929
 20
1.335999977867529
 30
0.0
 11
15.67604797733754
 21
3.345413612565779
 31
0.0
  0
LINE
  5
E7FA4
  8
0
  6
CONTINUOUS
 10
13.86621509341442
 20
0.8620615195624723
 30
0.0
 11
15.27016212913838
 21
2.26600855528643
 31
0.0
  0
LINE
  5
E7FA5
  8
0
  6
CONTINUOUS
 10
16.81682257348267
 20
4.486188208710908
 30
0.0
 11
17.79152830642806
 21
5.460893941656299
 31
0.0
  0
LINE
  5
E7FA6
  8
0
  6
CONTINUOUS
 10
17.00081260457561
 20
3.996659030723667
 30
0.0
 11
17.97555747749151
 21
4.971403903639565
 31
0.0
  0
LINE
  5
E7FA7
  8
0
  6
CONTINUOUS
 10
20.74362343514722
 20
8.412989070375462
 30
0.0
 11
21.09373436476302
 21
8.763099999991256
 31
0.0
  0
LINE
  5
E7FA8
  8
0
  6
CONTINUOUS
 10
20.25401257174777
 20
7.249858997895826
 30
0.0
 11
21.7672535738432
 21
8.763099999991255
 31
0.0
  0
LINE
  5
E7FA9
  8
0
  6
CONTINUOUS
 10
14.06579584418955
 20
0.3881230612574149
 30
0.0
 11
14.86427628093921
 21
1.186603498007082
 31
0.0
  0
LINE
  5
E7FAA
  8
0
  6
CONTINUOUS
 10
14.26537659496467
 20
-0.0858153970476412
 30
0.0
 11
14.45839043274005
 21
0.1071984407277329
 31
0.0
  0
LINE
  5
E7FAB
  8
0
  6
CONTINUOUS
 10
17.18480263566856
 20
3.507129852736426
 30
0.0
 11
18.15958664855496
 21
4.481913865622833
 31
0.0
  0
LINE
  5
E7FAC
  8
0
  6
CONTINUOUS
 10
17.3687926667615
 20
3.017600674749186
 30
0.0
 11
18.34361581961842
 21
3.9924238276061
 31
0.0
  0
LINE
  5
E7FAD
  8
0
  6
CONTINUOUS
 10
19.76440170834832
 20
6.086728925416191
 30
0.0
 11
22.33924590259489
 21
8.661573119662755
 31
0.0
  0
LINE
  5
E7FAE
  8
0
  6
CONTINUOUS
 10
19.27479084494887
 20
4.923598852936555
 30
0.0
 11
21.84929622842713
 21
7.498104236414807
 31
0.0
  0
LINE
  5
E7FAF
  8
0
  6
CONTINUOUS
 10
17.55278269785445
 20
2.528071496761945
 30
0.0
 11
18.52764499068187
 21
3.502933789589366
 31
0.0
  0
LINE
  5
E7FB0
  8
0
  6
CONTINUOUS
 10
18.78517998154942
 20
3.760468780456919
 30
0.0
 11
21.35934655425936
 21
6.33463535316686
 31
0.0
  0
LINE
  5
E7FB1
  8
0
  6
CONTINUOUS
 10
17.73677272894739
 20
2.038542318774704
 30
0.0
 11
20.8693968800916
 21
5.171166469918914
 31
0.0
  0
LINE
  5
E7FB2
  8
0
  6
CONTINUOUS
 10
17.92076276004034
 20
1.549013140787464
 30
0.0
 11
20.37944720592384
 21
4.007697586670968
 31
0.0
  0
LINE
  5
E7FB3
  8
0
  6
CONTINUOUS
 10
18.10475279113329
 20
1.059483962800223
 30
0.0
 11
19.88949753175608
 21
2.84422870342302
 31
0.0
  0
LINE
  5
E7FB4
  8
0
  6
CONTINUOUS
 10
18.28874282222623
 20
0.5699547848129822
 30
0.0
 11
19.39954785758832
 21
1.680759820175074
 31
0.0
  0
LINE
  5
E7FB5
  8
0
  6
CONTINUOUS
 10
18.47273285331918
 20
0.0804256068257416
 30
0.0
 11
18.90959818342056
 21
0.517290936927127
 31
0.0
  0
LINE
  5
E7FB6
  8
0
  6
CONTINUOUS
 10
14.3590401358224
 20
-0.1570118376323384
 30
0.0
 11
14.24903296539946
 21
-0.0470046672093929
 31
0.0
  0
LINE
  5
E7FB7
  8
0
  6
CONTINUOUS
 10
14.54309291258661
 20
0.332454594683643
 30
0.0
 11
13.75908329123172
 21
1.116464216038529
 31
0.0
  0
LINE
  5
E7FB8
  8
0
  6
CONTINUOUS
 10
14.72714568935081
 20
0.8219210269996244
 30
0.0
 11
13.26913361706399
 21
2.27993309928645
 31
0.0
  0
LINE
  5
E7FB9
  8
0
  6
CONTINUOUS
 10
14.91119846611502
 20
1.311387459315606
 30
0.0
 11
12.77918394289625
 21
3.443401982534371
 31
0.0
  0
LINE
  5
E7FBA
  8
0
  6
CONTINUOUS
 10
15.09525124287922
 20
1.800853891631587
 30
0.0
 11
12.28923426872852
 21
4.606870865782293
 31
0.0
  0
LINE
  5
E7FBB
  8
0
  6
CONTINUOUS
 10
15.27930401964343
 20
2.290320323947569
 30
0.0
 11
11.79928459456078
 21
5.770339749030213
 31
0.0
  0
LINE
  5
E7FBC
  8
0
  6
CONTINUOUS
 10
15.46335679640763
 20
2.77978675626355
 30
0.0
 11
14.48885470994921
 21
3.754288842721972
 31
0.0
  0
LINE
  5
E7FBD
  8
0
  6
CONTINUOUS
 10
13.88507249233704
 20
4.358071060334137
 30
0.0
 11
11.30933492039305
 21
6.933808632278135
 31
0.0
  0
LINE
  5
E7FBE
  8
0
  6
CONTINUOUS
 10
18.75840522805855
 20
0.1582575336928151
 30
0.0
 11
18.25383727664818
 21
0.6628254851031863
 31
0.0
  0
LINE
  5
E7FBF
  8
0
  6
CONTINUOUS
 10
15.64740957317184
 20
3.269253188579531
 30
0.0
 11
14.67288388101266
 21
4.243778880738705
 31
0.0
  0
LINE
  5
E7FC0
  8
0
  6
CONTINUOUS
 10
13.39509276772158
 20
5.521569994029786
 30
0.0
 11
10.81938524622531
 21
8.097277515526056
 31
0.0
  0
LINE
  5
E7FC1
  8
0
  6
CONTINUOUS
 10
18.95798597883369
 20
0.6321959919978686
 30
0.0
 11
17.84825644852853
 21
1.741925522303024
 31
0.0
  0
LINE
  5
E7FC2
  8
0
  6
CONTINUOUS
 10
19.15756672960882
 20
1.106134450302922
 30
0.0
 11
17.44267562040888
 21
2.821025559502861
 31
0.0
  0
LINE
  5
E7FC3
  8
0
  6
CONTINUOUS
 10
15.83146234993604
 20
3.758719620895513
 30
0.0
 11
14.85691305207612
 21
4.733268918755439
 31
0.0
  0
LINE
  5
E7FC4
  8
0
  6
CONTINUOUS
 10
16.01551512670025
 20
4.248186053211494
 30
0.0
 11
15.04094222313957
 21
5.222758956772172
 31
0.0
  0
LINE
  5
E7FC5
  8
0
  6
CONTINUOUS
 10
12.90511304310612
 20
6.685068927725435
 30
0.0
 11
10.8270819708403
 21
8.763099999991255
 31
0.0
  0
LINE
  5
E7FC6
  8
0
  6
CONTINUOUS
 10
12.41513331849066
 20
7.848567861421083
 30
0.0
 11
11.50060117992049
 21
8.763099999991255
 31
0.0
  0
LINE
  5
E7FC7
  8
0
  6
CONTINUOUS
 10
19.35714748038395
 20
1.580072908607975
 30
0.0
 11
17.03709479228923
 21
3.900125596702697
 31
0.0
  0
LINE
  5
E7FC8
  8
0
  6
CONTINUOUS
 10
19.55672823115909
 20
2.054011366913028
 30
0.0
 11
16.63151396416958
 21
4.979225633902534
 31
0.0
  0
LINE
  5
E7FC9
  8
0
  6
CONTINUOUS
 10
16.19956790346445
 20
4.737652485527476
 30
0.0
 11
15.22497139420302
 21
5.712248994788904
 31
0.0
  0
LINE
  5
E7FCA
  8
0
  6
CONTINUOUS
 10
16.38362068022866
 20
5.227118917843457
 30
0.0
 11
15.40900056526648
 21
6.201739032805637
 31
0.0
  0
LINE
  5
E7FCB
  8
0
  6
CONTINUOUS
 10
19.75630898193422
 20
2.527949825218081
 30
0.0
 11
18.70774536448286
 21
3.576513442669441
 31
0.0
  0
LINE
  5
E7FCC
  8
0
  6
CONTINUOUS
 10
19.95588973270936
 20
3.001888283523134
 30
0.0
 11
18.90726987211446
 21
4.050508144118028
 31
0.0
  0
LINE
  5
E7FCD
  8
0
  6
CONTINUOUS
 10
20.15547048348449
 20
3.475826741828186
 30
0.0
 11
19.10679437974606
 21
4.524502845566614
 31
0.0
  0
LINE
  5
E7FCE
  8
0
  6
CONTINUOUS
 10
20.35505123425962
 20
3.94976520013324
 30
0.0
 11
19.30631888737766
 21
4.998497547015201
 31
0.0
  0
LINE
  5
E7FCF
  8
0
  6
CONTINUOUS
 10
20.55463198503475
 20
4.423703658438292
 30
0.0
 11
19.50584339500926
 21
5.472492248463787
 31
0.0
  0
LINE
  5
E7FD0
  8
0
  6
CONTINUOUS
 10
18.37481191085755
 20
3.909446896294752
 30
0.0
 11
15.59302973632993
 21
6.691229070822371
 31
0.0
  0
LINE
  5
E7FD1
  8
0
  6
CONTINUOUS
 10
17.96904084440766
 20
4.988737171824825
 30
0.0
 11
15.77705890739338
 21
7.180719108839104
 31
0.0
  0
LINE
  5
E7FD2
  8
0
  6
CONTINUOUS
 10
17.56326977795777
 20
6.068027447354899
 30
0.0
 11
15.96108807845684
 21
7.670209146855838
 31
0.0
  0
LINE
  5
E7FD3
  8
0
  6
CONTINUOUS
 10
17.15749871150789
 20
7.147317722884972
 30
0.0
 11
16.14511724952029
 21
8.15969918487257
 31
0.0
  0
LINE
  5
E7FD4
  8
0
  6
CONTINUOUS
 10
16.751727645058
 20
8.226607998415046
 30
0.0
 11
16.32914642058374
 21
8.649189222889303
 31
0.0
  0
LINE
  5
E7FD5
  8
0
  6
CONTINUOUS
 10
20.75421273580989
 20
4.897642116743345
 30
0.0
 11
19.70536790264086
 21
5.946486949912374
 31
0.0
  0
LINE
  5
E7FD6
  8
0
  6
CONTINUOUS
 10
20.95379348658502
 20
5.371580575048398
 30
0.0
 11
19.90489241027246
 21
6.42048165136096
 31
0.0
  0
LINE
  5
E7FD7
  8
0
  6
CONTINUOUS
 10
21.15337423736015
 20
5.845519033353452
 30
0.0
 11
20.10441691790406
 21
6.894476352809547
 31
0.0
  0
LINE
  5
E7FD8
  8
0
  6
CONTINUOUS
 10
21.35295498813529
 20
6.319457491658505
 30
0.0
 11
20.30394142553566
 21
7.368471054258134
 31
0.0
  0
LINE
  5
E7FD9
  8
0
  6
CONTINUOUS
 10
21.55253573891042
 20
6.793395949963558
 30
0.0
 11
20.50346593316726
 21
7.842465755706721
 31
0.0
  0
LINE
  5
E7FDA
  8
0
  6
CONTINUOUS
 10
21.75211648968556
 20
7.267334408268612
 30
0.0
 11
20.70299044079886
 21
8.316460457155308
 31
0.0
  0
LINE
  5
E7FDB
  8
0
  6
CONTINUOUS
 10
21.95169724046069
 20
7.741272866573663
 30
0.0
 11
20.9298701070431
 21
8.763099999991256
 31
0.0
  0
LINE
  5
E7FDC
  8
0
  6
CONTINUOUS
 10
22.15127799123582
 20
8.215211324878716
 30
0.0
 11
21.60338931612328
 21
8.763099999991256
 31
0.0
  0
LINE
  5
E7FDD
  8
0
  6
CONTINUOUS
 10
22.35085874201096
 20
8.689149783183769
 30
0.0
 11
22.27690852520347
 21
8.763099999991255
 31
0.0
  0
ENDBLK
  5
E80D4
  8
0
  0
BLOCK
  8
0
  2
*X440
 70
     1
 10
0.0
 20
0.0
 30
0.0
  3
*X440
  1

  0
LINE
  5
E7FDF
  8
0
  6
CONTINUOUS
 10
23.19462913593892
 20
8.169917934846424
 30
0.0
 11
23.70775465517246
 21
8.683043454079957
 31
0.0
  0
LINE
  5
E7FE0
  8
0
  6
CONTINUOUS
 10
22.64923161835078
 20
6.951001208178088
 30
0.0
 11
23.9159364069932
 21
8.217705996820516
 31
0.0
  0
LINE
  5
E7FE1
  8
0
  6
CONTINUOUS
 10
22.10383410076263
 20
5.732084481509751
 30
0.0
 11
24.12411815881395
 21
7.752368539561078
 31
0.0
  0
LINE
  5
E7FE2
  8
0
  6
CONTINUOUS
 10
21.55843658317447
 20
4.513167754841414
 30
0.0
 11
24.3322999106347
 21
7.287031082301639
 31
0.0
  0
LINE
  5
E7FE3
  8
0
  6
CONTINUOUS
 10
21.01303906558632
 20
3.294251028173077
 30
0.0
 11
24.54048166245544
 21
6.821693625042199
 31
0.0
  0
LINE
  5
E7FE4
  8
0
  6
CONTINUOUS
 10
20.46764154799817
 20
2.075334301504738
 30
0.0
 11
23.28571549467848
 21
4.89340824818505
 31
0.0
  0
LINE
  5
E7FE5
  8
0
  6
CONTINUOUS
 10
19.92224403041002
 20
0.8564175748364002
 30
0.0
 11
22.74075865492779
 21
3.674932199354171
 31
0.0
  0
LINE
  5
E7FE6
  8
0
  6
CONTINUOUS
 10
23.67305085490148
 20
5.280743608408048
 30
0.0
 11
24.74866341427619
 21
6.356356167782759
 31
0.0
  0
LINE
  5
E7FE7
  8
0
  6
CONTINUOUS
 10
23.88118970842314
 20
4.815363252849522
 30
0.0
 11
24.95684516609694
 21
5.89101871052332
 31
0.0
  0
LINE
  5
E7FE8
  8
0
  6
CONTINUOUS
 10
19.73925852647308
 20
-0.0000871381807288
 30
0.0
 11
23.4103456646501
 21
3.670999999996297
 31
0.0
  0
LINE
  5
E7FE9
  8
0
  6
CONTINUOUS
 10
24.0893285619448
 20
4.349982897290997
 30
0.0
 11
25.16502691791769
 21
5.42568125326388
 31
0.0
  0
LINE
  5
E7FEA
  8
0
  6
CONTINUOUS
 10
20.41282099582748
 20
-0.0000438779065108
 30
0.0
 11
21.64944178675636
 21
1.236576913022366
 31
0.0
  0
LINE
  5
E7FEB
  8
0
  6
CONTINUOUS
 10
22.78126487373161
 20
2.36839999999762
 30
0.0
 11
24.08386487373029
 21
3.670999999996297
 31
0.0
  0
LINE
  5
E7FEC
  8
0
  6
CONTINUOUS
 10
24.29746741546646
 20
3.884602541732471
 30
0.0
 11
25.37320866973843
 21
4.960343796004441
 31
0.0
  0
LINE
  5
E7FED
  8
0
  6
CONTINUOUS
 10
21.08638346518189
 20
-0.0000006176322938
 30
0.0
 11
21.10379033335899
 21
0.0174062505448083
 31
0.0
  0
LINE
  5
E7FEE
  8
0
  6
CONTINUOUS
 10
23.4547840828118
 20
2.36839999999762
 30
0.0
 11
25.58139042155918
 21
4.495006338745002
 31
0.0
  0
LINE
  5
E7FEF
  8
0
  6
CONTINUOUS
 10
29.30199999996933
 20
8.215615917155148
 30
0.0
 11
29.84948408280543
 21
8.763099999991255
 31
0.0
  0
LINE
  5
E7FF0
  8
0
  6
CONTINUOUS
 10
24.12830329189199
 20
2.36839999999762
 30
0.0
 11
25.78957217337993
 21
4.029668881485562
 31
0.0
  0
LINE
  5
E7FF1
  8
0
  6
CONTINUOUS
 10
29.30199999996933
 20
7.54209670807496
 30
0.0
 11
30.52300329188562
 21
8.763099999991255
 31
0.0
  0
LINE
  5
E7FF2
  8
0
  6
CONTINUOUS
 10
24.80182250097217
 20
2.36839999999762
 30
0.0
 11
25.99775392520067
 21
3.564331424226122
 31
0.0
  0
LINE
  5
E7FF3
  8
0
  6
CONTINUOUS
 10
29.30199999996933
 20
6.868577498994774
 30
0.0
 11
30.74199999996926
 21
8.308577498994712
 31
0.0
  0
LINE
  5
E7FF4
  8
0
  6
CONTINUOUS
 10
25.13028238392013
 20
2.023340673865392
 30
0.0
 11
26.20593567702142
 21
3.098993966966683
 31
0.0
  0
LINE
  5
E7FF5
  8
0
  6
CONTINUOUS
 10
25.33838066033617
 20
1.557919741201244
 30
0.0
 11
26.41411742884217
 21
2.633656509707244
 31
0.0
  0
LINE
  5
E7FF6
  8
0
  6
CONTINUOUS
 10
25.54647893675221
 20
1.092498808537098
 30
0.0
 11
26.62229918066291
 21
2.168319052447804
 31
0.0
  0
LINE
  5
E7FF7
  8
0
  6
CONTINUOUS
 10
25.75457721316825
 20
0.62707787587295
 30
0.0
 11
26.83048093248366
 21
1.702981595188365
 31
0.0
  0
LINE
  5
E7FF8
  8
0
  6
CONTINUOUS
 10
29.30199999996933
 20
6.195058289914587
 30
0.0
 11
30.74199999996926
 21
7.635058289914522
 31
0.0
  0
LINE
  5
E7FF9
  8
0
  6
CONTINUOUS
 10
29.30199999996933
 20
5.521539080834401
 30
0.0
 11
30.74199999996926
 21
6.961539080834331
 31
0.0
  0
LINE
  5
E7FFA
  8
0
  6
CONTINUOUS
 10
29.30199999996933
 20
4.848019871754214
 30
0.0
 11
30.74199999996925
 21
6.288019871754143
 31
0.0
  0
LINE
  5
E7FFB
  8
0
  6
CONTINUOUS
 10
29.30199999996933
 20
4.174500662674028
 30
0.0
 11
30.74199999996925
 21
5.614500662673953
 31
0.0
  0
LINE
  5
E7FFC
  8
0
  6
CONTINUOUS
 10
25.96267548958429
 20
0.1616569432088024
 30
0.0
 11
27.18411854636669
 21
1.383099999991207
 31
0.0
  0
LINE
  5
E7FFD
  8
0
  6
CONTINUOUS
 10
29.30199999996933
 20
3.500981453593841
 30
0.0
 11
30.74199999996925
 21
4.940981453593762
 31
0.0
  0
LINE
  5
E7FFE
  8
0
  6
CONTINUOUS
 10
26.50763775544691
 20
0.0330999999912356
 30
0.0
 11
27.85763775544689
 21
1.383099999991223
 31
0.0
  0
LINE
  5
E7FFF
  8
0
  6
CONTINUOUS
 10
29.30199999996933
 20
2.827462244513656
 30
0.0
 11
30.74199999996925
 21
4.267462244513574
 31
0.0
  0
LINE
  5
E8000
  8
0
  6
CONTINUOUS
 10
27.18115696452709
 20
0.0330999999912356
 30
0.0
 11
28.55073879889363
 21
1.402681834357775
 31
0.0
  0
LINE
  5
E8001
  8
0
  6
CONTINUOUS
 10
29.28241816560272
 20
2.134361201066866
 30
0.0
 11
30.74199999996924
 21
3.593943035433383
 31
0.0
  0
LINE
  5
E8002
  8
0
  6
CONTINUOUS
 10
27.85467617360728
 20
0.0330999999912356
 30
0.0
 11
30.74199999996924
 21
2.920423826353195
 31
0.0
  0
LINE
  5
E8003
  8
0
  6
CONTINUOUS
 10
28.53897559587887
 20
0.0438802131826428
 30
0.0
 11
30.73121978677781
 21
2.236124404081585
 31
0.0
  0
LINE
  5
E8004
  8
0
  6
CONTINUOUS
 10
29.45140055588722
 20
0.2827859641107988
 30
0.0
 11
30.49231403584965
 21
1.323699444073236
 31
0.0
  0
LINE
  5
E8005
  8
0
  6
CONTINUOUS
 10
19.59027867740337
 20
-0.0000967065718083
 30
0.0
 11
19.55485265190471
 21
0.035329318926844
 31
0.0
  0
LINE
  5
E8006
  8
0
  6
CONTINUOUS
 10
20.26375463176586
 20
-0.0000534518541091
 30
0.0
 11
19.76305575737534
 21
0.5006454225364014
 31
0.0
  0
LINE
  5
E8007
  8
0
  6
CONTINUOUS
 10
20.93723058612834
 20
-0.0000101971364099
 30
0.0
 11
19.97125886284597
 21
0.965961526145958
 31
0.0
  0
LINE
  5
E8008
  8
0
  6
CONTINUOUS
 10
21.25514828313686
 20
0.355591314935257
 30
0.0
 11
20.1794619683166
 21
1.431277629755512
 31
0.0
  0
LINE
  5
E8009
  8
0
  6
CONTINUOUS
 10
21.46338838394921
 20
0.8208704232030986
 30
0.0
 11
20.38766507378723
 21
1.896593733365069
 31
0.0
  0
LINE
  5
E800A
  8
0
  6
CONTINUOUS
 10
21.67162848476155
 20
1.28614953147094
 30
0.0
 11
20.59586817925786
 21
2.361909836974626
 31
0.0
  0
LINE
  5
E800B
  8
0
  6
CONTINUOUS
 10
21.8798685855739
 20
1.751428639738782
 30
0.0
 11
20.80407128472849
 21
2.827225940584183
 31
0.0
  0
LINE
  5
E800C
  8
0
  6
CONTINUOUS
 10
22.08810868638624
 20
2.216707748006623
 30
0.0
 11
21.01227439019912
 21
3.292542044193739
 31
0.0
  0
LINE
  5
E800D
  8
0
  6
CONTINUOUS
 10
22.60993564347543
 20
2.36839999999762
 30
0.0
 11
21.22047749566975
 21
3.757858147803296
 31
0.0
  0
LINE
  5
E800E
  8
0
  6
CONTINUOUS
 10
23.28345485255561
 20
2.36839999999762
 30
0.0
 11
21.42868060114038
 21
4.223174251412853
 31
0.0
  0
LINE
  5
E800F
  8
0
  6
CONTINUOUS
 10
26.29227406164219
 20
0.0330999999912356
 30
0.0
 11
25.80009199592872
 21
0.5252820657046957
 31
0.0
  0
LINE
  5
E8010
  8
0
  6
CONTINUOUS
 10
23.9569740616358
 20
2.36839999999762
 30
0.0
 11
21.63688370661101
 21
4.688490355022409
 31
0.0
  0
LINE
  5
E8011
  8
0
  6
CONTINUOUS
 10
26.96579327072237
 20
0.0330999999912356
 30
0.0
 11
25.2554132311971
 21
1.743480039516508
 31
0.0
  0
LINE
  5
E8012
  8
0
  6
CONTINUOUS
 10
24.63049327071599
 20
2.36839999999762
 30
0.0
 11
23.32789327071731
 21
3.670999999996297
 31
0.0
  0
LINE
  5
E8013
  8
0
  6
CONTINUOUS
 10
22.92098674744635
 20
4.077906523267254
 30
0.0
 11
21.84508681208164
 21
5.153806458631966
 31
0.0
  0
LINE
  5
E8014
  8
0
  6
CONTINUOUS
 10
27.63931247980256
 20
0.0330999999912356
 30
0.0
 11
24.0014124797975
 21
3.670999999996297
 31
0.0
  0
LINE
  5
E8015
  8
0
  6
CONTINUOUS
 10
23.129125600968
 20
4.5432868788258
 30
0.0
 11
22.05328991755227
 21
5.619122562241522
 31
0.0
  0
LINE
  5
E8016
  8
0
  6
CONTINUOUS
 10
28.31283168888275
 20
0.0330999999912356
 30
0.0
 11
24.16488385994816
 21
4.181047828925828
 31
0.0
  0
LINE
  5
E8017
  8
0
  6
CONTINUOUS
 10
23.33726445448964
 20
5.008667234384345
 30
0.0
 11
22.2614930230229
 21
6.084438665851079
 31
0.0
  0
LINE
  5
E8018
  8
0
  6
CONTINUOUS
 10
28.92085740005492
 20
0.0985934978992438
 30
0.0
 11
27.63635089796295
 21
1.383099999991217
 31
0.0
  0
LINE
  5
E8019
  8
0
  6
CONTINUOUS
 10
26.43704649509776
 20
2.582404402856405
 30
0.0
 11
23.61992702019732
 21
5.399523877756844
 31
0.0
  0
LINE
  5
E801A
  8
0
  6
CONTINUOUS
 10
23.54540330801128
 20
5.47404758994289
 30
0.0
 11
22.46969612849353
 21
6.549754769460635
 31
0.0
  0
LINE
  5
E801B
  8
0
  6
CONTINUOUS
 10
29.42225615078443
 20
0.2707139562499279
 30
0.0
 11
28.30987010704312
 21
1.383099999991234
 31
0.0
  0
LINE
  5
E801C
  8
0
  6
CONTINUOUS
 10
25.89179548232307
 20
3.801174624711282
 30
0.0
 11
22.67789923396416
 21
7.015070873070191
 31
0.0
  0
LINE
  5
E801D
  8
0
  6
CONTINUOUS
 10
29.83624534690007
 20
0.5302439692144705
 30
0.0
 11
28.85811781497101
 21
1.508371501143527
 31
0.0
  0
LINE
  5
E801E
  8
0
  6
CONTINUOUS
 10
25.34654446954838
 20
5.01994484656616
 30
0.0
 11
22.88610233943479
 21
7.480386976679748
 31
0.0
  0
LINE
  5
E801F
  8
0
  6
CONTINUOUS
 10
30.17865975401872
 20
0.8613487711760022
 30
0.0
 11
29.18888744090175
 21
1.851121084292977
 31
0.0
  0
LINE
  5
E8020
  8
0
  6
CONTINUOUS
 10
24.80129345677369
 20
6.238715068421037
 30
0.0
 11
23.09430544490542
 21
7.945703080289305
 31
0.0
  0
LINE
  5
E8021
  8
0
  6
CONTINUOUS
 10
30.45496647202376
 20
1.258561262251155
 30
0.0
 11
29.30199999996933
 21
2.411527734305588
 31
0.0
  0
LINE
  5
E8022
  8
0
  6
CONTINUOUS
 10
24.256042443999
 20
7.457485290275915
 30
0.0
 11
23.30250855037605
 21
8.411019183898862
 31
0.0
  0
LINE
  5
E8023
  8
0
  6
CONTINUOUS
 10
30.64868582078271
 20
1.738361122572387
 30
0.0
 11
29.30199999996933
 21
3.085046943385775
 31
0.0
  0
LINE
  5
E8024
  8
0
  6
CONTINUOUS
 10
23.71079143122431
 20
8.676255512130794
 30
0.0
 11
23.51071165584668
 21
8.876335287508416
 31
0.0
  0
LINE
  5
E8025
  8
0
  6
CONTINUOUS
 10
30.73802122914428
 20
2.322544923291007
 30
0.0
 11
29.30199999996933
 21
3.758566152465961
 31
0.0
  0
LINE
  5
E8026
  8
0
  6
CONTINUOUS
 10
30.74199999996924
 20
2.992085361546236
 30
0.0
 11
29.30199999996933
 21
4.432085361546148
 31
0.0
  0
LINE
  5
E8027
  8
0
  6
CONTINUOUS
 10
30.74199999996924
 20
3.665604570626419
 30
0.0
 11
29.30199999996933
 21
5.105604570626333
 31
0.0
  0
LINE
  5
E8028
  8
0
  6
CONTINUOUS
 10
30.74199999996925
 20
4.339123779706602
 30
0.0
 11
29.30199999996933
 21
5.77912377970652
 31
0.0
  0
LINE
  5
E8029
  8
0
  6
CONTINUOUS
 10
30.74199999996925
 20
5.012642988786785
 30
0.0
 11
29.30199999996933
 21
6.452642988786707
 31
0.0
  0
LINE
  5
E802A
  8
0
  6
CONTINUOUS
 10
30.74199999996925
 20
5.68616219786697
 30
0.0
 11
29.30199999996933
 21
7.126162197866894
 31
0.0
  0
LINE
  5
E802B
  8
0
  6
CONTINUOUS
 10
30.74199999996925
 20
6.359681406947153
 30
0.0
 11
29.30199999996933
 21
7.799681406947081
 31
0.0
  0
LINE
  5
E802C
  8
0
  6
CONTINUOUS
 10
30.74199999996926
 20
7.033200616027337
 30
0.0
 11
29.30199999996933
 21
8.473200616027269
 31
0.0
  0
LINE
  5
E802D
  8
0
  6
CONTINUOUS
 10
30.74199999996926
 20
7.706719825107518
 30
0.0
 11
29.68561982508552
 21
8.763099999991255
 31
0.0
  0
LINE
  5
E802E
  8
0
  6
CONTINUOUS
 10
30.74199999996926
 20
8.380239034187703
 30
0.0
 11
30.35913903416571
 21
8.763099999991255
 31
0.0
  0
ENDBLK
  5
E80D6
  8
0
  0
BLOCK
  8
0
  2
*X441
 70
     1
 10
0.0
 20
0.0
 30
0.0
  3
*X441
  1

  0
LINE
  5
E8030
  8
0
  6
CONTINUOUS
 10
31.64199999996833
 20
8.535058289913598
 30
0.0
 11
31.87004171004599
 21
8.763099999991255
 31
0.0
  0
LINE
  5
E8031
  8
0
  6
CONTINUOUS
 10
31.64199999996833
 20
7.861539080833412
 30
0.0
 11
32.54356091912618
 21
8.763099999991255
 31
0.0
  0
LINE
  5
E8032
  8
0
  6
CONTINUOUS
 10
31.64199999996833
 20
7.188019871753226
 30
0.0
 11
33.08199999996839
 21
8.628019871753281
 31
0.0
  0
LINE
  5
E8033
  8
0
  6
CONTINUOUS
 10
31.64199999996833
 20
6.51450066267304
 30
0.0
 11
33.08199999996839
 21
7.954500662673095
 31
0.0
  0
LINE
  5
E8034
  8
0
  6
CONTINUOUS
 10
31.64199999996833
 20
5.840981453592853
 30
0.0
 11
33.08199999996839
 21
7.280981453592908
 31
0.0
  0
LINE
  5
E8035
  8
0
  6
CONTINUOUS
 10
31.64199999996833
 20
5.167462244512667
 30
0.0
 11
33.08199999996839
 21
6.607462244512721
 31
0.0
  0
LINE
  5
E8036
  8
0
  6
CONTINUOUS
 10
31.64199999996833
 20
4.493943035432481
 30
0.0
 11
33.08199999996839
 21
5.933943035432535
 31
0.0
  0
LINE
  5
E8037
  8
0
  6
CONTINUOUS
 10
31.64199999996833
 20
3.820423826352293
 30
0.0
 11
33.08199999996839
 21
5.260423826352348
 31
0.0
  0
LINE
  5
E8038
  8
0
  6
CONTINUOUS
 10
31.64199999996833
 20
3.146904617272106
 30
0.0
 11
33.08199999996839
 21
4.586904617272161
 31
0.0
  0
LINE
  5
E8039
  8
0
  6
CONTINUOUS
 10
36.23199999996837
 20
8.410423826352325
 30
0.0
 11
36.5846761736073
 21
8.763099999991255
 31
0.0
  0
LINE
  5
E803A
  8
0
  6
CONTINUOUS
 10
36.23199999996837
 20
7.73690461727214
 30
0.0
 11
37.25819538268748
 21
8.763099999991255
 31
0.0
  0
LINE
  5
E803B
  8
0
  6
CONTINUOUS
 10
31.64257403601376
 20
2.473959444237348
 30
0.0
 11
33.08199999996839
 21
3.913385408191974
 31
0.0
  0
LINE
  5
E803C
  8
0
  6
CONTINUOUS
 10
36.23199999996837
 20
7.063385408191953
 30
0.0
 11
37.67199999996831
 21
8.503385408191894
 31
0.0
  0
LINE
  5
E803D
  8
0
  6
CONTINUOUS
 10
31.72013636841932
 20
1.87800256756272
 30
0.0
 11
33.08199999996839
 21
3.239866199111788
 31
0.0
  0
LINE
  5
E803E
  8
0
  6
CONTINUOUS
 10
36.23199999996837
 20
6.389866199111767
 30
0.0
 11
37.67199999996831
 21
7.829866199111708
 31
0.0
  0
LINE
  5
E803F
  8
0
  6
CONTINUOUS
 10
31.89042734314753
 20
1.374774333210744
 30
0.0
 11
33.08199999996839
 21
2.566346990031601
 31
0.0
  0
LINE
  5
E8040
  8
0
  6
CONTINUOUS
 10
36.23199999996837
 20
5.71634699003158
 30
0.0
 11
37.67199999996831
 21
7.156346990031521
 31
0.0
  0
LINE
  5
E8041
  8
0
  6
CONTINUOUS
 10
32.14210568064475
 20
0.952933461627778
 30
0.0
 11
33.18745552475986
 21
1.998283305742888
 31
0.0
  0
LINE
  5
E8042
  8
0
  6
CONTINUOUS
 10
36.23199999996837
 20
5.042827780951393
 30
0.0
 11
37.67199999996831
 21
6.482827780951334
 31
0.0
  0
LINE
  5
E8043
  8
0
  6
CONTINUOUS
 10
32.45820639400955
 20
0.5955149659123915
 30
0.0
 11
33.47242681921943
 21
1.60973539112227
 31
0.0
  0
LINE
  5
E8044
  8
0
  6
CONTINUOUS
 10
36.23199999996837
 20
4.369308571871207
 30
0.0
 11
37.67199999996831
 21
5.809308571871147
 31
0.0
  0
LINE
  5
E8045
  8
0
  6
CONTINUOUS
 10
32.83432456621412
 20
0.2981139290367771
 30
0.0
 11
33.89722476612215
 21
1.361014128944803
 31
0.0
  0
LINE
  5
E8046
  8
0
  6
CONTINUOUS
 10
36.23199999996837
 20
3.69578936279102
 30
0.0
 11
37.67199999996831
 21
5.135789362790962
 31
0.0
  0
LINE
  5
E8047
  8
0
  6
CONTINUOUS
 10
33.2711633111245
 20
0.0614334648669672
 30
0.0
 11
34.43247338014423
 21
1.222743533886696
 31
0.0
  0
LINE
  5
E8048
  8
0
  6
CONTINUOUS
 10
36.23199999996837
 20
3.022270153710834
 30
0.0
 11
37.67199999996831
 21
4.462270153710775
 31
0.0
  0
LINE
  5
E8049
  8
0
  6
CONTINUOUS
 10
33.76515245874577
 20
-0.1180965965919523
 30
0.0
 11
35.1587445516215
 21
1.27549549628378
 31
0.0
  0
LINE
  5
E804A
  8
0
  6
CONTINUOUS
 10
36.21639478609585
 20
2.333145730758136
 30
0.0
 11
37.67199999996831
 21
3.788750944630588
 31
0.0
  0
LINE
  5
E804B
  8
0
  6
CONTINUOUS
 10
34.34060583368432
 20
-0.2161624307335863
 30
0.0
 11
37.67199999996831
 21
3.115231735550401
 31
0.0
  0
LINE
  5
E804C
  8
0
  6
CONTINUOUS
 10
35.01698193613905
 20
-0.2133055373590427
 30
0.0
 11
37.66876712070525
 21
2.438479647207154
 31
0.0
  0
LINE
  5
E804D
  8
0
  6
CONTINUOUS
 10
35.90743367693304
 20
0.0036269943547609
 30
0.0
 11
37.51723902192366
 21
1.613432339345381
 31
0.0
  0
LINE
  5
E804E
  8
0
  6
CONTINUOUS
 10
32.55309425579761
 20
0.5074718966376706
 30
0.0
 11
32.27784730925847
 21
0.7827188431768102
 31
0.0
  0
LINE
  5
E804F
  8
0
  6
CONTINUOUS
 10
33.87496468909684
 20
-0.1408793275813673
 30
0.0
 11
31.67993083278052
 21
2.054154528734943
 31
0.0
  0
LINE
  5
E8050
  8
0
  6
CONTINUOUS
 10
34.64362813207632
 20
-0.2360235614806649
 30
0.0
 11
31.64199999996833
 21
2.765604570627322
 31
0.0
  0
LINE
  5
E8051
  8
0
  6
CONTINUOUS
 10
35.25801106796118
 20
-0.1768872882853429
 30
0.0
 11
31.64199999996833
 21
3.439123779707508
 31
0.0
  0
LINE
  5
E8052
  8
0
  6
CONTINUOUS
 10
35.79065650332146
 20
-0.0360135145654361
 30
0.0
 11
34.54143210838231
 21
1.213210880373721
 31
0.0
  0
LINE
  5
E8053
  8
0
  6
CONTINUOUS
 10
33.08199999996839
 20
2.67264298878764
 30
0.0
 11
31.64199999996833
 21
4.112642988787695
 31
0.0
  0
LINE
  5
E8054
  8
0
  6
CONTINUOUS
 10
36.25975597779143
 20
0.1684062200447833
 30
0.0
 11
35.15395110240023
 21
1.274211095435983
 31
0.0
  0
LINE
  5
E8055
  8
0
  6
CONTINUOUS
 10
33.08199999996839
 20
3.346162197867826
 30
0.0
 11
31.64199999996833
 21
4.786162197867881
 31
0.0
  0
LINE
  5
E8056
  8
0
  6
CONTINUOUS
 10
36.67226329638774
 20
0.4294181105286579
 30
0.0
 11
35.63766478748767
 21
1.464016619428737
 31
0.0
  0
LINE
  5
E8057
  8
0
  6
CONTINUOUS
 10
33.08199999996839
 20
4.019681406948012
 30
0.0
 11
31.64199999996833
 21
5.459681406948068
 31
0.0
  0
LINE
  5
E8058
  8
0
  6
CONTINUOUS
 10
37.01677749710036
 20
0.7584231188962329
 30
0.0
 11
35.99563422741351
 21
1.779566388583076
 31
0.0
  0
LINE
  5
E8059
  8
0
  6
CONTINUOUS
 10
33.08199999996839
 20
4.693200616028199
 30
0.0
 11
31.64199999996833
 21
6.133200616028255
 31
0.0
  0
LINE
  5
E805A
  8
0
  6
CONTINUOUS
 10
37.29859977568887
 20
1.1501200493879
 30
0.0
 11
36.20680593341555
 21
2.241913891661226
 31
0.0
  0
LINE
  5
E805B
  8
0
  6
CONTINUOUS
 10
33.08199999996839
 20
5.366719825108386
 30
0.0
 11
31.64199999996833
 21
6.80671982510844
 31
0.0
  0
LINE
  5
E805C
  8
0
  6
CONTINUOUS
 10
37.5148623517228
 20
1.607376682434161
 30
0.0
 11
36.23199999996837
 21
2.890239034188594
 31
0.0
  0
LINE
  5
E805D
  8
0
  6
CONTINUOUS
 10
33.08199999996839
 20
6.040239034188573
 30
0.0
 11
31.64199999996833
 21
7.480239034188627
 31
0.0
  0
LINE
  5
E805E
  8
0
  6
CONTINUOUS
 10
37.64705163358367
 20
2.148706609653477
 30
0.0
 11
36.23199999996837
 21
3.56375824326878
 31
0.0
  0
LINE
  5
E805F
  8
0
  6
CONTINUOUS
 10
33.08199999996839
 20
6.713758243268758
 30
0.0
 11
31.64199999996833
 21
8.153758243268815
 31
0.0
  0
LINE
  5
E8060
  8
0
  6
CONTINUOUS
 10
37.67199999996831
 20
2.797277452349026
 30
0.0
 11
36.23199999996837
 21
4.237277452348967
 31
0.0
  0
LINE
  5
E8061
  8
0
  6
CONTINUOUS
 10
37.67199999996831
 20
3.470796661429213
 30
0.0
 11
36.23199999996837
 21
4.910796661429154
 31
0.0
  0
LINE
  5
E8062
  8
0
  6
CONTINUOUS
 10
37.67199999996831
 20
4.144315870509399
 30
0.0
 11
36.23199999996837
 21
5.58431587050934
 31
0.0
  0
LINE
  5
E8063
  8
0
  6
CONTINUOUS
 10
33.08199999996839
 20
7.387277452348945
 30
0.0
 11
31.70617745232608
 21
8.763099999991255
 31
0.0
  0
LINE
  5
E8064
  8
0
  6
CONTINUOUS
 10
33.08199999996839
 20
8.060796661429132
 30
0.0
 11
32.37969666140626
 21
8.763099999991255
 31
0.0
  0
LINE
  5
E8065
  8
0
  6
CONTINUOUS
 10
33.08199999996839
 20
8.734315870509318
 30
0.0
 11
33.05321587048645
 21
8.763099999991255
 31
0.0
  0
LINE
  5
E8066
  8
0
  6
CONTINUOUS
 10
37.67199999996831
 20
4.817835079589585
 30
0.0
 11
36.23199999996837
 21
6.257835079589526
 31
0.0
  0
LINE
  5
E8067
  8
0
  6
CONTINUOUS
 10
37.67199999996831
 20
5.491354288669771
 30
0.0
 11
36.23199999996837
 21
6.931354288669713
 31
0.0
  0
LINE
  5
E8068
  8
0
  6
CONTINUOUS
 10
37.67199999996831
 20
6.164873497749958
 30
0.0
 11
36.23199999996837
 21
7.6048734977499
 31
0.0
  0
LINE
  5
E8069
  8
0
  6
CONTINUOUS
 10
37.67199999996831
 20
6.838392706830144
 30
0.0
 11
36.23199999996837
 21
8.278392706830086
 31
0.0
  0
LINE
  5
E806A
  8
0
  6
CONTINUOUS
 10
37.67199999996831
 20
7.511911915910332
 30
0.0
 11
36.42081191588738
 21
8.763099999991255
 31
0.0
  0
LINE
  5
E806B
  8
0
  6
CONTINUOUS
 10
37.67199999996831
 20
8.185431124990519
 30
0.0
 11
37.09433112496757
 21
8.763099999991255
 31
0.0
  0
ENDBLK
  5
E80D8
  8
0
  0
BLOCK
  8
0
  2
*X442
 70
     1
 10
0.0
 20
0.0
 30
0.0
  3
*X442
  1

  0
LINE
  5
E806D
  8
0
  6
CONTINUOUS
 10
38.60499999996136
 20
8.762866199104765
 30
0.0
 11
38.71672554182345
 21
8.874591740966855
 31
0.0
  0
LINE
  5
E806E
  8
0
  6
CONTINUOUS
 10
38.60499999996136
 20
8.089346990024577
 30
0.0
 11
39.03418785440363
 21
8.518534844466847
 31
0.0
  0
LINE
  5
E806F
  8
0
  6
CONTINUOUS
 10
38.60499999996136
 20
7.41582778094439
 30
0.0
 11
39.35165016698382
 21
8.16247794796684
 31
0.0
  0
LINE
  5
E8070
  8
0
  6
CONTINUOUS
 10
38.60499999996136
 20
6.742308571864204
 30
0.0
 11
39.66911247956399
 21
7.806421051466834
 31
0.0
  0
LINE
  5
E8071
  8
0
  6
CONTINUOUS
 10
38.60499999996136
 20
6.068789362784018
 30
0.0
 11
39.98657479214418
 21
7.450364154966827
 31
0.0
  0
LINE
  5
E8072
  8
0
  6
CONTINUOUS
 10
38.60499999996136
 20
5.395270153703832
 30
0.0
 11
40.30403710472435
 21
7.09430725846682
 31
0.0
  0
LINE
  5
E8073
  8
0
  6
CONTINUOUS
 10
38.60499999996136
 20
4.721750944623645
 30
0.0
 11
40.62149941730453
 21
6.738250361966813
 31
0.0
  0
LINE
  5
E8074
  8
0
  6
CONTINUOUS
 10
38.60499999996136
 20
4.048231735543458
 30
0.0
 11
40.93896172988471
 21
6.382193465466806
 31
0.0
  0
LINE
  5
E8075
  8
0
  6
CONTINUOUS
 10
38.60499999996136
 20
3.374712526463272
 30
0.0
 11
40.02599999995994
 21
4.795712526461843
 31
0.0
  0
LINE
  5
E8076
  8
0
  6
CONTINUOUS
 10
38.60499999996136
 20
2.701193317383085
 30
0.0
 11
40.02599999995994
 21
4.122193317381657
 31
0.0
  0
LINE
  5
E8077
  8
0
  6
CONTINUOUS
 10
40.28339754687704
 20
5.053110073378947
 30
0.0
 11
41.25642404246489
 21
6.026136568966799
 31
0.0
  0
LINE
  5
E8078
  8
0
  6
CONTINUOUS
 10
40.60085985945722
 20
4.697053176878939
 30
0.0
 11
41.57388635504507
 21
5.670079672466793
 31
0.0
  0
LINE
  5
E8079
  8
0
  6
CONTINUOUS
 10
43.57899999995641
 20
8.348712526458318
 30
0.0
 11
43.99338747348935
 21
8.763099999991255
 31
0.0
  0
LINE
  5
E807A
  8
0
  6
CONTINUOUS
 10
43.57899999995641
 20
7.675193317378131
 30
0.0
 11
44.66690668256953
 21
8.763099999991255
 31
0.0
  0
LINE
  5
E807B
  8
0
  6
CONTINUOUS
 10
38.60499999996136
 20
2.027674108302898
 30
0.0
 11
40.02599999995994
 21
3.44867410830147
 31
0.0
  0
LINE
  5
E807C
  8
0
  6
CONTINUOUS
 10
38.60499999996136
 20
1.354154899222712
 30
0.0
 11
40.02599999995994
 21
2.775154899221284
 31
0.0
  0
LINE
  5
E807D
  8
0
  6
CONTINUOUS
 10
38.60499999996136
 20
0.6806356901425255
 30
0.0
 11
40.02599999995994
 21
2.101635690141098
 31
0.0
  0
LINE
  5
E807E
  8
0
  6
CONTINUOUS
 10
38.60499999996136
 20
0.0071164810623383
 30
0.0
 11
40.02599999995994
 21
1.428116481060911
 31
0.0
  0
LINE
  5
E807F
  8
0
  6
CONTINUOUS
 10
40.9183221720374
 20
4.340996280378933
 30
0.0
 11
41.89134866762525
 21
5.314022775966786
 31
0.0
  0
LINE
  5
E8080
  8
0
  6
CONTINUOUS
 10
41.23578448461758
 20
3.984939383878926
 30
0.0
 11
42.20881098020543
 21
4.957965879466778
 31
0.0
  0
LINE
  5
E8081
  8
0
  6
CONTINUOUS
 10
41.55324679719776
 20
3.628882487378919
 30
0.0
 11
42.52627329278561
 21
4.601908982966772
 31
0.0
  0
LINE
  5
E8082
  8
0
  6
CONTINUOUS
 10
41.87070910977793
 20
3.272825590878912
 30
0.0
 11
42.84373560536579
 21
4.245852086466765
 31
0.0
  0
LINE
  5
E8083
  8
0
  6
CONTINUOUS
 10
43.57899999995641
 20
7.001674108297943
 30
0.0
 11
44.99999999995498
 21
8.422674108296516
 31
0.0
  0
LINE
  5
E8084
  8
0
  6
CONTINUOUS
 10
43.57899999995641
 20
6.328154899217758
 30
0.0
 11
44.99999999995498
 21
7.749154899216329
 31
0.0
  0
LINE
  5
E8085
  8
0
  6
CONTINUOUS
 10
43.57899999995641
 20
5.654635690137571
 30
0.0
 11
44.99999999995498
 21
7.075635690136142
 31
0.0
  0
LINE
  5
E8086
  8
0
  6
CONTINUOUS
 10
43.57899999995641
 20
4.981116481057384
 30
0.0
 11
44.99999999995498
 21
6.402116481055955
 31
0.0
  0
LINE
  5
E8087
  8
0
  6
CONTINUOUS
 10
39.27140272797921
 20
-0.0000000000000009
 30
0.0
 11
40.02599999995994
 21
0.7545972719807246
 31
0.0
  0
LINE
  5
E8088
  8
0
  6
CONTINUOUS
 10
39.9449219370594
 20
-0.0000000000000009
 30
0.0
 11
40.02599999995994
 21
0.0810780629005379
 31
0.0
  0
LINE
  5
E8089
  8
0
  6
CONTINUOUS
 10
42.18817142235812
 20
2.916768694378905
 30
0.0
 11
43.16119791794597
 21
3.889795189966758
 31
0.0
  0
LINE
  5
E808A
  8
0
  6
CONTINUOUS
 10
42.50563373493829
 20
2.560711797878898
 30
0.0
 11
43.47866023052615
 21
3.533738293466751
 31
0.0
  0
LINE
  5
E808B
  8
0
  6
CONTINUOUS
 10
43.57899999995641
 20
4.307597271977198
 30
0.0
 11
44.99999999995498
 21
5.728597271975769
 31
0.0
  0
LINE
  5
E808C
  8
0
  6
CONTINUOUS
 10
43.57899999995641
 20
3.634078062897011
 30
0.0
 11
44.99999999995498
 21
5.055078062895582
 31
0.0
  0
LINE
  5
E808D
  8
0
  6
CONTINUOUS
 10
42.82309604751848
 20
2.204654901378891
 30
0.0
 11
44.99999999995498
 21
4.381558853815395
 31
0.0
  0
LINE
  5
E808E
  8
0
  6
CONTINUOUS
 10
43.14055836009865
 20
1.848598004878885
 30
0.0
 11
44.99999999995498
 21
3.70803964473521
 31
0.0
  0
LINE
  5
E808F
  8
0
  6
CONTINUOUS
 10
43.45802067267883
 20
1.492541108378878
 30
0.0
 11
44.99999999995498
 21
3.034520435655023
 31
0.0
  0
LINE
  5
E8090
  8
0
  6
CONTINUOUS
 10
43.77548298525902
 20
1.136484211878871
 30
0.0
 11
44.99999999995498
 21
2.361001226574837
 31
0.0
  0
LINE
  5
E8091
  8
0
  6
CONTINUOUS
 10
44.09294529783919
 20
0.7804273153788639
 30
0.0
 11
44.99999999995498
 21
1.687482017494649
 31
0.0
  0
LINE
  5
E8092
  8
0
  6
CONTINUOUS
 10
44.41040761041938
 20
0.4243704188788566
 30
0.0
 11
44.99999999995498
 21
1.013962808414463
 31
0.0
  0
LINE
  5
E8093
  8
0
  6
CONTINUOUS
 10
44.72786992299955
 20
0.0683135223788494
 30
0.0
 11
44.99999999995498
 21
0.340443599334276
 31
0.0
  0
LINE
  5
E8094
  8
0
  6
CONTINUOUS
 10
39.12223903415696
 20
-0.0000000000000009
 30
0.0
 11
38.60499999996136
 21
0.5172390341955961
 31
0.0
  0
LINE
  5
E8095
  8
0
  6
CONTINUOUS
 10
39.79575824323715
 20
-0.0000000000000009
 30
0.0
 11
38.60499999996136
 21
1.190758243275783
 31
0.0
  0
LINE
  5
E8096
  8
0
  6
CONTINUOUS
 10
40.02599999995994
 20
0.443277452357397
 30
0.0
 11
38.60499999996136
 21
1.864277452355969
 31
0.0
  0
LINE
  5
E8097
  8
0
  6
CONTINUOUS
 10
40.02599999995994
 20
1.116796661437583
 30
0.0
 11
38.60499999996136
 21
2.537796661436155
 31
0.0
  0
LINE
  5
E8098
  8
0
  6
CONTINUOUS
 10
40.02599999995994
 20
1.79031587051777
 30
0.0
 11
38.60499999996136
 21
3.211315870516341
 31
0.0
  0
LINE
  5
E8099
  8
0
  6
CONTINUOUS
 10
40.02599999995994
 20
2.463835079597956
 30
0.0
 11
38.60499999996136
 21
3.884835079596527
 31
0.0
  0
LINE
  5
E809A
  8
0
  6
CONTINUOUS
 10
40.02599999995994
 20
3.137354288678143
 30
0.0
 11
38.60499999996136
 21
4.558354288676714
 31
0.0
  0
LINE
  5
E809B
  8
0
  6
CONTINUOUS
 10
40.02599999995994
 20
3.810873497758329
 30
0.0
 11
38.60499999996136
 21
5.2318734977569
 31
0.0
  0
LINE
  5
E809C
  8
0
  6
CONTINUOUS
 10
40.02599999995994
 20
4.484392706838515
 30
0.0
 11
38.60499999996136
 21
5.905392706837086
 31
0.0
  0
LINE
  5
E809D
  8
0
  6
CONTINUOUS
 10
44.99999999995498
 20
0.183911915923658
 30
0.0
 11
41.53858364506288
 21
3.64532827081576
 31
0.0
  0
LINE
  5
E809E
  8
0
  6
CONTINUOUS
 10
40.02599999995994
 20
5.157911915918703
 30
0.0
 11
38.60499999996136
 21
6.578911915917274
 31
0.0
  0
LINE
  5
E809F
  8
0
  6
CONTINUOUS
 10
44.99999999995498
 20
0.8574311250038447
 30
0.0
 11
38.60499999996136
 21
7.25243112499746
 31
0.0
  0
LINE
  5
E80A0
  8
0
  6
CONTINUOUS
 10
44.99999999995498
 20
1.530950334084031
 30
0.0
 11
38.60499999996136
 21
7.925950334077647
 31
0.0
  0
LINE
  5
E80A1
  8
0
  6
CONTINUOUS
 10
44.99999999995498
 20
2.204469543164218
 30
0.0
 11
43.57899999995641
 21
3.625469543162789
 31
0.0
  0
LINE
  5
E80A2
  8
0
  6
CONTINUOUS
 10
41.89876730984767
 20
5.305702233271528
 30
0.0
 11
38.60499999996136
 21
8.599469543157834
 31
0.0
  0
LINE
  5
E80A3
  8
0
  6
CONTINUOUS
 10
44.99999999995498
 20
2.877988752244405
 30
0.0
 11
43.57899999995641
 21
4.298988752242975
 31
0.0
  0
LINE
  5
E80A4
  8
0
  6
CONTINUOUS
 10
44.99999999995498
 20
3.551507961324591
 30
0.0
 11
43.57899999995641
 21
4.972507961323163
 31
0.0
  0
LINE
  5
E80A5
  8
0
  6
CONTINUOUS
 10
44.99999999995498
 20
4.225027170404777
 30
0.0
 11
43.57899999995641
 21
5.646027170403348
 31
0.0
  0
LINE
  5
E80A6
  8
0
  6
CONTINUOUS
 10
44.99999999995498
 20
4.898546379484964
 30
0.0
 11
43.57899999995641
 21
6.319546379483535
 31
0.0
  0
LINE
  5
E80A7
  8
0
  6
CONTINUOUS
 10
44.99999999995498
 20
5.572065588565151
 30
0.0
 11
43.57899999995641
 21
6.993065588563722
 31
0.0
  0
LINE
  5
E80A8
  8
0
  6
CONTINUOUS
 10
44.99999999995498
 20
6.245584797645336
 30
0.0
 11
43.57899999995641
 21
7.666584797643908
 31
0.0
  0
LINE
  5
E80A9
  8
0
  6
CONTINUOUS
 10
44.99999999995498
 20
6.919104006725522
 30
0.0
 11
43.57899999995641
 21
8.340104006724093
 31
0.0
  0
LINE
  5
E80AA
  8
0
  6
CONTINUOUS
 10
44.99999999995498
 20
7.592623215805709
 30
0.0
 11
43.82952321576943
 21
8.763099999991255
 31
0.0
  0
LINE
  5
E80AB
  8
0
  6
CONTINUOUS
 10
44.99999999995498
 20
8.266142424885896
 30
0.0
 11
44.50304242484962
 21
8.763099999991255
 31
0.0
  0
ENDBLK
  5
E80DA
  8
0
  0
BLOCK
  8
0
  2
*X443
 70
     1
 10
0.0
 20
0.0
 30
0.0
  3
*X443
  1

  0
LINE
  5
E80AD
  8
0
  6
CONTINUOUS
 10
0.0
 20
8.548461116714023
 30
0.0
 11
0.2146388832772324
 21
8.763099999991255
 31
0.0
  0
LINE
  5
E80AE
  8
0
  6
CONTINUOUS
 10
-0.0000000000000002
 20
7.874941907633837
 30
0.0
 11
0.8881580923574184
 21
8.763099999991255
 31
0.0
  0
LINE
  5
E80AF
  8
0
  6
CONTINUOUS
 10
0.0
 20
7.20142269855365
 30
0.0
 11
1.420999999998572
 21
8.622422698552223
 31
0.0
  0
LINE
  5
E80B0
  8
0
  6
CONTINUOUS
 10
-0.0000000000000001
 20
6.527903489473465
 30
0.0
 11
1.420999999998571
 21
7.948903489472036
 31
0.0
  0
LINE
  5
E80B1
  8
0
  6
CONTINUOUS
 10
-0.0000000000000002
 20
5.854384280393278
 30
0.0
 11
1.420999999998571
 21
7.275384280391849
 31
0.0
  0
LINE
  5
E80B2
  8
0
  6
CONTINUOUS
 10
-0.0000000000000002
 20
5.180865071313091
 30
0.0
 11
1.420999999998571
 21
6.601865071311663
 31
0.0
  0
LINE
  5
E80B3
  8
0
  6
CONTINUOUS
 10
0.0
 20
4.507345862232905
 30
0.0
 11
1.420999999998571
 21
5.928345862231477
 31
0.0
  0
LINE
  5
E80B4
  8
0
  6
CONTINUOUS
 10
-0.0000000000000003
 20
3.833826653152718
 30
0.0
 11
1.420999999998571
 21
5.25482665315129
 31
0.0
  0
LINE
  5
E80B5
  8
0
  6
CONTINUOUS
 10
-0.0000000000000002
 20
3.160307444072532
 30
0.0
 11
1.420999999998571
 21
4.581307444071103
 31
0.0
  0
LINE
  5
E80B6
  8
0
  6
CONTINUOUS
 10
-0.0000000000000001
 20
2.486788234992345
 30
0.0
 11
1.420999999998571
 21
3.907788234990917
 31
0.0
  0
LINE
  5
E80B7
  8
0
  6
CONTINUOUS
 10
-0.0000000000000006
 20
1.813269025912159
 30
0.0
 11
1.420999999998571
 21
3.234269025910731
 31
0.0
  0
LINE
  5
E80B8
  8
0
  6
CONTINUOUS
 10
0.0
 20
1.139749816831973
 30
0.0
 11
1.420999999998571
 21
2.560749816830544
 31
0.0
  0
LINE
  5
E80B9
  8
0
  6
CONTINUOUS
 10
0.0000000000000002
 20
0.466230607751787
 30
0.0
 11
1.420999999998571
 21
1.887230607750358
 31
0.0
  0
LINE
  5
E80BA
  8
0
  6
CONTINUOUS
 10
0.2072886013284003
 20
-0.0000000000000009
 30
0.0
 11
1.420999999998571
 21
1.213711398670171
 31
0.0
  0
LINE
  5
E80BB
  8
0
  6
CONTINUOUS
 10
0.8808078104085864
 20
-0.0000000000000009
 30
0.0
 11
1.420999999998571
 21
0.5401921895899839
 31
0.0
  0
LINE
  5
E80BC
  8
0
  6
CONTINUOUS
 10
0.0581249075061505
 20
-0.0000000000000009
 30
0.0
 11
-0.0000000000000002
 21
0.0581249075061496
 31
0.0
  0
LINE
  5
E80BD
  8
0
  6
CONTINUOUS
 10
0.7316441165863372
 20
-0.0000000000000009
 30
0.0
 11
-0.0000000000000002
 21
0.7316441165863363
 31
0.0
  0
LINE
  5
E80BE
  8
0
  6
CONTINUOUS
 10
1.405163325666523
 20
-0.0000000000000009
 30
0.0
 11
-0.0000000000000002
 21
1.405163325666523
 31
0.0
  0
LINE
  5
E80BF
  8
0
  6
CONTINUOUS
 10
1.420999999998572
 20
0.6576825347481381
 30
0.0
 11
-0.0000000000000001
 21
2.07868253474671
 31
0.0
  0
LINE
  5
E80C0
  8
0
  6
CONTINUOUS
 10
1.420999999998571
 20
1.331201743828324
 30
0.0
 11
-0.0000000000000001
 21
2.752201743826896
 31
0.0
  0
LINE
  5
E80C1
  8
0
  6
CONTINUOUS
 10
1.420999999998571
 20
2.004720952908511
 30
0.0
 11
-0.0000000000000002
 21
3.425720952907082
 31
0.0
  0
LINE
  5
E80C2
  8
0
  6
CONTINUOUS
 10
1.420999999998571
 20
2.678240161988697
 30
0.0
 11
-0.0000000000000001
 21
4.099240161987269
 31
0.0
  0
LINE
  5
E80C3
  8
0
  6
CONTINUOUS
 10
1.420999999998572
 20
3.351759371068884
 30
0.0
 11
0.0
 21
4.772759371067455
 31
0.0
  0
LINE
  5
E80C4
  8
0
  6
CONTINUOUS
 10
1.420999999998571
 20
4.02527858014907
 30
0.0
 11
-0.0000000000000003
 21
5.446278580147642
 31
0.0
  0
LINE
  5
E80C5
  8
0
  6
CONTINUOUS
 10
1.420999999998571
 20
4.698797789229257
 30
0.0
 11
0.0
 21
6.119797789227828
 31
0.0
  0
LINE
  5
E80C6
  8
0
  6
CONTINUOUS
 10
1.420999999998571
 20
5.372316998309444
 30
0.0
 11
-0.0000000000000001
 21
6.793316998308015
 31
0.0
  0
LINE
  5
E80C7
  8
0
  6
CONTINUOUS
 10
1.420999999998572
 20
6.045836207389629
 30
0.0
 11
-0.0000000000000004
 21
7.466836207388202
 31
0.0
  0
LINE
  5
E80C8
  8
0
  6
CONTINUOUS
 10
1.420999999998571
 20
6.719355416469816
 30
0.0
 11
0.0
 21
8.140355416468388
 31
0.0
  0
LINE
  5
E80C9
  8
0
  6
CONTINUOUS
 10
1.420999999998571
 20
7.392874625550003
 30
0.0
 11
0.0507746255573185
 21
8.763099999991255
 31
0.0
  0
LINE
  5
E80CA
  8
0
  6
CONTINUOUS
 10
1.420999999998571
 20
8.06639383463019
 30
0.0
 11
0.7242938346375052
 21
8.763099999991255
 31
0.0
  0
LINE
  5
E80CB
  8
0
  6
CONTINUOUS
 10
1.420999999998571
 20
8.739913043710375
 30
0.0
 11
1.397813043717691
 21
8.763099999991255
 31
0.0
  0
ENDBLK
  5
E80DC
  8
0
  0
ENDSEC
  0
SECTION
  2
ENTITIES
  0
INSERT
  5
AC27D
  8
1DIM
  2
*X437
 10
0.0
 20
0.0
 30
0.0
1001
ACAD
1000
HATCH
1002
{
1070
    19
1000
ANSI31
1040
1.0
1040
0.0
1000
R14_HATCH_DATA
1000
AC27D
1011
1.0
1021
0.0
1031
0.0
1021
0.0
1031
0.0
1011
0.0
1021
1.0
1031
0.0
1021
1.0
1031
0.0
1011
0.0
1021
0.0
1031
1.0
1021
0.0
1031
1.0
1040
0.0
1010
0.0
1020
0.0
1030
1.0
1000
ANSI31
1070
     0
1070
     1
1071
        1
1071
       33
1071
        1
1070
     1
1040
890.3368073220663
1040
-276.1047061584868
1040
890.3368073220681
1040
-262.7767214839323
1071
        0
1070
     1
1070
     1
1040
0.0
1040
1.0
1070
     0
1070
     1
1040
0.7853981633974483
1040
0.0
1040
0.0
1040
-2.245064030267288
1040
2.245064030267288
1070
     0
1071
        1
1040
0.0
1040
0.0
1040
0.0
1002
}
  0
LINE
  5
DA04E
  8
1CENTER
 10
19.10129737504735
 20
-1617.313611442485
 30
0.0
 11
19.10129737504735
 21
-1629.742129894501
 31
0.0
  0
LINE
  5
DA04F
  8
1CENTER
 10
25.31555660105528
 20
-1623.527870668493
 30
0.0
 11
12.88703814903943
 21
-1623.527870668493
 31
0.0
  0
LINE
  5
DA051
  8
1CENTER
 10
-10.73870262495245
 20
-1617.313611442485
 30
0.0
 11
-10.73870262495245
 21
-1629.742129894501
 31
0.0
  0
LINE
  5
DA052
  8
1CENTER
 10
-4.524443398944527
 20
-1623.527870668493
 30
0.0
 11
-16.95296185096038
 21
-1623.527870668493
 31
0.0
  0
LINE
  5
DA054
  8
1CENTER
 10
19.10129737504735
 20
-1774.782129894491
 30
0.0
 11
19.10129737504735
 21
-1762.353611442475
 31
0.0
  0
LINE
  5
DA055
  8
1CENTER
 10
25.31555660105528
 20
-1768.567870668483
 30
0.0
 11
12.88703814903943
 21
-1768.567870668483
 31
0.0
  0
LINE
  5
DA057
  8
1CENTER
 10
-10.73870262495245
 20
-1774.782129894491
 30
0.0
 11
-10.73870262495245
 21
-1762.353611442475
 31
0.0
  0
LINE
  5
DA058
  8
1CENTER
 10
-4.524443398944527
 20
-1768.567870668483
 30
0.0
 11
-16.95296185096038
 21
-1768.567870668483
 31
0.0
  0
LINE
  5
DA06B
  8
01
 10
73.8818393388043
 20
-1616.047870668488
 30
0.0
 11
73.8818393388043
 21
-1776.047870668488
 31
0.0
  0
LINE
  5
DA06C
  8
01
 10
75.3818393388043
 20
-1616.047870668488
 30
0.0
 11
75.3818393388043
 21
-1776.047870668488
 31
0.0
  0
LINE
  5
DA06D
  8
01
 10
75.3818393388043
 20
-1616.047870668488
 30
0.0
 11
73.8818393388043
 21
-1616.047870668488
 31
0.0
  0
LINE
  5
DA06E
  8
01
 10
75.3818393388043
 20
-1776.047870668488
 30
0.0
 11
73.8818393388043
 21
-1776.047870668488
 31
0.0
  0
LINE
  5
DA06F
  8
01
 10
73.8818393388043
 20
-1624.547870668488
 30
0.0
 11
71.8818393388043
 21
-1624.547870668488
 31
0.0
  0
LINE
  5
DA070
  8
01
 10
73.8818393388043
 20
-1767.547870668488
 30
0.0
 11
71.8818393388043
 21
-1767.547870668488
 31
0.0
  0
LINE
  5
DA071
  8
01
 10
71.8818393388043
 20
-1624.547870668488
 30
0.0
 11
71.8818393388043
 21
-1767.547870668488
 31
0.0
  0
ARC
  5
DA072
  8
01
 10
90.38136509350261
 20
-1767.680335196795
 30
0.0
 40
18.5
 50
179.5897446885847
 51
206.891295141783
  0
ARC
  5
DA073
  8
01
 10
90.38136509350261
 20
-1624.41540614018
 30
0.0
 40
18.5
 50
153.1087048582075
 51
180.4102553114139
  0
LINE
  5
DA074
  8
01
 10
75.3818393388043
 20
-1616.047870668488
 30
0.0
 11
75.3818393388043
 21
-1618.147870668488
 31
0.0
  0
LINE
  5
DA075
  8
01
 10
75.3818393388043
 20
-1618.147870668488
 30
0.0
 11
89.88211688531487
 21
-1618.631213253372
 31
0.0
  0
LINE
  5
DA076
  8
01
 10
90.38183933880441
 20
-1619.147870668488
 30
0.0
 11
90.3818393388043
 21
-1772.947870668488
 31
0.0
  0
LINE
  5
DA077
  8
01
 10
75.3818393388043
 20
-1773.947870668488
 30
0.0
 11
89.88211688531476
 21
-1773.464528083604
 31
0.0
  0
LINE
  5
DA078
  8
01
 10
89.88211688531487
 20
-1618.631213253372
 30
0.0
 11
90.38183933880441
 21
-1619.147870668488
 31
0.0
  0
LINE
  5
DA079
  8
01
 10
89.88211688531476
 20
-1773.464528083604
 30
0.0
 11
90.3818393388043
 21
-1772.947870668488
 31
0.0
  0
LINE
  5
DA07A
  8
01
 10
89.88211688531487
 20
-1618.631213253372
 30
0.0
 11
89.88211688531476
 21
-1773.464528083604
 31
0.0
  0
LINE
  5
DA07B
  8
01
 10
80.3818393388043
 20
-1649.147870668488
 30
0.0
 11
80.3818393388043
 21
-1647.147870668488
 31
0.0
  0
LINE
  5
DA07C
  8
01
 10
80.3818393388043
 20
-1648.147870668488
 30
0.0
 11
82.3818393388043
 21
-1648.147870668488
 31
0.0
  0
LINE
  5
DA07D
  8
01
 10
80.3818393388043
 20
-1647.147870668488
 30
0.0
 11
82.3818393388043
 21
-1648.147870668488
 31
0.0
  0
LINE
  5
DA07E
  8
01
 10
82.3818393388043
 20
-1648.147870668488
 30
0.0
 11
80.3818393388043
 21
-1649.147870668488
 31
0.0
  0
LINE
  5
DA07F
  8
01
 10
80.3818393388043
 20
-1742.947870668488
 30
0.0
 11
80.3818393388043
 21
-1744.947870668488
 31
0.0
  0
LINE
  5
DA080
  8
01
 10
80.3818393388043
 20
-1743.947870668488
 30
0.0
 11
82.3818393388043
 21
-1743.947870668488
 31
0.0
  0
LINE
  5
DA081
  8
01
 10
80.3818393388043
 20
-1744.947870668488
 30
0.0
 11
82.3818393388043
 21
-1743.947870668488
 31
0.0
  0
LINE
  5
DA082
  8
01
 10
82.3818393388043
 20
-1743.947870668488
 30
0.0
 11
80.3818393388043
 21
-1742.947870668488
 31
0.0
  0
LINE
  5
DA083
  8
1DIM
 10
75.3818393388043
 20
-1621.147870668488
 30
0.0
 11
90.38183933880453
 21
-1621.147870668488
 31
0.0
  0
LINE
  5
DA084
  8
1DIM
 10
75.3818393388043
 20
-1770.947870668488
 30
0.0
 11
90.38183933880418
 21
-1770.947870668488
 31
0.0
  0
LINE
  5
DA08A
  8
01
 10
90.38183933880435
 20
-1619.147870668488
 30
0.0
 11
90.38183933880435
 21
-1772.947870668488
 31
0.0
  0
ARC
  5
DA08B
  8
01
 10
90.88183933880435
 20
-1619.147870668488
 30
0.0
 40
0.5
 50
90.0
 51
180.0
  0
LINE
  5
DA08C
  8
01
 10
92.38183933880435
 20
-1619.147870668488
 30
0.0
 11
92.38183933880435
 21
-1772.947870668488
 31
0.0
  0
ARC
  5
DA08D
  8
01
 10
91.88183933880435
 20
-1772.947870668488
 30
0.0
 40
0.5
 50
269.9999999999935
 51
0.0
  0
ARC
  5
DA08E
  8
01
 10
91.88183933880435
 20
-1619.147870668488
 30
0.0
 40
0.5
 50
0.0
 51
90.0
  0
LINE
  5
DA08F
  8
01
 10
90.88183933880435
 20
-1618.647870668488
 30
0.0
 11
91.88183933880435
 21
-1618.647870668488
 31
0.0
  0
LINE
  5
DA090
  8
01
 10
90.88183933880435
 20
-1773.447870668488
 30
0.0
 11
91.88183933880435
 21
-1773.447870668488
 31
0.0
  0
ARC
  5
DA091
  8
01
 10
90.88183933880435
 20
-1772.947870668488
 30
0.0
 40
0.5
 50
180.0
 51
269.9999999999935
  0
LINE
  5
DA097
  8
1CENTER
 10
86.28660224494791
 20
-1623.547870668488
 30
0.0
 11
96.39854556140511
 21
-1623.547870668488
 31
0.0
  0
LINE
  5
DA098
  8
1CENTER
 10
86.28660224494791
 20
-1768.547870668488
 30
0.0
 11
96.39854556140511
 21
-1768.547870668488
 31
0.0
  0
ARC
  5
DA25E
  8
01
 10
26.1810892467696
 20
-1588.149688196977
 30
0.0
 40
0.5002102095806709
 50
308.4470939675164
 51
0.0121548532195425
  0
LINE
  5
DA25F
  8
01
 10
26.68129944509451
 20
-1588.14958208128
 30
0.0
 11
26.68129950566515
 21
-1587.382059487076
 31
0.0
  0
LINE
  5
DA260
  8
01
 10
25.11463220699693
 20
-1581.882040244484
 30
0.0
 11
24.41463220699688
 21
-1581.882040244484
 31
0.0
  0
LINE
  5
DA261
  8
01
 10
25.11463220699693
 20
-1581.882040244484
 30
0.0
 11
24.34794716888007
 21
-1579.881489138134
 31
0.0
  0
LINE
  5
DA262
  8
01
 10
23.1814017043904
 20
-1571.882059759691
 30
0.0
 11
23.5976884842853
 21
-1571.882059759691
 31
0.0
  0
LINE
  5
DA263
  8
01
 10
24.58129951798446
 20
-1586.882059481242
 30
0.0
 11
24.09741093776449
 21
-1572.365402344265
 31
0.0
  0
LINE
  5
DA264
  8
01
 10
24.09741093776449
 20
-1572.365402344265
 30
0.0
 11
23.5976884842853
 21
-1571.882059759691
 31
0.0
  0
ARC
  5
DA266
  8
01
 10
26.18129943625274
 20
-1587.382059556488
 30
0.0
 40
0.500000069412413
 50
0.0000079540749747
 51
89.99999042465822
  0
LINE
  5
DA267
  8
01
 10
-9.824656413965158
 20
-1590.379191833172
 30
0.0
 11
-10.56924458632921
 21
-1590.363835274214
 31
0.0
  0
LINE
  5
DA268
  8
01
 10
-10.56924458632921
 20
-1590.363835274214
 30
0.0
 11
-11.28376152363262
 21
-1590.335211692434
 31
0.0
  0
LINE
  5
DA269
  8
01
 10
-11.28376152363262
 20
-1590.335211692434
 30
0.0
 11
-11.96820722587518
 21
-1590.293321087832
 31
0.0
  0
LINE
  5
DA26A
  8
01
 10
-11.96820722587518
 20
-1590.293321087832
 30
0.0
 11
-12.62258169305665
 21
-1590.238163460408
 31
0.0
  0
LINE
  5
DA26B
  8
01
 10
-12.62258169305665
 20
-1590.238163460408
 30
0.0
 11
-13.24688492517748
 21
-1590.169738810163
 31
0.0
  0
LINE
  5
DA26C
  8
01
 10
-13.24688492517748
 20
-1590.169738810163
 30
0.0
 11
-13.84111692223723
 21
-1590.088047137095
 31
0.0
  0
LINE
  5
DA26D
  8
01
 10
-13.84111692223723
 20
-1590.088047137095
 30
0.0
 11
-14.40527768423635
 21
-1589.993088441205
 31
0.0
  0
LINE
  5
DA26E
  8
01
 10
-14.40527768423635
 20
-1589.993088441205
 30
0.0
 11
-14.93936721117461
 21
-1589.884862722493
 31
0.0
  0
LINE
  5
DA26F
  8
01
 10
-14.93936721117461
 20
-1589.884862722493
 30
0.0
 11
-15.19513526149581
 21
-1589.825774729579
 31
0.0
  0
LINE
  5
DA270
  8
01
 10
-15.19513526149581
 20
-1589.825774729579
 30
0.0
 11
-15.44338550305201
 21
-1589.76336998096
 31
0.0
  0
LINE
  5
DA271
  8
01
 10
-15.44338550305201
 20
-1589.76336998096
 30
0.0
 11
-15.68411793584278
 21
-1589.697648476635
 31
0.0
  0
LINE
  5
DA272
  8
01
 10
-15.68411793584278
 20
-1589.697648476635
 30
0.0
 11
-15.91733255986833
 21
-1589.628610216604
 31
0.0
  0
LINE
  5
DA273
  8
01
 10
-15.91733255986833
 20
-1589.628610216604
 30
0.0
 11
-16.14302937512866
 21
-1589.556255200868
 31
0.0
  0
LINE
  5
DA274
  8
01
 10
-16.14302937512866
 20
-1589.556255200868
 30
0.0
 11
-16.36120838162401
 21
-1589.480583429426
 31
0.0
  0
LINE
  5
DA275
  8
01
 10
-16.36120838162401
 20
-1589.480583429426
 30
0.0
 11
-16.57186957935392
 21
-1589.401594902279
 31
0.0
  0
LINE
  5
DA276
  8
01
 10
-16.57186957935392
 20
-1589.401594902279
 30
0.0
 11
-16.77501296831883
 21
-1589.319289619427
 31
0.0
  0
LINE
  5
DA277
  8
01
 10
-16.77501296831883
 20
-1589.319289619427
 30
0.0
 11
-16.97063854851831
 21
-1589.233667580869
 31
0.0
  0
LINE
  5
DA278
  8
01
 10
-16.97063854851831
 20
-1589.233667580869
 30
0.0
 11
-17.15874631995257
 21
-1589.144728786605
 31
0.0
  0
LINE
  5
DA279
  8
01
 10
-17.15874631995257
 20
-1589.144728786605
 30
0.0
 11
-17.33933628262184
 21
-1589.052473236636
 31
0.0
  0
LINE
  5
DA27A
  8
01
 10
-17.33933628262184
 20
-1589.052473236636
 30
0.0
 11
-17.51240843652567
 21
-1588.956900930962
 31
0.0
  0
LINE
  5
DA27B
  8
01
 10
-17.51240843652567
 20
-1588.956900930962
 30
0.0
 11
-17.67796278166452
 21
-1588.858011869582
 31
0.0
  0
LINE
  5
DA27C
  8
01
 10
-17.67796278166452
 20
-1588.858011869582
 30
0.0
 11
-17.75792077594679
 21
-1588.807323555502
 31
0.0
  0
LINE
  5
DA27D
  8
01
 10
-17.75792077594679
 20
-1588.807323555502
 30
0.0
 11
-17.83599931803792
 21
-1588.755806052496
 31
0.0
  0
LINE
  5
DA27E
  8
01
 10
-17.83599931803792
 20
-1588.755806052496
 30
0.0
 11
-17.91219840793792
 21
-1588.703459360564
 31
0.0
  0
LINE
  5
DA27F
  8
01
 10
-17.91219840793792
 20
-1588.703459360564
 30
0.0
 11
-17.98651804564633
 21
-1588.650283479705
 31
0.0
  0
LINE
  5
DA280
  8
01
 10
-17.98651804564633
 20
-1588.650283479705
 30
0.0
 11
-18.05895823116361
 21
-1588.59627840992
 31
0.0
  0
LINE
  5
DA281
  8
01
 10
-18.05895823116361
 20
-1588.59627840992
 30
0.0
 11
-18.12951896448931
 21
-1588.541444151208
 31
0.0
  0
ARC
  5
DA282
  8
01
 10
-17.81849228891815
 20
-1588.149688145115
 30
0.0
 40
0.5002103169939319
 50
179.9878510898787
 51
231.5529000893688
  0
LINE
  5
DA283
  8
01
 10
-18.31870259466723
 20
-1588.14958208128
 30
0.0
 11
-18.31870265523776
 21
-1587.382059487076
 31
0.0
  0
LINE
  5
DA284
  8
01
 10
-14.81880485396323
 20
-1571.882059759691
 30
0.0
 11
-15.23509163385825
 21
-1571.882059759691
 31
0.0
  0
LINE
  5
DA285
  8
01
 10
-16.75203535656965
 20
-1581.882040244484
 30
0.0
 11
-16.05203535656983
 21
-1581.882040244484
 31
0.0
  0
LINE
  5
DA286
  8
01
 10
-16.75203535656965
 20
-1581.882040244484
 30
0.0
 11
-15.98538913472305
 21
-1579.882653626216
 31
0.0
  0
LINE
  5
DA287
  8
01
 10
-9.824659189245835
 20
-1590.379326397213
 30
0.0
 11
18.18725326439244
 21
-1590.379191833172
 31
0.0
  0
LINE
  5
DA288
  8
01
 10
23.18140178845829
 20
-1571.882059759691
 30
0.0
 11
-14.81880485396312
 21
-1571.882059759691
 31
0.0
  0
LINE
  5
DA289
  8
01
 10
-16.21870266755741
 20
-1586.882059481242
 30
0.0
 11
-15.73481408733733
 21
-1572.365402344266
 31
0.0
  0
LINE
  5
DA28A
  8
01
 10
-15.73481408733733
 20
-1572.365402344266
 30
0.0
 11
-15.23509163385825
 21
-1571.882059759691
 31
0.0
  0
LINE
  5
DA28B
  8
01
 10
-17.81870266938608
 20
-1586.882059487076
 30
0.0
 11
26.18129951981338
 21
-1586.882059487076
 31
0.0
  0
ARC
  5
DA28C
  8
01
 10
-17.81870258582558
 20
-1587.382059556489
 30
0.0
 40
0.500000069412413
 50
90.0000095753418
 51
179.999992045925
  0
ARC
  5
DA28D
  8
01
 10
26.18129951795254
 20
-1588.149793401619
 30
0.0
 40
0.5000000000436617
 50
347.2879691513023
 51
351.9293815430891
  0
LINE
  5
DA29A
  8
1CENTER
 10
-10.71870371771422
 20
-1593.182418471436
 30
0.0
 11
-10.71870371771422
 21
-1564.429466191385
 31
0.0
  0
LINE
  5
DA29C
  8
1CENTER
 10
19.08129846724756
 20
-1593.182418471436
 30
0.0
 11
19.08129846724756
 21
-1564.429466191385
 31
0.0
  0
LINE
  5
DA2E3
  8
01
 10
21.88129846724757
 20
-1569.882059759691
 30
0.0
 11
21.88129846724757
 21
-1570.182059759691
 31
0.0
  0
LINE
  5
DA2E6
  8
01
 10
20.88129846724757
 20
-1571.182059759691
 30
0.0
 11
21.88129846724757
 21
-1570.182059759691
 31
0.0
  0
LINE
  5
DA2E7
  8
01
 10
20.88129846724757
 20
-1571.182059759691
 30
0.0
 11
20.88129846724757
 21
-1571.882059759691
 31
0.0
  0
LINE
  5
DA2EA
  8
01
 10
16.28129846724755
 20
-1569.882059759691
 30
0.0
 11
16.28129846724755
 21
-1570.182059759691
 31
0.0
  0
LINE
  5
DA2EB
  8
01
 10
17.28129846724755
 20
-1571.182059759691
 30
0.0
 11
16.28129846724755
 21
-1570.182059759691
 31
0.0
  0
LINE
  5
DA2EC
  8
01
 10
17.28129846724755
 20
-1571.182059759691
 30
0.0
 11
17.28129846724755
 21
-1571.882059759691
 31
0.0
  0
LINE
  5
DA2ED
  8
01
 10
16.26129955943821
 20
-1570.182059759691
 30
0.0
 11
21.86129955943824
 21
-1570.182059759691
 31
0.0
  0
LINE
  5
DA2EE
  8
01
 10
17.28129846724755
 20
-1571.182059759691
 30
0.0
 11
17.48128380852211
 21
-1571.182059759691
 31
0.0
  0
LINE
  5
DA2EF
  8
01
 10
-13.5187015327524
 20
-1569.882059759691
 30
0.0
 11
-13.5187015327524
 21
-1570.182059759691
 31
0.0
  0
LINE
  5
DA2F0
  8
01
 10
-12.5187015327524
 20
-1571.182059759691
 30
0.0
 11
-13.5187015327524
 21
-1570.182059759691
 31
0.0
  0
LINE
  5
DA2F1
  8
01
 10
-12.51870371771423
 20
-1571.182059759691
 30
0.0
 11
-12.51870371771423
 21
-1571.882059759691
 31
0.0
  0
LINE
  5
DA2F3
  8
01
 10
-7.91870153275238
 20
-1569.882059759691
 30
0.0
 11
-7.91870153275238
 21
-1570.182059759691
 31
0.0
  0
LINE
  5
DA2F4
  8
01
 10
-8.91870153275238
 20
-1571.182059759691
 30
0.0
 11
-7.91870153275238
 21
-1570.182059759691
 31
0.0
  0
LINE
  5
DA2F5
  8
01
 10
-8.918703717714209
 20
-1571.182059759691
 30
0.0
 11
-8.918703717714209
 21
-1571.882059759691
 31
0.0
  0
LINE
  5
DA2F7
  8
01
 10
-12.31871837643968
 20
-1571.182059759691
 30
0.0
 11
-12.5187015327524
 21
-1571.182059759691
 31
0.0
  0
LINE
  5
DA360
  8
01
 10
-8.918703717714209
 20
-1571.182059759691
 30
0.0
 11
-9.118686874026935
 21
-1571.182059759691
 31
0.0
  0
LINE
  5
DA361
  8
1DIM
 10
-12.51870371771423
 20
-1571.700864658932
 30
0.0
 11
-8.918703717714209
 21
-1571.700864658932
 31
0.0
  0
LINE
  5
DA363
  8
1DIM
 10
19.08129846724756
 20
-1569.882059759691
 30
0.0
 11
19.08129846724756
 21
-1571.297259456679
 31
0.0
  0
LINE
  5
DA364
  8
01
 10
20.68131312597302
 20
-1571.182059759691
 30
0.0
 11
20.88129846724757
 21
-1571.182059759691
 31
0.0
  0
LINE
  5
DAAAA
  8
1DIM
 10
75.3818393388043
 20
-1773.947870668488
 30
0.0
 11
75.3818393388043
 21
-1792.0226061346
 31
0.0
  0
LINE
  5
E44E9
  8
01
 10
-2.968702667557409
 20
-1571.882059759691
 30
0.0
 11
-2.968702667557409
 21
-1569.882059759691
 31
0.0
  0
LINE
  5
E44EA
  8
01
 10
1.531297332442591
 20
-1571.882059759691
 30
0.0
 11
1.531297332442591
 21
-1569.882059759691
 31
0.0
  0
LINE
  5
E7B2E
  8
1CENTER
 10
-0.7187026675574089
 20
-1567.547834592625
 30
0.0
 11
-0.7187026675574089
 21
-1575.916284926757
 31
0.0
  0
TEXT
  5
E7BDF
  8
1TEXT2
 10
156.8975797953471
 20
-1648.583266026995
 30
0.0
 40
8.0
  1
PC-463-X
  0
LINE
  5
E7D11
  8
1CENTER
 10
-25.31870262495249
 20
-1696.047870668488
 30
0.0
 11
37.18129737504751
 21
-1696.047870668488
 31
0.0
  0
LINE
  5
E7D14
  8
1CENTER
 10
63.94598087630573
 20
-1696.047870668488
 30
0.0
 11
107.4459808763057
 21
-1696.047870668488
 31
0.0
  0
CIRCLE
  5
E7D2B
  8
1HIDDEN
 10
-10.73870262495245
 20
-1623.527870668493
 30
0.0
 40
2.699999999999989
  0
CIRCLE
  5
E7D2D
  8
1HIDDEN
 10
19.10129737504735
 20
-1623.527870668493
 30
0.0
 40
2.699999999999989
  0
CIRCLE
  5
E7D2F
  8
1HIDDEN
 10
19.10129737504735
 20
-1768.567870668483
 30
0.0
 40
2.699999999999989
  0
CIRCLE
  5
E7D31
  8
1HIDDEN
 10
-10.73870262495245
 20
-1768.567870668483
 30
0.0
 40
2.699999999999989
  0
LINE
  5
E7DEC
  8
01
 10
-14.31870262495249
 20
-1776.047870668488
 30
0.0
 11
22.68129737504751
 21
-1776.047870668488
 31
0.0
  0
ARC
  5
E7DED
  8
01
 10
22.68129737504751
 20
-1772.047870668488
 30
0.0
 40
4.0
 50
270.0
 51
0.0
  0
LINE
  5
E7DEE
  8
01
 10
26.68129737504751
 20
-1772.047870668488
 30
0.0
 11
26.68129737504751
 21
-1620.047870668488
 31
0.0
  0
ARC
  5
E7DEF
  8
01
 10
22.68129737504751
 20
-1620.047870668488
 30
0.0
 40
4.0
 50
0.0
 51
90.0
  0
LINE
  5
E7DF0
  8
01
 10
22.68129737504751
 20
-1616.047870668488
 30
0.0
 11
-14.31870262495249
 21
-1616.047870668488
 31
0.0
  0
ARC
  5
E7DF1
  8
01
 10
-14.31870262495249
 20
-1620.047870668488
 30
0.0
 40
4.0
 50
90.0
 51
180.0
  0
LINE
  5
E7DF2
  8
01
 10
-18.31870262495249
 20
-1620.047870668488
 30
0.0
 11
-18.31870262495249
 21
-1772.047870668488
 31
0.0
  0
ARC
  5
E7DF3
  8
01
 10
-14.31870262495249
 20
-1772.047870668488
 30
0.0
 40
4.0
 50
180.0
 51
270.0
  0
ARC
  5
E7DF4
  8
01
 10
4.181297375047507
 20
-1754.047870668488
 30
0.0
 40
13.0
 50
180.0
 51
0.0
  0
LINE
  5
E7DF5
  8
01
 10
17.18129737504751
 20
-1754.047870668488
 30
0.0
 11
17.18129737504751
 21
-1638.047870668488
 31
0.0
  0
ARC
  5
E7DF6
  8
01
 10
4.181297375047507
 20
-1638.047870668488
 30
0.0
 40
13.0
 50
0.0
 51
180.0
  0
LINE
  5
E7DF7
  8
01
 10
-8.818702624952493
 20
-1638.047870668488
 30
0.0
 11
-8.818702624952493
 21
-1754.047870668488
 31
0.0
  0
LINE
  5
E7DF8
  8
01
 10
18.18725326439244
 20
-1590.379191833172
 30
0.0
 11
18.93184126696747
 21
-1590.363835276164
 31
0.0
  0
LINE
  5
E7DF9
  8
01
 10
18.93184126696747
 20
-1590.363835276164
 30
0.0
 11
19.64635805712021
 21
-1590.335211696073
 31
0.0
  0
LINE
  5
E7DFA
  8
01
 10
19.64635805712021
 20
-1590.335211696073
 30
0.0
 11
20.33080363485055
 21
-1590.293321092902
 31
0.0
  0
LINE
  5
E7DFB
  8
01
 10
20.33080363485055
 20
-1590.293321092902
 30
0.0
 11
20.98517800015873
 21
-1590.238163466647
 31
0.0
  0
LINE
  5
E7DFC
  8
01
 10
20.98517800015873
 20
-1590.238163466647
 30
0.0
 11
21.6094811530445
 21
-1590.169738817312
 31
0.0
  0
LINE
  5
E7DFD
  8
01
 10
21.6094811530445
 20
-1590.169738817312
 30
0.0
 11
22.20371309350799
 21
-1590.088047144894
 31
0.0
  0
LINE
  5
E7DFE
  8
01
 10
22.20371309350799
 20
-1590.088047144894
 30
0.0
 11
22.7678738215493
 21
-1589.993088449394
 31
0.0
  0
LINE
  5
E7DFF
  8
01
 10
22.7678738215493
 20
-1589.993088449394
 30
0.0
 11
23.30196333716822
 21
-1589.884862730812
 31
0.0
  0
LINE
  5
E7E00
  8
01
 10
23.30196333716822
 20
-1589.884862730812
 30
0.0
 11
23.5577313903193
 21
-1589.825774737866
 31
0.0
  0
LINE
  5
E7E01
  8
01
 10
23.5577313903193
 20
-1589.825774737866
 30
0.0
 11
23.80598164036473
 21
-1589.763369989148
 31
0.0
  0
LINE
  5
E7E02
  8
01
 10
23.80598164036473
 20
-1589.763369989148
 30
0.0
 11
24.04671408730474
 21
-1589.697648484661
 31
0.0
  0
LINE
  5
E7E03
  8
01
 10
24.04671408730474
 20
-1589.697648484661
 30
0.0
 11
24.27992873113908
 21
-1589.628610224403
 31
0.0
  0
LINE
  5
E7E04
  8
01
 10
24.27992873113908
 20
-1589.628610224403
 30
0.0
 11
24.50562557186788
 21
-1589.556255208374
 31
0.0
  0
LINE
  5
E7E05
  8
01
 10
24.50562557186788
 20
-1589.556255208374
 30
0.0
 11
24.72380460949103
 21
-1589.480583436575
 31
0.0
  0
LINE
  5
E7E06
  8
01
 10
24.72380460949103
 20
-1589.480583436575
 30
0.0
 11
24.93446584400874
 21
-1589.401594909006
 31
0.0
  0
LINE
  5
E7E07
  8
01
 10
24.93446584400874
 20
-1589.401594909006
 30
0.0
 11
25.1376092754208
 21
-1589.319289625666
 31
0.0
  0
LINE
  5
E7E08
  8
01
 10
25.1376092754208
 20
-1589.319289625666
 30
0.0
 11
25.33323490372732
 21
-1589.233667586555
 31
0.0
  0
LINE
  5
E7E09
  8
01
 10
25.33323490372732
 20
-1589.233667586555
 30
0.0
 11
25.52134272892818
 21
-1589.144728791674
 31
0.0
  0
LINE
  5
E7E0A
  8
01
 10
25.52134272892818
 20
-1589.144728791674
 30
0.0
 11
25.70193275102349
 21
-1589.052473241023
 31
0.0
  0
LINE
  5
E7E0B
  8
01
 10
25.70193275102349
 20
-1589.052473241023
 30
0.0
 11
25.87500497001326
 21
-1588.956900934601
 31
0.0
  0
LINE
  5
E7E0C
  8
01
 10
25.87500497001326
 20
-1588.956900934601
 30
0.0
 11
26.0405593858975
 21
-1588.858011872408
 31
0.0
  0
LINE
  5
E7E0D
  8
01
 10
26.0405593858975
 20
-1588.858011872408
 30
0.0
 11
26.12051741767505
 21
-1588.807323557898
 31
0.0
  0
LINE
  5
E7E0E
  8
01
 10
26.12051741767505
 20
-1588.807323557898
 30
0.0
 11
26.19859599867607
 21
-1588.755806054446
 31
0.0
  0
LINE
  5
E7E0F
  8
01
 10
26.19859599867607
 20
-1588.755806054446
 30
0.0
 11
26.27479512890079
 21
-1588.70345936205
 31
0.0
  0
LINE
  5
E7E10
  8
01
 10
26.27479512890079
 20
-1588.70345936205
 30
0.0
 11
26.3491148083491
 21
-1588.650283480712
 31
0.0
  0
LINE
  5
E7E11
  8
01
 10
26.3491148083491
 20
-1588.650283480712
 30
0.0
 11
26.42155503702111
 21
-1588.596278410432
 31
0.0
  0
LINE
  5
E7E12
  8
01
 10
26.42155503702111
 20
-1588.596278410432
 30
0.0
 11
26.49211581491659
 21
-1588.541444151208
 31
0.0
  0
LINE
  5
E7E13
  8
01
 10
-15.21870153275239
 20
-1571.882059759691
 30
0.0
 11
23.58129846724756
 21
-1571.882059759691
 31
0.0
  0
ARC
  5
E7E14
  8
01
 10
23.58129846724756
 20
-1571.382059759691
 30
0.0
 40
0.5
 50
270.0
 51
0.0
  0
LINE
  5
E7E15
  8
01
 10
24.08129846724756
 20
-1571.382059759691
 30
0.0
 11
24.08129846724756
 21
-1570.382059759691
 31
0.0
  0
ARC
  5
E7E16
  8
01
 10
23.58129846724756
 20
-1570.382059759691
 30
0.0
 40
0.5
 50
0.0
 51
90.0
  0
LINE
  5
E7E17
  8
01
 10
23.58129846724756
 20
-1569.882059759691
 30
0.0
 11
-15.21870153275239
 21
-1569.882059759691
 31
0.0
  0
ARC
  5
E7E18
  8
01
 10
-15.21870153275239
 20
-1570.382059759691
 30
0.0
 40
0.5
 50
90.0
 51
180.0
  0
LINE
  5
E7E19
  8
01
 10
-15.71870153275239
 20
-1570.382059759691
 30
0.0
 11
-15.71870153275239
 21
-1571.382059759691
 31
0.0
  0
ARC
  5
E7E1A
  8
01
 10
-15.21870153275239
 20
-1571.382059759691
 30
0.0
 40
0.5
 50
180.0
 51
270.0
  0
LINE
  5
E7E1B
  8
01
 10
-9.468760142702934
 20
-1579.882089426078
 30
0.0
 11
-9.218757234181055
 21
-1579.632086517556
 31
0.0
  0
LINE
  5
E7E1C
  8
01
 10
-9.218772746146914
 20
-1579.632086517496
 30
0.0
 11
-9.21872278327686
 21
-1571.282068587257
 31
0.0
  0
LINE
  5
E7E1D
  8
01
 10
-8.018705579150094
 20
-1570.082059759683
 30
0.0
 11
-9.468725110087973
 21
-1571.532069168962
 31
0.0
  0
LINE
  5
E7E1E
  8
01
 10
-8.018705579150094
 20
-1570.082059759683
 30
0.0
 11
-8.018703717714232
 21
-1569.882059759691
 31
0.0
  0
LINE
  5
E7E1F
  8
01
 10
-13.41870371771421
 20
-1569.882059759691
 30
0.0
 11
-8.018703717714232
 21
-1569.882059759691
 31
0.0
  0
LINE
  5
E7E20
  8
01
 10
-13.41870557915018
 20
-1570.082059759683
 30
0.0
 11
-13.41870371771421
 21
-1569.882059759691
 31
0.0
  0
LINE
  5
E7E21
  8
01
 10
-13.41870557915018
 20
-1570.082059759683
 30
0.0
 11
-11.96872511004568
 21
-1571.532057097922
 31
0.0
  0
LINE
  5
E7E22
  8
01
 10
-12.2187727461684
 20
-1579.632074883522
 30
0.0
 11
-12.21872278325662
 21
-1571.282056516227
 31
0.0
  0
LINE
  5
E7E23
  8
01
 10
-11.9687601426678
 20
-1579.882071975117
 30
0.0
 11
-12.21875723420254
 21
-1579.632074883582
 31
0.0
  0
LINE
  5
E7E24
  8
01
 10
-11.9687601426678
 20
-1579.882071975117
 30
0.0
 11
-9.468760142702934
 21
-1579.882089426078
 31
0.0
  0
LINE
  5
E7E25
  8
1HATCH
 10
-11.96877507293074
 20
-1579.882072556759
 30
0.0
 11
-11.96872511004563
 21
-1571.532057097922
 31
0.0
  0
LINE
  5
E7E26
  8
1HATCH
 10
-9.468775072974172
 20
-1579.882088844323
 30
0.0
 11
-9.468725110087973
 21
-1571.532069168962
 31
0.0
  0
LINE
  5
E7E27
  8
01
 10
-13.41870557915018
 20
-1570.082059759683
 30
0.0
 11
-8.018705579150094
 21
-1570.082059759683
 31
0.0
  0
LINE
  5
E7E28
  8
1HATCH
 10
-12.21875723420254
 20
-1579.632074883582
 30
0.0
 11
-9.218757234181055
 21
-1579.632086517556
 31
0.0
  0
LINE
  5
E7E29
  8
01
 10
20.33124204225885
 20
-1579.882089426078
 30
0.0
 11
20.58124495078073
 21
-1579.632086517556
 31
0.0
  0
LINE
  5
E7E2A
  8
01
 10
20.58122943881487
 20
-1579.632086517496
 30
0.0
 11
20.58127940168492
 21
-1571.282068587257
 31
0.0
  0
LINE
  5
E7E2B
  8
01
 10
21.78129660581169
 20
-1570.082059759683
 30
0.0
 11
20.33127707487381
 21
-1571.532069168962
 31
0.0
  0
LINE
  5
E7E2C
  8
01
 10
21.78129660581169
 20
-1570.082059759683
 30
0.0
 11
21.78129846724755
 21
-1569.882059759691
 31
0.0
  0
LINE
  5
E7E2D
  8
01
 10
16.38129846724757
 20
-1569.882059759691
 30
0.0
 11
21.78129846724755
 21
-1569.882059759691
 31
0.0
  0
LINE
  5
E7E2E
  8
01
 10
16.3812966058116
 20
-1570.082059759683
 30
0.0
 11
16.38129846724757
 21
-1569.882059759691
 31
0.0
  0
LINE
  5
E7E2F
  8
01
 10
16.3812966058116
 20
-1570.082059759683
 30
0.0
 11
17.8312770749161
 21
-1571.532057097922
 31
0.0
  0
LINE
  5
E7E30
  8
01
 10
17.58122943879338
 20
-1579.632074883522
 30
0.0
 11
17.58127940170516
 21
-1571.282056516227
 31
0.0
  0
LINE
  5
E7E31
  8
01
 10
17.83124204229398
 20
-1579.882071975117
 30
0.0
 11
17.58124495075924
 21
-1579.632074883582
 31
0.0
  0
LINE
  5
E7E32
  8
01
 10
17.83124204229398
 20
-1579.882071975117
 30
0.0
 11
20.33124204225885
 21
-1579.882089426078
 31
0.0
  0
LINE
  5
E7E33
  8
1HATCH
 10
17.83122711203104
 20
-1579.882072556759
 30
0.0
 11
17.83127707491616
 21
-1571.532057097922
 31
0.0
  0
LINE
  5
E7E34
  8
1HATCH
 10
20.33122711198761
 20
-1579.882088844323
 30
0.0
 11
20.33127707487381
 21
-1571.532069168962
 31
0.0
  0
LINE
  5
E7E35
  8
01
 10
16.3812966058116
 20
-1570.082059759683
 30
0.0
 11
21.78129660581169
 21
-1570.082059759683
 31
0.0
  0
LINE
  5
E7E36
  8
1HATCH
 10
17.58124495075924
 20
-1579.632074883582
 30
0.0
 11
20.58124495078073
 21
-1579.632086517556
 31
0.0
  0
LINE
  5
E7E37
  8
1DIM
 10
-14.31870262495249
 20
-1775.547870668488
 30
0.0
 11
22.68129737504751
 21
-1775.547870668488
 31
0.0
  0
ARC
  5
E7E38
  8
1DIM
 10
22.68129737504751
 20
-1772.047870668488
 30
0.0
 40
3.5
 50
270.0
 51
0.0
  0
LINE
  5
E7E39
  8
1DIM
 10
26.18129737504751
 20
-1772.047870668488
 30
0.0
 11
26.18129737504751
 21
-1620.047870668488
 31
0.0
  0
ARC
  5
E7E3A
  8
1DIM
 10
22.68129737504751
 20
-1620.047870668488
 30
0.0
 40
3.5
 50
0.0
 51
89.99999999999999
  0
LINE
  5
E7E3B
  8
1DIM
 10
22.68129737504751
 20
-1616.547870668488
 30
0.0
 11
-14.31870262495249
 21
-1616.547870668488
 31
0.0
  0
ARC
  5
E7E3C
  8
1DIM
 10
-14.31870262495249
 20
-1620.047870668488
 30
0.0
 40
3.5
 50
90.0
 51
180.0
  0
LINE
  5
E7E3D
  8
1DIM
 10
-17.81870262495249
 20
-1620.047870668488
 30
0.0
 11
-17.81870262495249
 21
-1772.047870668488
 31
0.0
  0
ARC
  5
E7E3E
  8
1DIM
 10
-14.31870262495249
 20
-1772.047870668488
 30
0.0
 40
3.5
 50
180.0
 51
270.0
  0
ARC
  5
E7E3F
  8
1DIM
 10
4.181297375047507
 20
-1754.047870668488
 30
0.0
 40
13.5
 50
180.0
 51
0.0
  0
LINE
  5
E7E40
  8
1DIM
 10
17.68129737504751
 20
-1754.047870668488
 30
0.0
 11
17.68129737504751
 21
-1638.047870668488
 31
0.0
  0
ARC
  5
E7E41
  8
1DIM
 10
4.181297375047507
 20
-1638.047870668488
 30
0.0
 40
13.5
 50
0.0
 51
180.0
  0
LINE
  5
E7E42
  8
1DIM
 10
-9.318702624952493
 20
-1638.047870668488
 30
0.0
 11
-9.318702624952493
 21
-1754.047870668488
 31
0.0
  0
LINE
  5
E7E43
  8
1DIM
  6
CONTINUOUS
 10
-14.3187026249525
 20
-1616.047870668489
 30
0.0
 11
-41.4289547182775
 21
-1616.047870668489
 31
0.0
1001
ACAD
1000
DSTYLE
1002
{
1070
    50
1040
1.570796326794897
1070
   288
1070
     1
1070
   345
1005
14
1070
   346
1005
14
1070
   347
1005
14
1002
}
  0
LINE
  5
E7E44
  8
1DIM
  6
CONTINUOUS
 10
-14.3187026249525
 20
-1776.047870668489
 30
0.0
 11
-41.42895471827747
 21
-1776.047870668489
 31
0.0
1001
ACAD
1000
DSTYLE
1002
{
1070
    50
1040
1.570796326794897
1070
   288
1070
     1
1070
   345
1005
14
1070
   346
1005
14
1070
   347
1005
14
1002
}
  0
LINE
  5
E7E45
  8
1DIM
  6
CONTINUOUS
 10
-40.4289547182775
 20
-1618.047870668489
 30
0.0
 11
-40.42895471827747
 21
-1774.047870668489
 31
0.0
1001
ACAD
1000
DSTYLE
1002
{
1070
    50
1040
1.570796326794897
1070
   288
1070
     1
1070
   345
1005
14
1070
   346
1005
14
1070
   347
1005
14
1002
}
  0
LINE
  5
E7E49
  8
1DIM
  6
CONTINUOUS
 10
-18.31870262495249
 20
-1772.047870668488
 30
0.0
 11
-18.31870262495249
 21
-1800.804089670804
 31
0.0
1001
ACAD
1000
DSTYLE
1002
{
1070
    50
1040
1.570796326794897
1070
   288
1070
     1
1070
   345
1005
14
1070
   346
1005
14
1070
   347
1005
14
1002
}
  0
LINE
  5
E7E4A
  8
1DIM
  6
CONTINUOUS
 10
26.68129737504751
 20
-1772.047870668488
 30
0.0
 11
26.68129737504751
 21
-1800.804089670804
 31
0.0
1001
ACAD
1000
DSTYLE
1002
{
1070
    50
1040
1.570796326794897
1070
   288
1070
     1
1070
   345
1005
14
1070
   346
1005
14
1070
   347
1005
14
1002
}
  0
LINE
  5
E7E4B
  8
1DIM
  6
CONTINUOUS
 10
-16.31870262495249
 20
-1799.804089670804
 30
0.0
 11
24.68129737504751
 21
-1799.804089670804
 31
0.0
1001
ACAD
1000
DSTYLE
1002
{
1070
    50
1040
1.570796326794897
1070
   288
1070
     1
1070
   345
1005
14
1070
   346
1005
14
1070
   347
1005
14
1002
}
  0
LINE
  5
E7E4F
  8
1DIM
  6
CONTINUOUS
 10
4.181297375047507
 20
-1625.047870668489
 30
0.0
 11
-33.30732500988369
 21
-1625.047870668489
 31
0.0
1001
ACAD
1000
DSTYLE
1002
{
1070
    50
1040
1.570796326794897
1070
   288
1070
     1
1070
   345
1005
14
1070
   346
1005
14
1070
   347
1005
14
1002
}
  0
LINE
  5
E7E50
  8
1DIM
  6
CONTINUOUS
 10
4.181297375047507
 20
-1767.047870668489
 30
0.0
 11
-33.30732500988366
 21
-1767.047870668489
 31
0.0
1001
ACAD
1000
DSTYLE
1002
{
1070
    50
1040
1.570796326794897
1070
   288
1070
     1
1070
   345
1005
14
1070
   346
1005
14
1070
   347
1005
14
1002
}
  0
LINE
  5
E7E51
  8
1DIM
  6
CONTINUOUS
 10
-32.30732500988369
 20
-1627.047870668489
 30
0.0
 11
-32.30732500988366
 21
-1765.047870668489
 31
0.0
1001
ACAD
1000
DSTYLE
1002
{
1070
    50
1040
1.570796326794897
1070
   288
1070
     1
1070
   345
1005
14
1070
   346
1005
14
1070
   347
1005
14
1002
}
  0
LINE
  5
E7E55
  8
1DIM
  6
CONTINUOUS
 10
-9.318702624952493
 20
-1638.047870668488
 30
0.0
 11
-9.318702624952493
 21
-1714.746309392329
 31
0.0
1001
ACAD
1000
DSTYLE
1002
{
1070
    50
1040
1.570796326794897
1070
   288
1070
     1
1070
   345
1005
14
1070
   346
1005
14
1070
   347
1005
14
1002
}
  0
LINE
  5
E7E56
  8
1DIM
  6
CONTINUOUS
 10
17.68129737504751
 20
-1638.047870668488
 30
0.0
 11
17.68129737504751
 21
-1714.746309392329
 31
0.0
1001
ACAD
1000
DSTYLE
1002
{
1070
    50
1040
1.570796326794897
1070
   288
1070
     1
1070
   345
1005
14
1070
   346
1005
14
1070
   347
1005
14
1002
}
  0
LINE
  5
E7E57
  8
1DIM
  6
CONTINUOUS
 10
-7.318702624952493
 20
-1713.746309392329
 30
0.0
 11
15.68129737504751
 21
-1713.746309392329
 31
0.0
1001
ACAD
1000
DSTYLE
1002
{
1070
    50
1040
1.570796326794897
1070
   288
1070
     1
1070
   345
1005
14
1070
   346
1005
14
1070
   347
1005
14
1002
}
  0
LINE
  5
E7E5B
  8
1DIM
  6
CONTINUOUS
 10
-33.14420492067131
 20
-1789.152619806075
 30
0.0
 11
-18.7594399734395
 21
-1776.082700504028
 31
0.0
1001
ACAD
1000
DSTYLE
1002
{
1070
    50
1040
1.570796326794897
1070
   288
1070
     1
1070
   345
1005
14
1070
   346
1005
14
1070
   347
1005
14
1002
}
1001
ACAD_DSTYLE_DIMRADIAL_EXTE
1070
   387
1070
     1
1070
   388
1040
3.141592653589793
1070
   390
1040
4.71238898038469
  0
LINE
  5
E7E5D
  8
1DIM
  6
CONTINUOUS
 10
-14.31870262495249
 20
-1772.047870668488
 30
0.0
 11
-17.27919419061072
 21
-1774.737757225515
 31
0.0
1001
ACAD
1000
DSTYLE
1002
{
1070
    50
1040
1.570796326794897
1070
   288
1070
     1
1070
   345
1005
14
1070
   346
1005
14
1070
   347
1005
14
1002
}
1001
ACAD_DSTYLE_DIMRADIAL_EXTE
1070
   387
1070
     1
1070
   388
1040
3.141592653589793
1070
   390
1040
4.71238898038469
  0
LINE
  5
E7E5F
  8
1DIM
  6
CONTINUOUS
 10
71.88136509350261
 20
-1767.680335196795
 30
0.0
 11
71.88136509350261
 21
-1800.804089670804
 31
0.0
1001
ACAD
1000
DSTYLE
1002
{
1070
    50
1040
1.570796326794897
1070
   288
1070
     1
1070
   345
1005
14
1070
   346
1005
14
1070
   347
1005
14
1002
}
  0
LINE
  5
E7E60
  8
1DIM
  6
CONTINUOUS
 10
92.38183933880435
 20
-1772.947870668488
 30
0.0
 11
92.38183933880435
 21
-1800.804089670804
 31
0.0
1001
ACAD
1000
DSTYLE
1002
{
1070
    50
1040
1.570796326794897
1070
   288
1070
     1
1070
   345
1005
14
1070
   346
1005
14
1070
   347
1005
14
1002
}
  0
LINE
  5
E7E61
  8
1DIM
  6
CONTINUOUS
 10
73.88136509350261
 20
-1799.804089670804
 30
0.0
 11
90.38183933880435
 21
-1799.804089670804
 31
0.0
1001
ACAD
1000
DSTYLE
1002
{
1070
    50
1040
1.570796326794897
1070
   288
1070
     1
1070
   345
1005
14
1070
   346
1005
14
1070
   347
1005
14
1002
}
  0
LINE
  5
E7E65
  8
1DIM
  6
CONTINUOUS
 10
75.3818393388043
 20
-1773.947870668488
 30
0.0
 11
75.3818393388043
 21
-1787.553996871025
 31
0.0
1001
ACAD
1000
DSTYLE
1002
{
1070
    50
1040
1.570796326794897
1070
   288
1070
     1
1070
   345
1005
14
1070
   346
1005
14
1070
   347
1005
14
1002
}
  0
LINE
  5
E7E66
  8
1DIM
  6
CONTINUOUS
 10
92.38183933880435
 20
-1772.947870668488
 30
0.0
 11
92.38183933880435
 21
-1787.553996871025
 31
0.0
1001
ACAD
1000
DSTYLE
1002
{
1070
    50
1040
1.570796326794897
1070
   288
1070
     1
1070
   345
1005
14
1070
   346
1005
14
1070
   347
1005
14
1002
}
  0
LINE
  5
E7E67
  8
1DIM
  6
CONTINUOUS
 10
77.3818393388043
 20
-1786.553996871025
 30
0.0
 11
90.38183933880435
 21
-1786.553996871025
 31
0.0
1001
ACAD
1000
DSTYLE
1002
{
1070
    50
1040
1.570796326794897
1070
   288
1070
     1
1070
   345
1005
14
1070
   346
1005
14
1070
   347
1005
14
1002
}
  0
LINE
  5
E7E83
  8
1DIM
 10
153.3367418987063
 20
-1657.5
 30
0.0
 11
223.4081768532296
 21
-1657.5
 31
0.0
  0
LINE
  5
E7E84
  8
1DIM
 10
153.3367418987063
 20
-1657.5
 30
0.0
 11
153.3367418987063
 21
-1742.0
 31
0.0
  0
LINE
  5
E7E85
  8
1DIM
 10
191.6113302531166
 20
-1657.5
 30
0.0
 11
191.6113302531166
 21
-1742.0
 31
0.0
  0
LINE
  5
E7E86
  8
1DIM
 10
223.4081768532296
 20
-1657.5
 30
0.0
 11
223.4081768532296
 21
-1742.0
 31
0.0
  0
LINE
  5
E7E87
  8
1DIM
 10
153.3367418987063
 20
-1664.5
 30
0.0
 11
223.4081768532296
 21
-1664.5
 31
0.0
  0
LINE
  5
E7E88
  8
1DIM
 10
153.3367418987063
 20
-1672.0
 30
0.0
 11
223.4081768532296
 21
-1672.0
 31
0.0
  0
LINE
  5
E7E89
  8
1DIM
 10
153.3367418987063
 20
-1679.0
 30
0.0
 11
223.4081768532296
 21
-1679.0
 31
0.0
  0
LINE
  5
E7E8A
  8
1DIM
 10
153.3367418987063
 20
-1686.0
 30
0.0
 11
223.4081768532296
 21
-1686.0
 31
0.0
  0
LINE
  5
E7E8B
  8
1DIM
 10
153.3367418987063
 20
-1693.0
 30
0.0
 11
223.4081768532296
 21
-1693.0
 31
0.0
  0
LINE
  5
E7E8C
  8
1DIM
 10
153.3367418987063
 20
-1700.0
 30
0.0
 11
223.4081768532296
 21
-1700.0
 31
0.0
  0
LINE
  5
E7E8D
  8
1DIM
 10
153.3367418987063
 20
-1707.0
 30
0.0
 11
223.4081768532296
 21
-1707.0
 31
0.0
  0
LINE
  5
E7E8E
  8
1DIM
 10
153.3367418987063
 20
-1714.0
 30
0.0
 11
223.4081768532296
 21
-1714.0
 31
0.0
  0
LINE
  5
E7E8F
  8
1DIM
 10
153.3367418987063
 20
-1721.0
 30
0.0
 11
223.4081768532296
 21
-1721.0
 31
0.0
  0
LINE
  5
E7E90
  8
1DIM
 10
153.3367418987063
 20
-1728.0
 30
0.0
 11
223.4081768532296
 21
-1728.0
 31
0.0
  0
LINE
  5
E7E91
  8
1DIM
 10
153.3367418987063
 20
-1735.0
 30
0.0
 11
223.4081768532296
 21
-1735.0
 31
0.0
  0
LINE
  5
E7E92
  8
1DIM
 10
153.3367418987063
 20
-1742.0
 30
0.0
 11
223.4081768532296
 21
-1742.0
 31
0.0
  0
TEXT
  5
E7E93
  8
1DIM
  6
CONTINUOUS
 10
96.12514137622475
 20
-1599.427571248386
 30
0.0
 40
3.5
  1
Material\U+FF1AZinc Die-Cast
 50
0.0000000000000649
  0
TEXT
  5
E7E94
  8
1DIM
  6
CONTINUOUS
 10
96.12514137622475
 20
-1605.26090458172
 30
0.0
 40
3.5
  1
Finish\U+FF1AVarious Platings
 50
0.0000000000000649
  0
LINE
  5
E7E96
  8
1DIM
 10
81.34140453652051
 20
-1623.516546640638
 30
0.0
 11
94.06923551834777
 21
-1609.440894506377
 31
0.0
1001
ACAD
1000
DSTYLE
1002
{
1070
    45
1040
0.5
1002
}
  0
LINE
  5
E7E97
  8
1DIM
 10
94.06923551834777
 20
-1609.440894506377
 30
0.0
 11
156.7359021850144
 21
-1609.440894506377
 31
0.0
1001
ACAD
1000
DSTYLE
1002
{
1070
    45
1040
0.5
1002
}
  0
TEXT
  5
E7E98
  8
1DIM
  6
CONTINUOUS
 10
111.028709238143
 20
-1764.991990293948
 30
0.0
 40
3.5
  1
Material\U+FF1ABrass
 50
0.0000000000000649
  0
TEXT
  5
E7E99
  8
1DIM
  6
CONTINUOUS
 10
111.028709238143
 20
-1770.825323627281
 30
0.0
 40
3.5
  1
Finish\U+FF1AVarious Platings
 50
0.0000000000000649
  0
LINE
  5
E7E9B
  8
1DIM
 10
94.04914886663094
 20
-1763.993406506009
 30
0.0
 11
108.328709238143
 21
-1773.453437734557
 31
0.0
1001
ACAD
1000
DSTYLE
1002
{
1070
    45
1040
0.5
1002
}
  0
LINE
  5
E7E9C
  8
1DIM
 10
108.328709238143
 20
-1773.453437734557
 30
0.0
 11
170.328709238143
 21
-1773.453437734557
 31
0.0
1001
ACAD
1000
DSTYLE
1002
{
1070
    45
1040
0.5
1002
}
  0
LINE
  5
E7E9D
  8
1HIDDEN
 10
-15.71870262495247
 20
-1770.947870668488
 30
0.0
 11
-15.71870262495247
 21
-1621.147870668488
 31
0.0
  0
ARC
  5
E7E9E
  8
1HIDDEN
 10
-13.21870262495247
 20
-1621.147870668488
 30
0.0
 40
2.5
 50
90.0
 51
180.0
  0
LINE
  5
E7E9F
  8
1HIDDEN
 10
-13.21870262495247
 20
-1618.647870668488
 30
0.0
 11
-3.53432859673752
 21
-1618.647870668488
 31
0.0
  0
ARC
  5
E7EA0
  8
1HIDDEN
 10
-3.53432859673752
 20
-1619.147870668488
 30
0.0
 40
0.5
 50
0.0
 51
90.0
  0
LINE
  5
E7EA1
  8
1HIDDEN
 10
-3.03432859673752
 20
-1619.147870668488
 30
0.0
 11
-3.03432859673752
 21
-1621.847870668488
 31
0.0
  0
ARC
  5
E7EA2
  8
1HIDDEN
 10
-0.7843285967375202
 20
-1621.847870668488
 30
0.0
 40
2.25
 50
180.0
 51
0.0
  0
LINE
  5
E7EA3
  8
1HIDDEN
 10
1.46567140326248
 20
-1621.847870668488
 30
0.0
 11
1.46567140326248
 21
-1619.147870668488
 31
0.0
  0
ARC
  5
E7EA4
  8
1HIDDEN
 10
1.96567140326248
 20
-1619.147870668488
 30
0.0
 40
0.5
 50
90.0
 51
180.0
  0
LINE
  5
E7EA5
  8
1HIDDEN
 10
1.96567140326248
 20
-1618.647870668488
 30
0.0
 11
21.58129737504748
 21
-1618.647870668488
 31
0.0
  0
ARC
  5
E7EA6
  8
1HIDDEN
 10
21.58129737504748
 20
-1621.147870668488
 30
0.0
 40
2.5
 50
0.0
 51
90.0
  0
LINE
  5
E7EA7
  8
1HIDDEN
 10
24.08129737504748
 20
-1621.147870668488
 30
0.0
 11
24.08129737504748
 21
-1770.947870668488
 31
0.0
  0
ARC
  5
E7EA8
  8
1HIDDEN
 10
21.58129737504748
 20
-1770.947870668488
 30
0.0
 40
2.5
 50
270.0
 51
0.0
  0
LINE
  5
E7EA9
  8
1HIDDEN
 10
21.58129737504748
 20
-1773.447870668488
 30
0.0
 11
1.96567140326248
 21
-1773.447870668488
 31
0.0
  0
ARC
  5
E7EAA
  8
1HIDDEN
 10
1.96567140326248
 20
-1772.947870668488
 30
0.0
 40
0.5
 50
180.0
 51
270.0
  0
LINE
  5
E7EAB
  8
1HIDDEN
 10
1.46567140326248
 20
-1772.947870668488
 30
0.0
 11
1.46567140326248
 21
-1770.247870668488
 31
0.0
  0
ARC
  5
E7EAC
  8
1HIDDEN
 10
-0.7843285967375202
 20
-1770.247870668488
 30
0.0
 40
2.25
 50
0.0
 51
180.0
  0
LINE
  5
E7EAD
  8
1HIDDEN
 10
-3.03432859673752
 20
-1770.247870668488
 30
0.0
 11
-3.03432859673752
 21
-1772.947870668488
 31
0.0
  0
ARC
  5
E7EAE
  8
1HIDDEN
 10
-3.53432859673752
 20
-1772.947870668488
 30
0.0
 40
0.5
 50
270.0
 51
0.0
  0
LINE
  5
E7EAF
  8
1HIDDEN
 10
-3.53432859673752
 20
-1773.447870668488
 30
0.0
 11
-13.21870262495247
 21
-1773.447870668488
 31
0.0
  0
ARC
  5
E7EB0
  8
1HIDDEN
 10
-13.21870262495247
 20
-1770.947870668488
 30
0.0
 40
2.5
 50
180.0
 51
270.0
  0
LINE
  5
E7EB1
  8
1HIDDEN
 10
-9.250368845536343
 20
-1623.966856112292
 30
0.0
 11
-10.29968204895528
 21
-1623.966863436902
 31
0.0
  0
LINE
  5
E7EB2
  8
1HIDDEN
 10
-10.29968204895528
 20
-1623.966863436902
 30
0.0
 11
-10.29967472425994
 21
-1625.016188897719
 31
0.0
  0
LINE
  5
E7EB3
  8
1HIDDEN
 10
-10.29967472425994
 20
-1625.016188897719
 30
0.0
 11
-11.17768420726259
 21
-1625.016182768875
 31
0.0
  0
LINE
  5
E7EB4
  8
1HIDDEN
 10
-11.17768420726259
 20
-1625.016182768875
 30
0.0
 11
-11.17767688265275
 21
-1623.966869565644
 31
0.0
  0
LINE
  5
E7EB5
  8
1HIDDEN
 10
-11.17767688265275
 20
-1623.966869565644
 30
0.0
 11
-12.22699621472788
 21
-1623.966876890297
 31
0.0
  0
LINE
  5
E7EB6
  8
1HIDDEN
 10
-12.22699621472788
 20
-1623.966876890297
 30
0.0
 11
-12.22699008588393
 21
-1623.088867407294
 31
0.0
  0
LINE
  5
E7EB7
  8
1HIDDEN
 10
-12.22699008588393
 20
-1623.088867407294
 30
0.0
 11
-11.17767075391106
 21
-1623.088874731947
 31
0.0
  0
LINE
  5
E7EB8
  8
1HIDDEN
 10
-11.17767075391106
 20
-1623.088874731947
 30
0.0
 11
-11.17766342925847
 21
-1622.039555399974
 31
0.0
  0
LINE
  5
E7EB9
  8
1HIDDEN
 10
-11.17766342925847
 20
-1622.039555399974
 30
0.0
 11
-10.29969550226406
 21
-1622.039561528528
 31
0.0
  0
LINE
  5
E7EBA
  8
1HIDDEN
 10
-10.29969550226406
 20
-1622.039561528528
 30
0.0
 11
-10.29968817761147
 21
-1623.088880860603
 31
0.0
  0
LINE
  5
E7EBB
  8
1HIDDEN
 10
-10.29968817761147
 20
-1623.088880860603
 30
0.0
 11
-9.250362716982465
 21
-1623.088888185299
 31
0.0
  0
LINE
  5
E7EBC
  8
1HIDDEN
 10
-9.250362716982465
 20
-1623.088888185299
 30
0.0
 11
-9.250368845536343
 21
-1623.966856112292
 31
0.0
  0
LINE
  5
E7EBD
  8
1HIDDEN
 10
20.58963115446346
 20
-1623.966856112292
 30
0.0
 11
19.54031795104453
 21
-1623.966863436902
 31
0.0
  0
LINE
  5
E7EBE
  8
1HIDDEN
 10
19.54031795104453
 20
-1623.966863436902
 30
0.0
 11
19.54032527573986
 21
-1625.016188897719
 31
0.0
  0
LINE
  5
E7EBF
  8
1HIDDEN
 10
19.54032527573986
 20
-1625.016188897719
 30
0.0
 11
18.66231579273722
 21
-1625.016182768875
 31
0.0
  0
LINE
  5
E7EC0
  8
1HIDDEN
 10
18.66231579273722
 20
-1625.016182768875
 30
0.0
 11
18.66232311734706
 21
-1623.966869565644
 31
0.0
  0
LINE
  5
E7EC1
  8
1HIDDEN
 10
18.66232311734706
 20
-1623.966869565644
 30
0.0
 11
17.61300378527193
 21
-1623.966876890297
 31
0.0
  0
LINE
  5
E7EC2
  8
1HIDDEN
 10
17.61300378527193
 20
-1623.966876890297
 30
0.0
 11
17.61300991411588
 21
-1623.088867407294
 31
0.0
  0
LINE
  5
E7EC3
  8
1HIDDEN
 10
17.61300991411588
 20
-1623.088867407294
 30
0.0
 11
18.66232924608875
 21
-1623.088874731947
 31
0.0
  0
LINE
  5
E7EC4
  8
1HIDDEN
 10
18.66232924608875
 20
-1623.088874731947
 30
0.0
 11
18.66233657074133
 21
-1622.039555399974
 31
0.0
  0
LINE
  5
E7EC5
  8
1HIDDEN
 10
18.66233657074133
 20
-1622.039555399974
 30
0.0
 11
19.54030449773575
 21
-1622.039561528528
 31
0.0
  0
LINE
  5
E7EC6
  8
1HIDDEN
 10
19.54030449773575
 20
-1622.039561528528
 30
0.0
 11
19.54031182238833
 21
-1623.088880860603
 31
0.0
  0
LINE
  5
E7EC7
  8
1HIDDEN
 10
19.54031182238833
 20
-1623.088880860603
 30
0.0
 11
20.58963728301734
 21
-1623.088888185299
 31
0.0
  0
LINE
  5
E7EC8
  8
1HIDDEN
 10
20.58963728301734
 20
-1623.088888185299
 30
0.0
 11
20.58963115446346
 21
-1623.966856112292
 31
0.0
  0
LINE
  5
E7EC9
  8
1HIDDEN
 10
20.58963115446346
 20
-1769.006856112282
 30
0.0
 11
19.54031795104453
 21
-1769.006863436892
 31
0.0
  0
LINE
  5
E7ECA
  8
1HIDDEN
 10
19.54031795104453
 20
-1769.006863436892
 30
0.0
 11
19.54032527573986
 21
-1770.056188897709
 31
0.0
  0
LINE
  5
E7ECB
  8
1HIDDEN
 10
19.54032527573986
 20
-1770.056188897709
 30
0.0
 11
18.66231579273722
 21
-1770.056182768865
 31
0.0
  0
LINE
  5
E7ECC
  8
1HIDDEN
 10
18.66231579273722
 20
-1770.056182768865
 30
0.0
 11
18.66232311734706
 21
-1769.006869565634
 31
0.0
  0
LINE
  5
E7ECD
  8
1HIDDEN
 10
18.66232311734706
 20
-1769.006869565634
 30
0.0
 11
17.61300378527193
 21
-1769.006876890287
 31
0.0
  0
LINE
  5
E7ECE
  8
1HIDDEN
 10
17.61300378527193
 20
-1769.006876890287
 30
0.0
 11
17.61300991411588
 21
-1768.128867407284
 31
0.0
  0
LINE
  5
E7ECF
  8
1HIDDEN
 10
17.61300991411588
 20
-1768.128867407284
 30
0.0
 11
18.66232924608875
 21
-1768.128874731937
 31
0.0
  0
LINE
  5
E7ED0
  8
1HIDDEN
 10
18.66232924608875
 20
-1768.128874731937
 30
0.0
 11
18.66233657074133
 21
-1767.079555399964
 31
0.0
  0
LINE
  5
E7ED1
  8
1HIDDEN
 10
18.66233657074133
 20
-1767.079555399964
 30
0.0
 11
19.54030449773575
 21
-1767.079561528518
 31
0.0
  0
LINE
  5
E7ED2
  8
1HIDDEN
 10
19.54030449773575
 20
-1767.079561528518
 30
0.0
 11
19.54031182238833
 21
-1768.128880860593
 31
0.0
  0
LINE
  5
E7ED3
  8
1HIDDEN
 10
19.54031182238833
 20
-1768.128880860593
 30
0.0
 11
20.58963728301734
 21
-1768.128888185289
 31
0.0
  0
LINE
  5
E7ED4
  8
1HIDDEN
 10
20.58963728301734
 20
-1768.128888185289
 30
0.0
 11
20.58963115446346
 21
-1769.006856112282
 31
0.0
  0
LINE
  5
E7ED5
  8
1HIDDEN
 10
-9.250368845536343
 20
-1769.006856112282
 30
0.0
 11
-10.29968204895528
 21
-1769.006863436892
 31
0.0
  0
LINE
  5
E7ED6
  8
1HIDDEN
 10
-10.29968204895528
 20
-1769.006863436892
 30
0.0
 11
-10.29967472425994
 21
-1770.056188897709
 31
0.0
  0
LINE
  5
E7ED7
  8
1HIDDEN
 10
-10.29967472425994
 20
-1770.056188897709
 30
0.0
 11
-11.17768420726259
 21
-1770.056182768865
 31
0.0
  0
LINE
  5
E7ED8
  8
1HIDDEN
 10
-11.17768420726259
 20
-1770.056182768865
 30
0.0
 11
-11.17767688265275
 21
-1769.006869565634
 31
0.0
  0
LINE
  5
E7ED9
  8
1HIDDEN
 10
-11.17767688265275
 20
-1769.006869565634
 30
0.0
 11
-12.22699621472788
 21
-1769.006876890287
 31
0.0
  0
LINE
  5
E7EDA
  8
1HIDDEN
 10
-12.22699621472788
 20
-1769.006876890287
 30
0.0
 11
-12.22699008588393
 21
-1768.128867407284
 31
0.0
  0
LINE
  5
E7EDB
  8
1HIDDEN
 10
-12.22699008588393
 20
-1768.128867407284
 30
0.0
 11
-11.17767075391106
 21
-1768.128874731937
 31
0.0
  0
LINE
  5
E7EDC
  8
1HIDDEN
 10
-11.17767075391106
 20
-1768.128874731937
 30
0.0
 11
-11.17766342925847
 21
-1767.079555399964
 31
0.0
  0
LINE
  5
E7EDD
  8
1HIDDEN
 10
-11.17766342925847
 20
-1767.079555399964
 30
0.0
 11
-10.29969550226406
 21
-1767.079561528518
 31
0.0
  0
LINE
  5
E7EDE
  8
1HIDDEN
 10
-10.29969550226406
 20
-1767.079561528518
 30
0.0
 11
-10.29968817761147
 21
-1768.128880860593
 31
0.0
  0
LINE
  5
E7EDF
  8
1HIDDEN
 10
-10.29968817761147
 20
-1768.128880860593
 30
0.0
 11
-9.250362716982465
 21
-1768.128888185289
 31
0.0
  0
LINE
  5
E7EE0
  8
1HIDDEN
 10
-9.250362716982465
 20
-1768.128888185289
 30
0.0
 11
-9.250368845536343
 21
-1769.006856112282
 31
0.0
  0
LINE
  5
E7EE1
  8
1DIM
  6
CONTINUOUS
 10
-15.71870153275239
 20
-1570.382059759691
 30
0.0
 11
-15.71870153275239
 21
-1559.382059759691
 31
0.0
1001
ACAD
1000
DSTYLE
1002
{
1070
   271
1070
     0
1070
   288
1070
     1
1070
    50
1040
1.570796326794897
1070
   345
1005
14
1070
   346
1005
14
1070
   347
1005
14
1002
}
  0
LINE
  5
E7EE2
  8
1DIM
  6
CONTINUOUS
 10
24.08129846724756
 20
-1570.382059759691
 30
0.0
 11
24.08129846724756
 21
-1559.382059759691
 31
0.0
1001
ACAD
1000
DSTYLE
1002
{
1070
   271
1070
     0
1070
   288
1070
     1
1070
    50
1040
1.570796326794897
1070
   345
1005
14
1070
   346
1005
14
1070
   347
1005
14
1002
}
  0
LINE
  5
E7EE3
  8
1DIM
  6
CONTINUOUS
 10
-13.71870153275239
 20
-1560.382059759691
 30
0.0
 11
22.08129846724756
 21
-1560.382059759691
 31
0.0
1001
ACAD
1000
DSTYLE
1002
{
1070
   271
1070
     0
1070
   288
1070
     1
1070
    50
1040
1.570796326794897
1070
   345
1005
14
1070
   346
1005
14
1070
   347
1005
14
1002
}
  0
LINE
  5
E7EE7
  8
0
  6
BYBLOCK
 10
-40.96485271827751
 20
-1618.047870668489
 30
0.0
 11
-40.4289547182775
 21
-1616.047870668489
 31
0.0
  0
LINE
  5
E7EE8
  8
0
  6
BYBLOCK
 10
-40.4289547182775
 20
-1616.047870668489
 30
0.0
 11
-39.8930567182775
 21
-1618.047870668489
 31
0.0
  0
LINE
  5
E7EE9
  8
0
  6
BYBLOCK
 10
-40.4289547182775
 20
-1616.047870668489
 30
0.0
 11
-40.4289547182775
 21
-1618.047870668489
 31
0.0
  0
LINE
  5
E7EEA
  8
0
  6
BYBLOCK
 10
-39.89305671827746
 20
-1774.047870668489
 30
0.0
 11
-40.42895471827747
 21
-1776.047870668489
 31
0.0
  0
LINE
  5
E7EEB
  8
0
  6
BYBLOCK
 10
-40.42895471827747
 20
-1776.047870668489
 30
0.0
 11
-40.96485271827747
 21
-1774.047870668489
 31
0.0
  0
LINE
  5
E7EEC
  8
0
  6
BYBLOCK
 10
-40.42895471827747
 20
-1776.047870668489
 30
0.0
 11
-40.42895471827747
 21
-1774.047870668489
 31
0.0
  0
TEXT
  5
E7EED
  8
1DIM
  6
CONTINUOUS
 10
-41.12895471827801
 20
-1700.033762469717
 30
0.0
 40
3.5
  1
160
 50
90.0
1001
ACAD
1000
DSTYLE
1002
{
1070
    50
1040
1.570796326794897
1070
   288
1070
     1
1070
   345
1005
14
1070
   346
1005
14
1070
   347
1005
14
1002
}
  0
LINE
  5
E7EEE
  8
0
  6
BYBLOCK
 10
-16.31870262495249
 20
-1800.339987670804
 30
0.0
 11
-18.31870262495249
 21
-1799.804089670804
 31
0.0
  0
LINE
  5
E7EEF
  8
0
  6
BYBLOCK
 10
-18.31870262495249
 20
-1799.804089670804
 30
0.0
 11
-16.31870262495249
 21
-1799.268191670804
 31
0.0
  0
LINE
  5
E7EF0
  8
0
  6
BYBLOCK
 10
-18.31870262495249
 20
-1799.804089670804
 30
0.0
 11
-16.31870262495249
 21
-1799.804089670804
 31
0.0
  0
LINE
  5
E7EF1
  8
0
  6
BYBLOCK
 10
24.68129737504751
 20
-1799.268191670804
 30
0.0
 11
26.68129737504751
 21
-1799.804089670804
 31
0.0
  0
LINE
  5
E7EF2
  8
0
  6
BYBLOCK
 10
26.68129737504751
 20
-1799.804089670804
 30
0.0
 11
24.68129737504751
 21
-1800.339987670804
 31
0.0
  0
LINE
  5
E7EF3
  8
0
  6
BYBLOCK
 10
26.68129737504751
 20
-1799.804089670804
 30
0.0
 11
24.68129737504751
 21
-1799.804089670804
 31
0.0
  0
TEXT
  5
E7EF4
  8
1DIM
  6
CONTINUOUS
 10
1.191413756190134
 20
-1799.104089670804
 30
0.0
 40
3.5
  1
45
1001
ACAD
1000
DSTYLE
1002
{
1070
    50
1040
1.570796326794897
1070
   288
1070
     1
1070
   345
1005
14
1070
   346
1005
14
1070
   347
1005
14
1002
}
  0
LINE
  5
E7EF5
  8
0
  6
BYBLOCK
 10
-32.84322300988369
 20
-1627.047870668489
 30
0.0
 11
-32.30732500988369
 21
-1625.047870668489
 31
0.0
  0
LINE
  5
E7EF6
  8
0
  6
BYBLOCK
 10
-32.30732500988369
 20
-1625.047870668489
 30
0.0
 11
-31.77142700988369
 21
-1627.047870668489
 31
0.0
  0
LINE
  5
E7EF7
  8
0
  6
BYBLOCK
 10
-32.30732500988369
 20
-1625.047870668489
 30
0.0
 11
-32.30732500988369
 21
-1627.047870668489
 31
0.0
  0
LINE
  5
E7EF8
  8
0
  6
BYBLOCK
 10
-31.77142700988366
 20
-1765.047870668489
 30
0.0
 11
-32.30732500988366
 21
-1767.047870668489
 31
0.0
  0
LINE
  5
E7EF9
  8
0
  6
BYBLOCK
 10
-32.30732500988366
 20
-1767.047870668489
 30
0.0
 11
-32.84322300988367
 21
-1765.047870668489
 31
0.0
  0
LINE
  5
E7EFA
  8
0
  6
BYBLOCK
 10
-32.30732500988366
 20
-1767.047870668489
 30
0.0
 11
-32.30732500988366
 21
-1765.047870668489
 31
0.0
  0
TEXT
  5
E7EFB
  8
1DIM
  6
CONTINUOUS
 10
-33.0073250098842
 20
-1700.131204001822
 30
0.0
 40
3.5
  1
142
 50
90.0
1001
ACAD
1000
DSTYLE
1002
{
1070
    50
1040
1.570796326794897
1070
   288
1070
     1
1070
   345
1005
14
1070
   346
1005
14
1070
   347
1005
14
1002
}
  0
LINE
  5
E7EFC
  8
0
  6
BYBLOCK
 10
-7.318702624952493
 20
-1714.282207392329
 30
0.0
 11
-9.318702624952493
 21
-1713.746309392329
 31
0.0
  0
LINE
  5
E7EFD
  8
0
  6
BYBLOCK
 10
-9.318702624952493
 20
-1713.746309392329
 30
0.0
 11
-7.318702624952493
 21
-1713.210411392329
 31
0.0
  0
LINE
  5
E7EFE
  8
0
  6
BYBLOCK
 10
-9.318702624952493
 20
-1713.746309392329
 30
0.0
 11
-7.318702624952493
 21
-1713.746309392329
 31
0.0
  0
LINE
  5
E7EFF
  8
0
  6
BYBLOCK
 10
15.68129737504751
 20
-1713.210411392329
 30
0.0
 11
17.68129737504751
 21
-1713.746309392329
 31
0.0
  0
LINE
  5
E7F00
  8
0
  6
BYBLOCK
 10
17.68129737504751
 20
-1713.746309392329
 30
0.0
 11
15.68129737504751
 21
-1714.282207392329
 31
0.0
  0
LINE
  5
E7F01
  8
0
  6
BYBLOCK
 10
17.68129737504751
 20
-1713.746309392329
 30
0.0
 11
15.68129737504751
 21
-1713.746309392329
 31
0.0
  0
TEXT
  5
E7F02
  8
1DIM
  6
CONTINUOUS
 10
1.26463070838084
 20
-1713.046309392329
 30
0.0
 40
3.5
  1
27
1001
ACAD
1000
DSTYLE
1002
{
1070
    50
1040
1.570796326794897
1070
   288
1070
     1
1070
   345
1005
14
1070
   346
1005
14
1070
   347
1005
14
1002
}
  0
TEXT
  5
E7F03
  8
1DIM
  6
CONTINUOUS
 10
-33.09684904416099
 20
-1788.163803634606
 30
0.0
 40
3.5
  1
R4
 50
42.25811491523055
1001
ACAD
1000
DSTYLE
1002
{
1070
    50
1040
1.570796326794897
1070
   288
1070
     1
1070
   345
1005
14
1070
   346
1005
14
1070
   347
1005
14
1002
}
1001
ACAD_DSTYLE_DIMRADIAL_EXTE
1070
   387
1070
     1
1070
   388
1040
3.141592653589793
1070
   390
1040
4.71238898038469
  0
LINE
  5
E7F04
  8
0
  6
BYBLOCK
 10
-19.11981617997387
 20
-1775.686070126764
 30
0.0
 11
-17.27919419061072
 21
-1774.737757225515
 31
0.0
  0
LINE
  5
E7F05
  8
0
  6
BYBLOCK
 10
-17.27919419061072
 20
-1774.737757225515
 30
0.0
 11
-18.3990637669053
 21
-1776.479330881291
 31
0.0
  0
LINE
  5
E7F06
  8
0
  6
BYBLOCK
 10
-17.27919419061072
 20
-1774.737757225515
 30
0.0
 11
-18.75943997343959
 21
-1776.082700504028
 31
0.0
  0
LINE
  5
E7F07
  8
0
  6
BYBLOCK
 10
73.88136509350261
 20
-1800.339987670804
 30
0.0
 11
71.88136509350261
 21
-1799.804089670804
 31
0.0
  0
LINE
  5
E7F08
  8
0
  6
BYBLOCK
 10
71.88136509350261
 20
-1799.804089670804
 30
0.0
 11
73.88136509350261
 21
-1799.268191670804
 31
0.0
  0
LINE
  5
E7F09
  8
0
  6
BYBLOCK
 10
71.88136509350261
 20
-1799.804089670804
 30
0.0
 11
73.88136509350261
 21
-1799.804089670804
 31
0.0
  0
LINE
  5
E7F0A
  8
0
  6
BYBLOCK
 10
90.38183933880435
 20
-1799.268191670804
 30
0.0
 11
92.38183933880435
 21
-1799.804089670804
 31
0.0
  0
LINE
  5
E7F0B
  8
0
  6
BYBLOCK
 10
92.38183933880435
 20
-1799.804089670804
 30
0.0
 11
90.38183933880435
 21
-1800.339987670804
 31
0.0
  0
LINE
  5
E7F0C
  8
0
  6
BYBLOCK
 10
92.38183933880435
 20
-1799.804089670804
 30
0.0
 11
90.38183933880435
 21
-1799.804089670804
 31
0.0
  0
TEXT
  5
E7F0D
  8
1DIM
  6
CONTINUOUS
 10
77.67756471206046
 20
-1799.101659115249
 30
0.0
 40
3.5
  1
20.5
1001
ACAD
1000
DSTYLE
1002
{
1070
    50
1040
1.570796326794897
1070
   288
1070
     1
1070
   345
1005
14
1070
   346
1005
14
1070
   347
1005
14
1002
}
  0
LINE
  5
E7F0E
  8
0
  6
BYBLOCK
 10
77.3818393388043
 20
-1787.089894871026
 30
0.0
 11
75.3818393388043
 21
-1786.553996871025
 31
0.0
  0
LINE
  5
E7F0F
  8
0
  6
BYBLOCK
 10
75.3818393388043
 20
-1786.553996871025
 30
0.0
 11
77.3818393388043
 21
-1786.018098871025
 31
0.0
  0
LINE
  5
E7F10
  8
0
  6
BYBLOCK
 10
75.3818393388043
 20
-1786.553996871025
 30
0.0
 11
77.3818393388043
 21
-1786.553996871025
 31
0.0
  0
LINE
  5
E7F11
  8
0
  6
BYBLOCK
 10
90.38183933880435
 20
-1786.018098871025
 30
0.0
 11
92.38183933880435
 21
-1786.553996871025
 31
0.0
  0
LINE
  5
E7F12
  8
0
  6
BYBLOCK
 10
92.38183933880435
 20
-1786.553996871025
 30
0.0
 11
90.38183933880435
 21
-1787.089894871026
 31
0.0
  0
LINE
  5
E7F13
  8
0
  6
BYBLOCK
 10
92.38183933880435
 20
-1786.553996871025
 30
0.0
 11
90.38183933880435
 21
-1786.553996871025
 31
0.0
  0
TEXT
  5
E7F14
  8
1DIM
  6
CONTINUOUS
 10
81.548506005471
 20
-1785.853996871025
 30
0.0
 40
3.5
  1
17
1001
ACAD
1000
DSTYLE
1002
{
1070
    50
1040
1.570796326794897
1070
   288
1070
     1
1070
   345
1005
14
1070
   346
1005
14
1070
   347
1005
14
1002
}
  0
TEXT
  5
E7F15
  8
1DIM
  6
CONTINUOUS
 10
165.9927860759115
 20
-1662.0
 30
0.0
 40
3.0
  1
Finish
  0
TEXT
  5
E7F16
  8
1DIM
  6
CONTINUOUS
 10
202.0097535531731
 20
-1662.0
 30
0.0
 40
3.0
  1
Code
  0
TEXT
  5
E7F17
  8
1DIM
  6
CONTINUOUS
 10
163.9740360759114
 20
-1669.75
 30
0.0
 40
3.0
  1
Chrome
  0
TEXT
  5
E7F18
  8
1DIM
  6
CONTINUOUS
 10
194.4993368865064
 20
-1669.75
 30
0.0
 40
3.0
  1
PC-463-XC
  0
TEXT
  5
E7F19
  8
1DIM
  6
CONTINUOUS
 10
156.6226471870226
 20
-1676.5
 30
0.0
 40
3.0
  1
Mirror Nickel
  0
TEXT
  5
E7F1A
  8
1DIM
  6
CONTINUOUS
 10
194.4993368865064
 20
-1676.5
 30
0.0
 40
3.0
  1
PC-463-XD
  0
TEXT
  5
E7F1B
  8
1DIM
  6
CONTINUOUS
 10
159.4740360759114
 20
-1683.5
 30
0.0
 40
3.0
  1
Champagne
  0
TEXT
  5
E7F1C
  8
1DIM
  6
CONTINUOUS
 10
194.4951702198398
 20
-1683.5
 30
0.0
 40
3.0
  1
PC-463-RQ
  0
TEXT
  5
E7F1D
  8
1DIM
  6
CONTINUOUS
 10
160.810841631467
 20
-1690.5
 30
0.0
 40
3.0
  1
Rose Gold
  0
TEXT
  5
E7F1E
  8
1DIM
  6
CONTINUOUS
 10
194.4951702198398
 20
-1690.5
 30
0.0
 40
3.0
  1
PC-463-JQ
  0
TEXT
  5
E7F1F
  8
1DIM
  6
CONTINUOUS
 10
167.7115360759115
 20
-1697.5
 30
0.0
 40
3.0
  1
Gold
  0
TEXT
  5
E7F20
  8
1DIM
  6
CONTINUOUS
 10
194.4993368865064
 20
-1697.5
 30
0.0
 40
3.0
  1
PC-463-XG
  0
TEXT
  5
E7F21
  8
1DIM
  6
CONTINUOUS
 10
157.3316749648003
 20
-1704.5
 30
0.0
 40
3.0
  1
Mirror Black
  0
TEXT
  5
E7F22
  8
1DIM
  6
CONTINUOUS
 10
194.4951702198398
 20
-1704.5
 30
0.0
 40
3.0
  1
PC-463-8Q
  0
TEXT
  5
E7F23
  8
1DIM
  6
CONTINUOUS
 10
158.1226471870226
 20
-1711.5
 30
0.0
 40
3.0
  1
Satin Nickel
  0
TEXT
  5
E7F24
  8
1DIM
  6
CONTINUOUS
 10
194.4993368865064
 20
-1711.5
 30
0.0
 40
3.0
  1
PC-463-XN
  0
TEXT
  5
E7F25
  8
1DIM
  6
CONTINUOUS
 10
155.4821379277633
 20
-1718.0
 30
0.0
 40
2.5
  1
Satin Champagne
  0
TEXT
  5
E7F26
  8
1DIM
  6
CONTINUOUS
 10
194.4951702198398
 20
-1718.5
 30
0.0
 40
3.0
  1
PC-463-UQ
  0
TEXT
  5
E7F27
  8
1DIM
  6
CONTINUOUS
 10
156.5961425573929
 20
-1725.0
 30
0.0
 40
2.5
  1
Satin Rose Gold
  0
TEXT
  5
E7F28
  8
1DIM
  6
CONTINUOUS
 10
194.4951702198398
 20
-1725.5
 30
0.0
 40
3.0
  1
PC-463-TQ
  0
TEXT
  5
E7F29
  8
1DIM
  6
CONTINUOUS
 10
160.3212582981337
 20
-1732.5
 30
0.0
 40
3.0
  1
Satin Gold
  0
TEXT
  5
E7F2A
  8
1DIM
  6
CONTINUOUS
 10
194.4993368865064
 20
-1732.5
 30
0.0
 40
3.0
  1
PC-463-XH
  0
TEXT
  5
E7F2B
  8
1DIM
  6
CONTINUOUS
 10
163.973341631467
 20
-1739.5
 30
0.0
 40
3.0
  1
Others
  0
TEXT
  5
E7F2C
  8
1DIM
  6
CONTINUOUS
 10
194.4993368865064
 20
-1739.5
 30
0.0
 40
3.0
  1
PC-463-XA
  0
LINE
  5
E7F2D
  8
0
  6
BYBLOCK
 10
81.73889438070817
 20
-1623.875974644794
 30
0.0
 11
80.0
 21
-1625.0
 31
0.0
  0
LINE
  5
E7F2E
  8
0
  6
BYBLOCK
 10
80.0
 20
-1625.0
 30
0.0
 11
80.94391469233284
 21
-1623.157118636482
 31
0.0
  0
LINE
  5
E7F2F
  8
0
  6
BYBLOCK
 10
80.0
 20
-1625.0
 30
0.0
 11
81.34140453652051
 21
-1623.516546640638
 31
0.0
  0
LINE
  5
E7F30
  8
0
  6
BYBLOCK
 10
93.75317994804564
 20
-1764.44016042668
 30
0.0
 11
92.38183933880435
 21
-1762.888834671125
 31
0.0
  0
LINE
  5
E7F31
  8
0
  6
BYBLOCK
 10
92.38183933880435
 20
-1762.888834671125
 30
0.0
 11
94.34511778521623
 21
-1763.546652585337
 31
0.0
  0
LINE
  5
E7F32
  8
0
  6
BYBLOCK
 10
92.38183933880435
 20
-1762.888834671125
 30
0.0
 11
94.04914886663094
 21
-1763.993406506009
 31
0.0
  0
LINE
  5
E7F33
  8
0
  6
BYBLOCK
 10
-13.71870153275239
 20
-1560.917957759691
 30
0.0
 11
-15.71870153275239
 21
-1560.382059759691
 31
0.0
  0
LINE
  5
E7F34
  8
0
  6
BYBLOCK
 10
-15.71870153275239
 20
-1560.382059759691
 30
0.0
 11
-13.71870153275239
 21
-1559.846161759691
 31
0.0
  0
LINE
  5
E7F35
  8
0
  6
BYBLOCK
 10
-15.71870153275239
 20
-1560.382059759691
 30
0.0
 11
-13.71870153275239
 21
-1560.382059759691
 31
0.0
  0
LINE
  5
E7F36
  8
0
  6
BYBLOCK
 10
22.08129846724756
 20
-1559.846161759691
 30
0.0
 11
24.08129846724756
 21
-1560.382059759691
 31
0.0
  0
LINE
  5
E7F37
  8
0
  6
BYBLOCK
 10
24.08129846724756
 20
-1560.382059759691
 30
0.0
 11
22.08129846724756
 21
-1560.917957759691
 31
0.0
  0
LINE
  5
E7F38
  8
0
  6
BYBLOCK
 10
24.08129846724756
 20
-1560.382059759691
 30
0.0
 11
22.08129846724756
 21
-1560.382059759691
 31
0.0
  0
TEXT
  5
E7F39
  8
1DIM
  6
CONTINUOUS
 10
1.583381800580896
 20
-1559.682059759691
 30
0.0
 40
3.5
  1
40
1001
ACAD
1000
DSTYLE
1002
{
1070
   271
1070
     0
1070
   288
1070
     1
1070
    50
1040
1.570796326794897
1070
   345
1005
14
1070
   346
1005
14
1070
   347
1005
14
1002
}
  0
VIEWPORT
  5
99D50
 67
     1
  8
0
 10
0.0
 20
0.0
 30
0.0
 40
615.2903225806451
 41
297.0
 68
     1
 69
     1
1001
ACAD
1000
MVIEW
1002
{
1070
    16
1010
0.0
1020
0.0
1030
0.0
1010
0.0
1020
0.0
1030
1.0
1040
0.0
1040
297.0
1040
-4.300000000000011
1040
12.7999999999999
1040
50.0
1040
0.0
1040
0.0
1070
    16
1070
   100
1070
     0
1070
     1
1070
     0
1070
     0
1070
     0
1070
     0
1040
0.0
1040
0.0
1040
0.0
1040
10.0
1040
10.0
1040
10.0
1040
10.0
1070
     0
1002
{
1002
}
1002
}
  0
ENDSEC
  0
EOF
