  0
SECTION
  2
HEADER
  9
$ACADVER
  1
AC1009
  9
$DWGCODEPAGE
  3
ansi_932
  9
$INSBASE
 10
0.0
 20
0.0
 30
0.0
  9
$EXTMIN
 10
-186.6767977782494
 20
-1305.389765118141
 30
0.0
  9
$EXTMAX
 10
469.2616442501427
 20
-1068.621597384381
 30
0.0
  9
$LIMMIN
 10
0.0
 20
0.0
  9
$LIMMAX
 10
420.0
 20
297.0
  9
$ORTHOMODE
 70
     0
  9
$REGENMODE
 70
     1
  9
$FILLMODE
 70
     1
  9
$QTEXTMODE
 70
     0
  9
$MIRRTEXT
 70
     0
  9
$DRAGMODE
 70
     2
  9
$LTSCALE
 40
0.5
  9
$OSMODE
 70
  2687
  9
$ATTMODE
 70
     1
  9
$TEXTSIZE
 40
4.0
  9
$TRACEWID
 40
1.0
  9
$TEXTSTYLE
  7
STANDARD
  9
$CLAYER
  8
1TEXT
  9
$CELTYPE
  6
BYLAYER
  9
$CECOLOR
 62
   256
  9
$DIMSCALE
 40
3.0
  9
$DIMASZ
 40
2.0
  9
$DIMEXO
 40
0.0
  9
$DIMDLI
 40
7.0
  9
$DIMRND
 40
0.0
  9
$DIMDLE
 40
0.0
  9
$DIMEXE
 40
1.0
  9
$DIMTP
 40
0.0
  9
$DIMTM
 40
0.0
  9
$DIMTXT
 40
3.5
  9
$DIMCEN
 40
0.0
  9
$DIMTSZ
 40
0.0
  9
$DIMTOL
 70
     0
  9
$DIMLIM
 70
     0
  9
$DIMTIH
 70
     0
  9
$DIMTOH
 70
     0
  9
$DIMSE1
 70
     0
  9
$DIMSE2
 70
     0
  9
$DIMTAD
 70
     1
  9
$DIMZIN
 70
     8
  9
$DIMBLK
  1

  9
$DIMASO
 70
     1
  9
$DIMSHO
 70
     1
  9
$DIMPOST
  1
 
  9
$DIMAPOST
  1

  9
$DIMALT
 70
     0
  9
$DIMALTD
 70
     2
  9
$DIMALTF
 40
25.4
  9
$DIMLFAC
 40
1.0
  9
$DIMTOFL
 70
     1
  9
$DIMTVP
 40
0.0
  9
$DIMTIX
 70
     0
  9
$DIMSOXD
 70
     0
  9
$DIMSAH
 70
     1
  9
$DIMBLK1
  1
OPEN30
  9
$DIMBLK2
  1
OPEN30
  9
$DIMSTYLE
  2
NEWX10
  9
$DIMCLRD
 70
   256
  9
$DIMCLRE
 70
   256
  9
$DIMCLRT
 70
   201
  9
$DIMTFAC
 40
0.7
  9
$DIMGAP
 40
0.7
  9
$LUNITS
 70
     2
  9
$LUPREC
 70
     4
  9
$SKETCHINC
 40
1.0
  9
$FILLETRAD
 40
0.0
  9
$AUNITS
 70
     0
  9
$AUPREC
 70
     2
  9
$MENU
  1
acad
  9
$ELEVATION
 40
0.0
  9
$PELEVATION
 40
0.0
  9
$THICKNESS
 40
0.0
  9
$LIMCHECK
 70
     0
  9
$CHAMFERA
 40
10.0
  9
$CHAMFERB
 40
10.0
  9
$SKPOLY
 70
     0
  9
$TDCREATE
 40
2453033.690996817
  9
$TDUPDATE
 40
2460021.444891423
  9
$TDINDWG
 40
2.1247109606
  9
$TDUSRTIMER
 40
2.1247109606
  9
$USRTIMER
 70
     1
  9
$ANGBASE
 50
0.0
  9
$ANGDIR
 70
     0
  9
$PDMODE
 70
     0
  9
$PDSIZE
 40
0.0
  9
$PLINEWID
 40
0.0
  9
$COORDS
 70
     2
  9
$SPLFRAME
 70
     0
  9
$SPLINETYPE
 70
     6
  9
$SPLINESEGS
 70
     8
  9
$ATTDIA
 70
     0
  9
$ATTREQ
 70
     1
  9
$HANDLING
 70
     1
  9
$HANDSEED
  5
1EB1E
  9
$SURFTAB1
 70
     6
  9
$SURFTAB2
 70
     6
  9
$SURFTYPE
 70
     6
  9
$SURFU
 70
     6
  9
$SURFV
 70
     6
  9
$UCSNAME
  2

  9
$UCSORG
 10
0.0
 20
0.0
 30
0.0
  9
$UCSXDIR
 10
1.0
 20
0.0
 30
0.0
  9
$UCSYDIR
 10
0.0
 20
1.0
 30
0.0
  9
$PUCSNAME
  2

  9
$PUCSORG
 10
0.0
 20
0.0
 30
0.0
  9
$PUCSXDIR
 10
1.0
 20
0.0
 30
0.0
  9
$PUCSYDIR
 10
0.0
 20
1.0
 30
0.0
  9
$USERI1
 70
     0
  9
$USERI2
 70
     0
  9
$USERI3
 70
     0
  9
$USERI4
 70
     0
  9
$USERI5
 70
     0
  9
$USERR1
 40
0.0
  9
$USERR2
 40
0.0
  9
$USERR3
 40
0.0
  9
$USERR4
 40
0.0
  9
$USERR5
 40
0.0
  9
$WORLDVIEW
 70
     1
  9
$SHADEDGE
 70
     3
  9
$SHADEDIF
 70
    70
  9
$TILEMODE
 70
     1
  9
$MAXACTVP
 70
    48
  9
$PLIMCHECK
 70
     0
  9
$PEXTMIN
 10
1.000000000000000E+20
 20
1.000000000000000E+20
 30
1.000000000000000E+20
  9
$PEXTMAX
 10
-1.000000000000000E+20
 20
-1.000000000000000E+20
 30
-1.000000000000000E+20
  9
$PLIMMIN
 10
0.0
 20
0.0
  9
$PLIMMAX
 10
420.0
 20
297.0
  9
$UNITMODE
 70
     0
  9
$VISRETAIN
 70
     1
  9
$PLINEGEN
 70
     0
  9
$PSLTSCALE
 70
     1
  0
ENDSEC
  0
SECTION
  2
TABLES
  0
TABLE
  2
VPORT
 70
     1
  0
VPORT
  2
*ACTIVE
 70
     0
 10
0.0
 20
0.0
 11
1.0
 21
1.0
 12
141.2924232359467
 22
-1187.005681251261
 13
0.0
 23
0.0
 14
10.0
 24
10.0
 15
10.0
 25
10.0
 16
0.0
 26
0.0
 36
1.0
 17
0.0
 27
0.0
 37
0.0
 40
332.07833873831
 41
2.12079701120797
 42
50.0
 43
0.0
 44
0.0
 50
0.0
 51
0.0
 71
    16
 72
   100
 73
     1
 74
     1
 75
     0
 76
     0
 77
     0
 78
     0
  0
ENDTAB
  0
TABLE
  2
LTYPE
 70
    16
  0
LTYPE
  2
CONTINUOUS
 70
     0
  3
Solid line
 72
    65
 73
     0
 40
0.0
  0
LTYPE
  2
XREF1|CENTER2
 70
    48
  3
Center (.5x) ___ _ ___ _ ___ _ ___ _ ___ _ ___
 72
    65
 73
     4
 40
28.575
 49
19.05
 49
-3.175
 49
3.175
 49
-3.175
  0
LTYPE
  2
PHANTOM2
 70
     0
  3
Phantom (0.5x) ___ _ _ ___ _ _ ___ _ _ ___ _ _
 72
    65
 73
     6
 40
31.75
 49
15.875
 49
-3.175
 49
3.175
 49
-3.175
 49
3.175
 49
-3.175
  0
LTYPE
  2
A3WAKUDAKE|CENTER2
 70
    48
  3
Center (.5x) ___ _ ___ _ ___ _ ___ _ ___ _ ___
 72
    65
 73
     4
 40
28.575
 49
19.05
 49
-3.175
 49
3.175
 49
-3.175
  0
LTYPE
  2
CENTER2
 70
     0
  3
Center (.5x) ___ _ ___ _ ___ _ ___ _ ___ _ ___
 72
    65
 73
     4
 40
28.575
 49
19.05
 49
-3.175
 49
3.175
 49
-3.175
  0
ENDTAB
  0
TABLE
  2
LAYER
 70
    46
  0
LAYER
  2
0
 70
     0
 62
     7
  6
CONTINUOUS
  0
LAYER
  2
1CENTER
 70
     0
 62
     7
  6
CENTER2
  0
LAYER
  2
1TEXT
 70
     0
 62
     7
  6
CONTINUOUS
  0
LAYER
  2
1DIM
 70
     0
 62
     7
  6
CONTINUOUS
  0
LAYER
  2
1PHANTOM
 70
     0
 62
     7
  6
PHANTOM2
  0
LAYER
  2
01
 70
     0
 62
     1
  6
CONTINUOUS
  0
LAYER
  2
1DIM1
 70
     0
 62
     7
  6
CONTINUOUS
  0
LAYER
  2
A3WAKUDAKE|THICK
 70
    48
 62
     7
  6
CONTINUOUS
  0
LAYER
  2
A3WAKUDAKE|POINT
 70
    48
 62
     7
  6
CONTINUOUS
  0
LAYER
  2
A3WAKUDAKE|1CENTER
 70
    48
 62
     7
  6
A3WAKUDAKE|CENTER2
  0
LAYER
  2
A3WAKUDAKE|0-6
 70
    48
 62
     7
  6
CONTINUOUS
  0
ENDTAB
  0
TABLE
  2
STYLE
 70
    22
  0
STYLE
  2
STANDARD
 70
     0
 40
0.0
 41
1.0
 50
0.0
 71
     0
 42
4.0
  3
txt.shx
  4
extfont.shx
  0
STYLE
  2
A3WAKUDAKE|STANDARD
 70
    48
 40
0.0
 41
1.0
 50
0.0
 71
     0
 42
4.0
  3
romans.shx
  4
extfont.shx
  0
STYLE
  2
XREF1|STANDARD
 70
    48
 40
0.0
 41
1.0
 50
0.0
 71
     0
 42
4.0
  3
romans.shx
  4
extfont.shx
  0
ENDTAB
  0
TABLE
  2
VIEW
 70
     0
  0
ENDTAB
  0
TABLE
  2
UCS
 70
     0
  0
ENDTAB
  0
TABLE
  2
APPID
 70
    15
  0
APPID
  2
ACAD
 70
     0
  0
APPID
  2
DRAWINGVARIABLESXDATA
 70
     0
  0
APPID
  2
CONTENTTABDATA
 70
     0
  0
APPID
  2
CONTENTCURRENTTAB
 70
     0
  0
APPID
  2
CONTENTBLOCKDESCRIPTION
 70
     0
  0
APPID
  2
CONTENTBLOCKICON
 70
     0
  0
APPID
  2
CONTENTLONGBLOCKNAME
 70
     0
  0
APPID
  2
ACAD_PSEXT
 70
     0
  0
APPID
  2
ACAD_DSTYLE_DIMTEXT_FILL
 70
     0
  0
APPID
  2
ACAD_MLEADERVER
 70
     0
  0
APPID
  2
ACAD_DSTYLE_DIMRADIAL_EXTE
 70
     0
  0
APPID
  2
ACAECLAYERSTANDARD
 70
     0
  0
APPID
  2
ACAD_DSTYLE_DIMJAG
 70
     0
  0
APPID
  2
ACAD_DSTYLE_DIMTALN
 70
     0
  0
APPID
  2
ACADANNOTATIVE
 70
     0
  0
ENDTAB
  0
TABLE
  2
DIMSTYLE
 70
     8
  0
DIMSTYLE
  2
NEWX10
 70
     0
  3
 
  4

  5

  6
OPEN30
  7
OPEN30
 40
1.0
 41
2.0
 42
0.0
 43
7.0
 44
1.0
 45
0.0
 46
0.0
 47
0.0
 48
0.0
140
3.5
141
0.0
142
0.0
143
25.4
144
1.0
145
0.0
146
0.7
147
0.7
 71
     0
 72
     0
 73
     0
 74
     0
 75
     0
 76
     0
 77
     1
 78
     8
170
     0
171
     2
172
     1
173
     1
174
     0
175
     0
176
   256
177
   256
178
   201
  0
DIMSTYLE
  2
ISO-25
 70
     0
  3

  4

  5

  6

  7

 40
1.0
 41
2.5
 42
0.625
 43
3.75
 44
1.25
 45
0.0
 46
0.0
 47
0.0
 48
0.0
140
2.5
141
2.5
142
0.0
143
0.03937007874016
144
1.0
145
0.0
146
1.0
147
0.625
 71
     0
 72
     0
 73
     0
 74
     0
 75
     0
 76
     0
 77
     1
 78
     8
170
     0
171
     3
172
     1
173
     0
174
     0
175
     0
176
     0
177
     0
178
     0
  0
ENDTAB
  0
ENDSEC
  0
SECTION
  2
BLOCKS
  0
BLOCK
  8
0
  2
$MODEL_SPACE
 70
     0
 10
0.0
 20
0.0
 30
0.0
  3
$MODEL_SPACE
  1

  0
ENDBLK
  5
1A
  8
0
  0
BLOCK
 67
     1
  8
0
  2
$PAPER_SPACE
 70
     0
 10
0.0
 20
0.0
 30
0.0
  3
$PAPER_SPACE
  1

  0
ENDBLK
  5
17
 67
     1
  8
0
  0
BLOCK
  8
0
  2
_OPEN30
 70
     0
 10
0.0
 20
0.0
 30
0.0
  3
_OPEN30
  1

  0
LINE
  5
44
  8
0
  6
BYBLOCK
 62
     0
 10
-1.0
 20
0.26794919
 30
0.0
 11
0.0
 21
0.0
 31
0.0
  0
LINE
  5
45
  8
0
  6
BYBLOCK
 62
     0
 10
0.0
 20
0.0
 30
0.0
 11
-1.0
 21
-0.26794919
 31
0.0
  0
LINE
  5
46
  8
0
  6
BYBLOCK
 62
     0
 10
0.0
 20
0.0
 30
0.0
 11
-1.0
 21
0.0
 31
0.0
  0
ENDBLK
  5
47
  8
0
  0
BLOCK
  8
0
  2
XREF1
 70
    36
 10
0.0
 20
0.0
 30
0.0
  3
XREF1
  1
D:\ACLT\FORMAT\KAWAJUN(9)図面用.dwg
  0
ENDBLK
  5
5D
  8
0
  0
BLOCK
  8
0
  2
A3WAKUDAKE
 70
   100
 10
0.0
 20
0.0
 30
0.0
  3
A3WAKUDAKE
  1
D:\ACLT\FORMAT\A3WAKUdake.dwg
  0
ENDBLK
  5
6DC
  8
0
  0
ENDSEC
  0
SECTION
  2
ENTITIES
  0
TEXT
  5
1B8D1
  8
1TEXT
 10
376.6731169113525
 20
-1157.91952148638
 30
0.0
 40
8.0
  1
KH-55-X
  0
LINE
  5
1B8D2
  8
1DIM
 10
372.978628714392
 20
-1168.527358960114
 30
0.0
 11
442.9786287143919
 21
-1168.527358960114
 31
0.0
  0
TEXT
  5
1B8D3
  8
1TEXT
 10
373.9119620477254
 20
-1167.027358960114
 30
0.0
 40
4.0
  1
表面処理：脚部
 72
     1
 11
390.3786287143921
 21
-1167.027358960114
 31
0.0
  0
LINE
  5
1B8D4
  8
1DIM
 10
372.978628714392
 20
-1161.527358960114
 30
0.0
 11
442.9786287143919
 21
-1161.527358960114
 31
0.0
  0
TEXT
  5
1B8D5
  8
1TEXT
 10
418.5119620477254
 20
-1167.027358960114
 30
0.0
 40
4.0
  1
コード
 72
     1
 11
425.3786287143921
 21
-1167.027358960114
 31
0.0
  0
LINE
  5
1B8D7
  8
1DIM
 10
372.9786287143917
 20
-1175.527358960114
 30
0.0
 11
442.9786287143919
 21
-1175.527358960114
 31
0.0
  0
LINE
  5
1B8D9
  8
1DIM
 10
407.978628714392
 20
-1161.527358960114
 30
0.0
 11
407.9786287143915
 21
-1182.13832571129
 31
0.0
  0
LINE
  5
1B8DA
  8
1DIM
 10
442.978628714392
 20
-1161.527358960114
 30
0.0
 11
442.978628714392
 21
-1182.527358960114
 31
0.0
  0
LINE
  5
1B8DC
  8
1DIM
 10
372.978628714392
 20
-1161.527358960114
 30
0.0
 11
372.9786287143917
 21
-1182.527358960114
 31
0.0
  0
LINE
  5
1B8E1
  8
1DIM
 10
372.9786287143917
 20
-1182.527358960114
 30
0.0
 11
442.9786287143919
 21
-1182.527358960114
 31
0.0
  0
TEXT
  5
1B8E4
  8
1TEXT
 10
413.0897398255041
 20
-1181.241715943764
 30
0.0
 40
4.0
  1
KH-55-XT
 41
0.8
 72
     1
 11
425.378628714393
 21
-1181.241715943764
 31
0.0
  0
TEXT
  5
1BAC9
  8
1TEXT
 10
413.0897398255041
 20
-1174.241715943763
 30
0.0
 40
4.0
  1
KH-55-XP
 41
0.8
 72
     1
 11
425.378628714393
 21
-1174.241715943763
 31
0.0
  0
TEXT
  5
1BB69
  8
1TEXT
 10
386.0452953810588
 20
-1174.027358960114
 30
0.0
 40
4.0
  1
鏡面
 72
     1
 11
390.3786287143922
 21
-1174.027358960114
 31
0.0
  0
TEXT
  5
1BB6A
  8
1TEXT
 10
378.8452953810588
 20
-1181.027358960114
 30
0.0
 40
4.0
  1
ヘアライン
 72
     1
 11
390.3786287143922
 21
-1181.027358960114
 31
0.0
  0
LINE
  5
1C534
  8
01
 10
-113.4767977782459
 20
-1275.87020791795
 30
0.0
 11
230.5227651572475
 21
-1275.870207917951
 31
0.0
  0
LINE
  5
1C535
  8
01
 10
-113.4767977782459
 20
-1250.870207917952
 30
0.0
 11
230.5227651572475
 21
-1250.870207917951
 31
0.0
  0
LINE
  5
1C536
  8
01
 10
230.5227651572512
 20
-1153.070207917937
 30
0.0
 11
230.5227651572503
 21
-1178.070207917937
 31
0.0
  0
LINE
  5
1C53C
  8
01
 10
-113.476797778246
 20
-1275.870207917951
 30
0.0
 11
-113.476797778246
 21
-1250.870207917951
 31
0.0
  0
LINE
  5
1C53F
  8
01
 10
230.5227651572512
 20
-1153.070207917916
 30
0.0
 11
-113.4767977782495
 21
-1153.070207917937
 31
0.0
  0
LINE
  5
1C540
  8
01
 10
230.5227651572503
 20
-1178.070207917918
 30
0.0
 11
-113.4767977782477
 21
-1178.070207917937
 31
0.0
  0
LINE
  5
1C590
  8
01
 10
263.8672091936741
 20
-1178.370207917935
 30
0.0
 11
230.5227651572512
 21
-1178.370207917935
 31
0.0
  0
LINE
  5
1C591
  8
01
 10
242.4226854125881
 20
-1152.770207917935
 30
0.0
 11
230.5227651572521
 21
-1152.770207917936
 31
0.0
  0
LINE
  5
1C592
  8
01
 10
303.3808403023621
 20
-1120.577132361962
 30
0.0
 11
264.6962467662278
 21
-1177.929400821405
 31
0.0
  0
LINE
  5
1C593
  8
01
 10
263.3227651572505
 20
-1117.570207917937
 30
0.0
 11
263.3227651572514
 21
-1115.570207917936
 31
0.0
  0
LINE
  5
1C594
  8
01
 10
303.722765157252
 20
-1119.45874655502
 30
0.0
 11
303.722765157252
 21
-1115.570207917936
 31
0.0
  0
LINE
  5
1C595
  8
01
 10
230.5227651572521
 20
-1152.770207917936
 30
0.0
 11
230.5227651572512
 21
-1178.370207917935
 31
0.0
  0
LINE
  5
1C596
  8
01
 10
303.722765157252
 20
-1115.570207917936
 30
0.0
 11
303.722765157252
 21
-1119.45874655502
 31
0.0
  0
LINE
  5
1C598
  8
01
 10
263.3227651572514
 20
-1115.570207917936
 30
0.0
 11
303.722765157252
 21
-1115.570207917936
 31
0.0
  0
ARC
  5
1C599
  8
01
 10
263.8672091936741
 20
-1177.370207917935
 30
0.0
 40
1.0
 50
270.0
 51
326.0000000000415
  0
ARC
  5
1C59A
  8
01
 10
301.722765157252
 20
-1119.45874655502
 30
0.0
 40
2.0
 50
326.0000000000415
 51
0.0
  0
LINE
  5
1C59D
  8
01
 10
263.3227651572505
 20
-1117.570207917937
 30
0.0
 11
235.6099522361473
 21
-1165.570207917941
 31
0.0
  0
ARC
  5
1C59E
  8
01
 10
242.4226854125881
 20
-1151.770207917935
 30
0.0
 40
1.0
 50
270.0
 51
329.9999999999698
  0
LINE
  5
1C5A0
  8
01
 10
-146.8212418146715
 20
-1178.370207917935
 30
0.0
 11
-113.4767977782486
 21
-1178.370207917935
 31
0.0
  0
LINE
  5
1C5A1
  8
01
 10
-125.3767180335855
 20
-1152.770207917935
 30
0.0
 11
-113.4767977782495
 21
-1152.770207917936
 31
0.0
  0
LINE
  5
1C5A2
  8
01
 10
-186.3348729233595
 20
-1120.577132361962
 30
0.0
 11
-147.6502793872252
 21
-1177.929400821405
 31
0.0
  0
LINE
  5
1C5A3
  8
01
 10
-146.2767977782479
 20
-1117.570207917937
 30
0.0
 11
-146.2767977782488
 21
-1115.570207917936
 31
0.0
  0
LINE
  5
1C5A4
  8
01
 10
-186.6767977782494
 20
-1119.45874655502
 30
0.0
 11
-186.6767977782494
 21
-1115.570207917936
 31
0.0
  0
LINE
  5
1C5A5
  8
01
 10
-113.4767977782495
 20
-1152.770207917936
 30
0.0
 11
-113.4767977782486
 21
-1178.370207917935
 31
0.0
  0
LINE
  5
1C5A6
  8
01
 10
-186.6767977782494
 20
-1115.570207917936
 30
0.0
 11
-186.6767977782494
 21
-1119.45874655502
 31
0.0
  0
LINE
  5
1C5A8
  8
01
 10
-146.2767977782488
 20
-1115.570207917936
 30
0.0
 11
-186.6767977782494
 21
-1115.570207917936
 31
0.0
  0
ARC
  5
1C5A9
  8
01
 10
-146.8212418146715
 20
-1177.370207917935
 30
0.0
 40
1.0
 50
213.9999999999585
 51
270.0
  0
ARC
  5
1C5AA
  8
01
 10
-184.6767977782494
 20
-1119.45874655502
 30
0.0
 40
2.0
 50
180.0
 51
213.9999999999585
  0
LINE
  5
1C5AE
  8
01
 10
-146.2767977782479
 20
-1117.570207917937
 30
0.0
 11
-118.5639848571446
 21
-1165.570207917941
 31
0.0
  0
ARC
  5
1C5AF
  8
01
 10
-125.3767180335855
 20
-1151.770207917935
 30
0.0
 40
1.0
 50
210.0000000000301
 51
270.0
  0
LINE
  5
1C5B0
  8
01
 10
302.7227651572474
 20
-1278.570207917928
 30
0.0
 11
263.3227651572477
 21
-1278.570207917928
 31
0.0
  0
LINE
  5
1C5B1
  8
01
 10
302.7227651572474
 20
-1248.170207917929
 30
0.0
 11
263.3227651572468
 21
-1248.170207917928
 31
0.0
  0
ARC
  5
1C5B2
  8
01
 10
302.7227651572474
 20
-1249.170207917929
 30
0.0
 40
1.0
 50
0.0
 51
90.0
  0
LINE
  5
1C5B3
  8
01
 10
303.7227651572474
 20
-1249.170207917929
 30
0.0
 11
303.7227651572474
 21
-1277.570207917928
 31
0.0
  0
ARC
  5
1C5B4
  8
01
 10
302.7227651572474
 20
-1277.570207917928
 30
0.0
 40
1.0
 50
270.0
 51
0.0
  0
LINE
  5
1C5B5
  8
01
 10
230.5227651572475
 20
-1276.170207917934
 30
0.0
 11
230.5227651572466
 21
-1250.570207917935
 31
0.0
  0
LINE
  5
1C5B6
  8
01
 10
230.5227651572466
 20
-1250.570207917935
 30
0.0
 11
235.9836069914862
 21
-1250.570207917935
 31
0.0
  0
LINE
  5
1C5B7
  8
01
 10
230.5227651572466
 20
-1276.170207917921
 30
0.0
 11
235.9836069914862
 21
-1276.170207917921
 31
0.0
  0
LINE
  5
1C5B8
  8
01
 10
263.3227651572468
 20
-1248.170207917928
 30
0.0
 11
235.9836069914871
 21
-1250.570207917935
 31
0.0
  0
LINE
  5
1C5B9
  8
01
 10
235.9836069914871
 20
-1276.170207917921
 30
0.0
 11
263.3227651572477
 21
-1278.570207917928
 31
0.0
  0
POLYLINE
  5
1C5BA
  8
01
 66
     1
 10
0.0
 20
0.0
 30
0.0
  0
VERTEX
  5
1EAFA
  8
01
 10
273.0326276409094
 20
-1250.570207917935
 30
0.0
  0
VERTEX
  5
1EAFB
  8
01
 10
271.3482745688665
 20
-1250.816156328774
 30
0.0
  0
VERTEX
  5
1EAFC
  8
01
 10
269.7286502407861
 20
-1251.54454990179
 30
0.0
  0
VERTEX
  5
1EAFD
  8
01
 10
268.2359959113006
 20
-1252.727396880462
 30
0.0
  0
VERTEX
  5
1EAFE
  8
01
 10
266.9276734492018
 20
-1254.319241118745
 30
0.0
  0
VERTEX
  5
1EAFF
  8
01
 10
265.8539609529927
 20
-1256.258908935281
 30
0.0
  0
VERTEX
  5
1EB00
  8
01
 10
265.0561205917575
 20
-1258.471859983658
 30
0.0
  0
VERTEX
  5
1EB01
  8
01
 10
264.5648129231445
 20
-1260.873051796123
 30
0.0
  0
VERTEX
  5
1EB02
  8
01
 10
264.3989186253301
 20
-1263.370207917928
 30
0.0
  0
VERTEX
  5
1EB03
  8
01
 10
264.5648129231445
 20
-1265.867364039734
 30
0.0
  0
VERTEX
  5
1EB04
  8
01
 10
265.0561205917575
 20
-1268.268555852199
 30
0.0
  0
VERTEX
  5
1EB05
  8
01
 10
265.8539609529927
 20
-1270.481506900575
 30
0.0
  0
VERTEX
  5
1EB06
  8
01
 10
266.9276734492018
 20
-1272.421174717111
 30
0.0
  0
VERTEX
  5
1EB07
  8
01
 10
268.2359959113006
 20
-1274.013018955395
 30
0.0
  0
VERTEX
  5
1EB08
  8
01
 10
269.7286502407861
 20
-1275.195865934066
 30
0.0
  0
VERTEX
  5
1EB09
  8
01
 10
271.3482745688665
 20
-1275.924259507083
 30
0.0
  0
VERTEX
  5
1EB0A
  8
01
 10
273.0326276409094
 20
-1276.170207917922
 30
0.0
  0
SEQEND
  5
1EB1C
  8
01
  0
LINE
  5
1C5BB
  8
01
 10
303.0441908649189
 20
-1248.223273118458
 30
0.0
 11
273.0326276409094
 21
-1250.570207917935
 31
0.0
  0
LINE
  5
1C5BC
  8
01
 10
303.0441908649198
 20
-1278.517142717398
 30
0.0
 11
273.0326276409094
 21
-1276.170207917922
 31
0.0
  0
LINE
  5
1C5BD
  8
01
 10
-185.6767977782449
 20
-1278.570207917928
 30
0.0
 11
-146.2767977782452
 21
-1278.570207917928
 31
0.0
  0
LINE
  5
1C5BE
  8
01
 10
-185.6767977782449
 20
-1248.170207917929
 30
0.0
 11
-146.2767977782443
 21
-1248.170207917928
 31
0.0
  0
ARC
  5
1C5BF
  8
01
 10
-185.6767977782449
 20
-1249.170207917929
 30
0.0
 40
1.0
 50
90.0
 51
180.0
  0
LINE
  5
1C5C0
  8
01
 10
-186.6767977782449
 20
-1249.170207917929
 30
0.0
 11
-186.6767977782449
 21
-1277.570207917928
 31
0.0
  0
ARC
  5
1C5C1
  8
01
 10
-185.6767977782449
 20
-1277.570207917928
 30
0.0
 40
1.0
 50
180.0
 51
270.0
  0
LINE
  5
1C5C2
  8
01
 10
-113.4767977782441
 20
-1250.570207917935
 30
0.0
 11
-118.9376396124837
 21
-1250.570207917935
 31
0.0
  0
LINE
  5
1C5C3
  8
01
 10
-113.4767977782441
 20
-1276.170207917921
 30
0.0
 11
-118.9376396124837
 21
-1276.170207917921
 31
0.0
  0
LINE
  5
1C5C4
  8
01
 10
-146.2767977782443
 20
-1248.170207917928
 30
0.0
 11
-118.9376396124846
 21
-1250.570207917935
 31
0.0
  0
LINE
  5
1C5C5
  8
01
 10
-118.9376396124846
 20
-1276.170207917921
 30
0.0
 11
-146.2767977782452
 21
-1278.570207917928
 31
0.0
  0
POLYLINE
  5
1C5C6
  8
01
 66
     1
 10
0.0
 20
0.0
 30
0.0
  0
VERTEX
  5
1EB0B
  8
01
 10
-155.9866602619069
 20
-1250.570207917935
 30
0.0
  0
VERTEX
  5
1EB0C
  8
01
 10
-154.302307189864
 20
-1250.816156328774
 30
0.0
  0
VERTEX
  5
1EB0D
  8
01
 10
-152.6826828617836
 20
-1251.54454990179
 30
0.0
  0
VERTEX
  5
1EB0E
  8
01
 10
-151.1900285322981
 20
-1252.727396880462
 30
0.0
  0
VERTEX
  5
1EB0F
  8
01
 10
-149.8817060701993
 20
-1254.319241118745
 30
0.0
  0
VERTEX
  5
1EB10
  8
01
 10
-148.8079935739902
 20
-1256.258908935281
 30
0.0
  0
VERTEX
  5
1EB11
  8
01
 10
-148.010153212755
 20
-1258.471859983658
 30
0.0
  0
VERTEX
  5
1EB12
  8
01
 10
-147.518845544142
 20
-1260.873051796123
 30
0.0
  0
VERTEX
  5
1EB13
  8
01
 10
-147.3529512463276
 20
-1263.370207917928
 30
0.0
  0
VERTEX
  5
1EB14
  8
01
 10
-147.518845544142
 20
-1265.867364039734
 30
0.0
  0
VERTEX
  5
1EB15
  8
01
 10
-148.010153212755
 20
-1268.268555852199
 30
0.0
  0
VERTEX
  5
1EB16
  8
01
 10
-148.8079935739902
 20
-1270.481506900575
 30
0.0
  0
VERTEX
  5
1EB17
  8
01
 10
-149.8817060701993
 20
-1272.421174717111
 30
0.0
  0
VERTEX
  5
1EB18
  8
01
 10
-151.1900285322981
 20
-1274.013018955395
 30
0.0
  0
VERTEX
  5
1EB19
  8
01
 10
-152.6826828617836
 20
-1275.195865934066
 30
0.0
  0
VERTEX
  5
1EB1A
  8
01
 10
-154.302307189864
 20
-1275.924259507083
 30
0.0
  0
VERTEX
  5
1EB1B
  8
01
 10
-155.9866602619069
 20
-1276.170207917922
 30
0.0
  0
SEQEND
  5
1EB1D
  8
01
  0
LINE
  5
1C5C7
  8
01
 10
-185.9982234859164
 20
-1248.223273118458
 30
0.0
 11
-155.9866602619069
 21
-1250.570207917935
 31
0.0
  0
LINE
  5
1C5C8
  8
01
 10
-185.9982234859173
 20
-1278.517142717398
 30
0.0
 11
-155.9866602619069
 21
-1276.170207917922
 31
0.0
  0
LINE
  5
1C5D1
  8
1CENTER
  6
BYBLOCK
 10
293.5227652238707
 20
-1267.83412604493
 30
0.0
 11
293.5227652238698
 21
-1258.906289790939
 31
0.0
  0
LINE
  5
1C5D4
  8
1CENTER
 10
283.5227652238716
 20
-1271.446812121696
 30
0.0
 11
283.5227652238707
 21
-1255.293603714173
 31
0.0
  0
CIRCLE
  5
1C5DE
  8
01
 10
-166.476797778255
 20
-1131.070207917935
 30
0.0
 40
4.0
  0
LINE
  5
1C5DF
  8
01
 10
-169.4813429900124
 20
-1131.570207917935
 30
0.0
 11
-166.976797778255
 21
-1131.570207917935
 31
0.0
  0
LINE
  5
1C5E0
  8
01
 10
-165.9767977782541
 20
-1131.570207917935
 30
0.0
 11
-163.4722525664994
 21
-1131.570207917935
 31
0.0
  0
LINE
  5
1C5E1
  8
01
 10
-169.4813429900124
 20
-1130.570207917935
 30
0.0
 11
-166.976797778255
 21
-1130.570207917935
 31
0.0
  0
LINE
  5
1C5E2
  8
01
 10
-165.976797778255
 20
-1130.570207917935
 30
0.0
 11
-163.4722525664994
 21
-1130.570207917935
 31
0.0
  0
LINE
  5
1C5E3
  8
01
 10
-165.976797778255
 20
-1134.074753129687
 30
0.0
 11
-165.976797778255
 21
-1131.570207917935
 31
0.0
  0
LINE
  5
1C5E4
  8
01
 10
-165.976797778255
 20
-1130.570207917935
 30
0.0
 11
-165.976797778255
 21
-1128.065662706174
 31
0.0
  0
LINE
  5
1C5E5
  8
01
 10
-166.976797778255
 20
-1134.074753129687
 30
0.0
 11
-166.9767977782559
 21
-1131.570207917935
 31
0.0
  0
LINE
  5
1C5E6
  8
01
 10
-166.9767977782559
 20
-1130.570207917935
 30
0.0
 11
-166.976797778255
 21
-1128.065662706174
 31
0.0
  0
LINE
  5
1C5E7
  8
01
 10
-163.4722525664994
 20
-1131.570207917935
 30
0.0
 11
-163.4722525664994
 21
-1130.570207917935
 31
0.0
  0
LINE
  5
1C5E8
  8
01
 10
-169.4813429900124
 20
-1130.570207917935
 30
0.0
 11
-169.4813429900115
 21
-1131.570207917935
 31
0.0
  0
LINE
  5
1C5E9
  8
01
 10
-165.976797778255
 20
-1134.074753129687
 30
0.0
 11
-166.976797778255
 21
-1134.074753129687
 31
0.0
  0
LINE
  5
1C5EA
  8
01
 10
-166.976797778255
 20
-1128.065662706174
 30
0.0
 11
-165.976797778255
 21
-1128.065662706174
 31
0.0
  0
CIRCLE
  5
1C5EB
  8
01
 10
283.5227651572585
 20
-1131.070207917935
 30
0.0
 40
4.0
  0
LINE
  5
1C5EC
  8
01
 10
280.5182199455011
 20
-1131.570207917935
 30
0.0
 11
283.0227651572585
 21
-1131.570207917935
 31
0.0
  0
LINE
  5
1C5ED
  8
01
 10
284.0227651572594
 20
-1131.570207917935
 30
0.0
 11
286.5273103690141
 21
-1131.570207917935
 31
0.0
  0
LINE
  5
1C5EE
  8
01
 10
280.5182199455011
 20
-1130.570207917935
 30
0.0
 11
283.0227651572585
 21
-1130.570207917935
 31
0.0
  0
LINE
  5
1C5EF
  8
01
 10
284.0227651572585
 20
-1130.570207917935
 30
0.0
 11
286.5273103690141
 21
-1130.570207917935
 31
0.0
  0
LINE
  5
1C5F0
  8
01
 10
284.0227651572585
 20
-1134.074753129687
 30
0.0
 11
284.0227651572585
 21
-1131.570207917935
 31
0.0
  0
LINE
  5
1C5F1
  8
01
 10
284.0227651572585
 20
-1130.570207917935
 30
0.0
 11
284.0227651572585
 21
-1128.065662706174
 31
0.0
  0
LINE
  5
1C5F2
  8
01
 10
283.0227651572585
 20
-1134.074753129687
 30
0.0
 11
283.0227651572576
 21
-1131.570207917935
 31
0.0
  0
LINE
  5
1C5F3
  8
01
 10
283.0227651572576
 20
-1130.570207917935
 30
0.0
 11
283.0227651572585
 21
-1128.065662706174
 31
0.0
  0
LINE
  5
1C5F4
  8
01
 10
286.5273103690141
 20
-1131.570207917935
 30
0.0
 11
286.5273103690141
 21
-1130.570207917935
 31
0.0
  0
LINE
  5
1C5F5
  8
01
 10
280.5182199455011
 20
-1130.570207917935
 30
0.0
 11
280.518219945502
 21
-1131.570207917935
 31
0.0
  0
LINE
  5
1C5F6
  8
01
 10
284.0227651572585
 20
-1134.074753129687
 30
0.0
 11
283.0227651572585
 21
-1134.074753129687
 31
0.0
  0
LINE
  5
1C5F7
  8
01
 10
283.0227651572585
 20
-1128.065662706174
 30
0.0
 11
284.0227651572585
 21
-1128.065662706174
 31
0.0
  0
LINE
  5
1C5F8
  8
1PHANTOM
 10
267.0223281593779
 20
-1250.840207896384
 30
0.0
 11
300.0227652238707
 21
-1250.840207896384
 31
0.0
  0
ARC
  5
1C5F9
  8
1PHANTOM
 10
267.0223281593779
 20
-1251.840207896384
 30
0.0
 40
1.0
 50
90.0
 51
179.9999999999739
  0
LINE
  5
1C5FA
  8
1PHANTOM
 10
267.0223281593779
 20
-1275.840207901937
 30
0.0
 11
300.0227652238707
 21
-1275.840207901933
 31
0.0
  0
ARC
  5
1C5FB
  8
1PHANTOM
 10
267.0223281593779
 20
-1274.840207901937
 30
0.0
 40
1.0
 50
180.0
 51
270.0
  0
LINE
  5
1C5FC
  8
1PHANTOM
 10
266.0223281593761
 20
-1274.870207917932
 30
0.0
 11
266.0223281593779
 21
-1251.87020791793
 31
0.0
  0
LINE
  5
1C5FD
  8
1PHANTOM
 10
301.0227652238707
 20
-1274.870207917928
 30
0.0
 11
301.0227652238707
 21
-1251.840207896384
 31
0.0
  0
ARC
  5
1C5FE
  8
1PHANTOM
 10
300.0227652238707
 20
-1274.840207901933
 30
0.0
 40
1.0
 50
270.0
 51
0.0
  0
ARC
  5
1C5FF
  8
1PHANTOM
 10
300.0227652238707
 20
-1251.840207896384
 30
0.0
 40
1.0
 50
0.0
 51
90.0
  0
LINE
  5
1CB02
  8
1PHANTOM
 10
268.0358585616067
 20
-1145.570210859023
 30
0.0
 11
282.2271870581206
 21
-1145.570210859023
 31
0.0
  0
ARC
  5
1CB03
  8
1PHANTOM
 10
268.0358585616067
 20
-1144.570210859023
 30
0.0
 40
1.0
 50
181.9999999999515
 51
270.0
  0
LINE
  5
1CB04
  8
1PHANTOM
 10
300.970618257178
 20
-1118.570222997272
 30
0.0
 11
301.0229837151745
 21
-1115.570207917937
 31
0.0
  0
LINE
  5
1CB05
  8
1PHANTOM
 10
267.0364677345877
 20
-1144.605110355725
 30
0.0
 11
266.0225465993434
 21
-1115.570207917935
 31
0.0
  0
LINE
  5
1CB06
  8
1PHANTOM
 10
300.970618257178
 20
-1118.570222997272
 30
0.0
 11
283.0562246306753
 21
-1145.129403762493
 31
0.0
  0
ARC
  5
1CB07
  8
1PHANTOM
 10
282.2271870581206
 20
-1144.570210859023
 30
0.0
 40
1.0
 50
270.0
 51
325.9999999999866
  0
LINE
  5
1CBA3
  8
1PHANTOM
 10
300.970618257178
 20
-1118.570222997272
 30
0.0
 11
301.0229837151745
 21
-1115.570207917937
 31
0.0
  0
LINE
  5
1CC08
  8
1CENTER
 10
273.522765223814
 20
-1124.409434060614
 30
0.0
 11
273.522765223814
 21
-1068.621597384381
 31
0.0
  0
LINE
  5
1CC0C
  8
1PHANTOM
 10
276.0227652238717
 20
-1094.25234253189
 30
0.0
 11
271.0227652238717
 21
-1093.25234253189
 31
0.0
  0
LINE
  5
1CC0E
  8
1PHANTOM
 10
275.2727652238717
 20
-1076.901297031182
 30
0.0
 11
275.2727652238717
 21
-1119.070207917936
 31
0.0
  0
LINE
  5
1CC0F
  8
1PHANTOM
 10
273.5227652238717
 20
-1070.370208117936
 30
0.0
 11
275.2727652238717
 21
-1076.901297031182
 31
0.0
  0
LINE
  5
1CC10
  8
1PHANTOM
 10
275.2727652238717
 20
-1120.370208117936
 30
0.0
 11
278.0227652238717
 21
-1120.370208117936
 31
0.0
  0
LINE
  5
1CC11
  8
1PHANTOM
 10
273.5227652238717
 20
-1070.370208117936
 30
0.0
 11
271.7727652238717
 21
-1076.901297031182
 31
0.0
  0
LINE
  5
1CC12
  8
1PHANTOM
 10
278.0227652238717
 20
-1120.370208117936
 30
0.0
 11
278.0227652238717
 21
-1121.170208117936
 31
0.0
  0
LINE
  5
1CC13
  8
1PHANTOM
 10
271.7727652238717
 20
-1076.901297031182
 30
0.0
 11
271.7727652238717
 21
-1119.102342531891
 31
0.0
  0
ARC
  5
1CC14
  8
1PHANTOM
 10
275.5227652238717
 20
-1121.170208117936
 30
0.0
 40
2.5
 50
270.0
 51
0.0
  0
LINE
  5
1CC15
  8
1PHANTOM
 10
269.0227652238717
 20
-1120.370208117936
 30
0.0
 11
271.7727652238717
 21
-1120.370208117936
 31
0.0
  0
LINE
  5
1CC16
  8
1PHANTOM
 10
271.5227652238717
 20
-1123.670208117936
 30
0.0
 11
275.5227652238717
 21
-1123.670208117936
 31
0.0
  0
LINE
  5
1CC17
  8
1PHANTOM
 10
269.0227652238717
 20
-1120.370208117936
 30
0.0
 11
269.0227652238717
 21
-1121.170208117936
 31
0.0
  0
ARC
  5
1CC18
  8
1PHANTOM
 10
271.5227652238717
 20
-1121.170208117936
 30
0.0
 40
2.5
 50
180.0
 51
270.0
  0
LINE
  5
1CC19
  8
1PHANTOM
 10
275.8390321649075
 20
-1076.215595920098
 30
0.0
 11
275.0890321649075
 21
-1076.365595920098
 31
0.0
  0
LINE
  5
1CC1A
  8
1PHANTOM
 10
275.8390321649075
 20
-1076.215595920098
 30
0.0
 11
271.4421276838169
 21
-1075.33621502388
 31
0.0
  0
LINE
  5
1CC1B
  8
1PHANTOM
 10
274.7065456243889
 20
-1071.989098611994
 30
0.0
 11
273.9565456243889
 21
-1072.139098611994
 31
0.0
  0
LINE
  5
1CC1C
  8
1PHANTOM
 10
273.209408536928
 20
-1071.389671194502
 30
0.0
 11
272.459408536928
 21
-1071.539671194502
 31
0.0
  0
LINE
  5
1CC1D
  8
1PHANTOM
 10
274.7065456243889
 20
-1071.989098611994
 30
0.0
 11
272.459408536928
 21
-1071.539671194502
 31
0.0
  0
LINE
  5
1CC1E
  8
1PHANTOM
 10
275.2727888946482
 20
-1074.102347266046
 30
0.0
 11
274.5227888946482
 21
-1074.252347266046
 31
0.0
  0
LINE
  5
1CC1F
  8
1PHANTOM
 10
272.7007681103727
 20
-1073.287943109191
 30
0.0
 11
271.9507681103727
 21
-1073.437943109191
 31
0.0
  0
LINE
  5
1CC20
  8
1PHANTOM
 10
272.1921276838169
 20
-1075.186215023879
 30
0.0
 11
271.4421276838169
 21
-1075.33621502388
 31
0.0
  0
LINE
  5
1CC21
  8
1PHANTOM
 10
275.2727888946482
 20
-1074.102347266046
 30
0.0
 11
271.9507681103727
 21
-1073.437943109191
 31
0.0
  0
LINE
  5
1CC22
  8
1PHANTOM
 10
276.0227652238717
 20
-1090.25234253189
 30
0.0
 11
275.2727652238717
 21
-1090.402342531891
 31
0.0
  0
LINE
  5
1CC23
  8
1PHANTOM
 10
276.0227652238717
 20
-1092.25234253189
 30
0.0
 11
275.2727652238717
 21
-1092.402342531891
 31
0.0
  0
LINE
  5
1CC24
  8
1PHANTOM
 10
276.0227652238717
 20
-1086.25234253189
 30
0.0
 11
275.2727652238717
 21
-1086.402342531891
 31
0.0
  0
LINE
  5
1CC25
  8
1PHANTOM
 10
276.0227652238717
 20
-1088.25234253189
 30
0.0
 11
275.2727652238717
 21
-1088.402342531891
 31
0.0
  0
LINE
  5
1CC26
  8
1PHANTOM
 10
276.0227652238717
 20
-1084.25234253189
 30
0.0
 11
275.2727652238717
 21
-1084.402342531891
 31
0.0
  0
LINE
  5
1CC27
  8
1PHANTOM
 10
276.0227652238717
 20
-1082.25234253189
 30
0.0
 11
275.2727652238717
 21
-1082.402342531891
 31
0.0
  0
LINE
  5
1CC28
  8
1PHANTOM
 10
276.0227652238717
 20
-1092.25234253189
 30
0.0
 11
271.0227652238717
 21
-1091.25234253189
 31
0.0
  0
LINE
  5
1CC29
  8
1PHANTOM
 10
276.0227652238717
 20
-1090.25234253189
 30
0.0
 11
271.0227652238717
 21
-1089.25234253189
 31
0.0
  0
LINE
  5
1CC2A
  8
1PHANTOM
 10
276.0227652238717
 20
-1088.25234253189
 30
0.0
 11
271.0227652238717
 21
-1087.25234253189
 31
0.0
  0
LINE
  5
1CC2B
  8
1PHANTOM
 10
276.0227652238717
 20
-1086.25234253189
 30
0.0
 11
271.0227652238717
 21
-1085.25234253189
 31
0.0
  0
LINE
  5
1CC2C
  8
1PHANTOM
 10
276.0227652238717
 20
-1084.25234253189
 30
0.0
 11
271.0227652238717
 21
-1083.25234253189
 31
0.0
  0
LINE
  5
1CC2D
  8
1PHANTOM
 10
276.0227652238717
 20
-1078.25234253189
 30
0.0
 11
275.2727652238717
 21
-1078.402342531891
 31
0.0
  0
LINE
  5
1CC2E
  8
1PHANTOM
 10
276.0227652238717
 20
-1080.25234253189
 30
0.0
 11
275.2727652238717
 21
-1080.402342531891
 31
0.0
  0
LINE
  5
1CC2F
  8
1PHANTOM
 10
276.0227652238717
 20
-1080.25234253189
 30
0.0
 11
271.0227652238717
 21
-1079.25234253189
 31
0.0
  0
LINE
  5
1CC30
  8
1PHANTOM
 10
276.0227652238717
 20
-1078.25234253189
 30
0.0
 11
271.0227652238717
 21
-1077.25234253189
 31
0.0
  0
LINE
  5
1CC31
  8
1PHANTOM
 10
276.0227652238717
 20
-1082.25234253189
 30
0.0
 11
271.0227652238717
 21
-1081.25234253189
 31
0.0
  0
LINE
  5
1CC32
  8
1PHANTOM
 10
271.7727652238717
 20
-1085.10234253189
 30
0.0
 11
271.0227652238717
 21
-1085.25234253189
 31
0.0
  0
LINE
  5
1CC33
  8
1PHANTOM
 10
271.7727652238717
 20
-1079.10234253189
 30
0.0
 11
271.0227652238717
 21
-1079.25234253189
 31
0.0
  0
LINE
  5
1CC34
  8
1PHANTOM
 10
271.7727652238717
 20
-1077.10234253189
 30
0.0
 11
271.0227652238717
 21
-1077.25234253189
 31
0.0
  0
LINE
  5
1CC35
  8
1PHANTOM
 10
271.7727652238717
 20
-1083.10234253189
 30
0.0
 11
271.0227652238717
 21
-1083.25234253189
 31
0.0
  0
LINE
  5
1CC36
  8
1PHANTOM
 10
271.7727652238717
 20
-1081.10234253189
 30
0.0
 11
271.0227652238717
 21
-1081.25234253189
 31
0.0
  0
LINE
  5
1CC37
  8
1PHANTOM
 10
271.7727652238717
 20
-1089.10234253189
 30
0.0
 11
271.0227652238717
 21
-1089.25234253189
 31
0.0
  0
LINE
  5
1CC38
  8
1PHANTOM
 10
271.7727652238717
 20
-1087.10234253189
 30
0.0
 11
271.0227652238717
 21
-1087.25234253189
 31
0.0
  0
LINE
  5
1CC39
  8
1PHANTOM
 10
271.7727652238717
 20
-1091.10234253189
 30
0.0
 11
271.0227652238717
 21
-1091.25234253189
 31
0.0
  0
LINE
  5
1CC3A
  8
1PHANTOM
 10
271.7727652238717
 20
-1093.10234253189
 30
0.0
 11
271.0227652238717
 21
-1093.25234253189
 31
0.0
  0
LINE
  5
1CC3B
  8
1PHANTOM
 10
276.0227652238717
 20
-1110.25234253189
 30
0.0
 11
271.0227652238717
 21
-1109.25234253189
 31
0.0
  0
LINE
  5
1CC3C
  8
1PHANTOM
 10
276.0227652238717
 20
-1098.25234253189
 30
0.0
 11
275.2727652238717
 21
-1098.402342531891
 31
0.0
  0
LINE
  5
1CC3D
  8
1PHANTOM
 10
276.0227652238717
 20
-1096.25234253189
 30
0.0
 11
275.2727652238717
 21
-1096.402342531891
 31
0.0
  0
LINE
  5
1CC3E
  8
1PHANTOM
 10
276.0227652238717
 20
-1094.25234253189
 30
0.0
 11
275.2727652238717
 21
-1094.402342531891
 31
0.0
  0
LINE
  5
1CC3F
  8
1PHANTOM
 10
276.0227652238717
 20
-1100.25234253189
 30
0.0
 11
275.2727652238717
 21
-1100.402342531891
 31
0.0
  0
LINE
  5
1CC40
  8
1PHANTOM
 10
276.0227652238717
 20
-1102.25234253189
 30
0.0
 11
275.2727652238717
 21
-1102.402342531891
 31
0.0
  0
LINE
  5
1CC41
  8
1PHANTOM
 10
276.0227652238717
 20
-1106.25234253189
 30
0.0
 11
275.2727652238717
 21
-1106.402342531891
 31
0.0
  0
LINE
  5
1CC42
  8
1PHANTOM
 10
276.0227652238717
 20
-1104.25234253189
 30
0.0
 11
275.2727652238717
 21
-1104.402342531891
 31
0.0
  0
LINE
  5
1CC43
  8
1PHANTOM
 10
276.0227652238717
 20
-1108.25234253189
 30
0.0
 11
275.2727652238717
 21
-1108.402342531891
 31
0.0
  0
LINE
  5
1CC44
  8
1PHANTOM
 10
276.0227652238717
 20
-1098.25234253189
 30
0.0
 11
271.0227652238717
 21
-1097.25234253189
 31
0.0
  0
LINE
  5
1CC45
  8
1PHANTOM
 10
276.0227652238717
 20
-1096.25234253189
 30
0.0
 11
271.0227652238717
 21
-1095.25234253189
 31
0.0
  0
LINE
  5
1CC46
  8
1PHANTOM
 10
276.0227652238717
 20
-1100.25234253189
 30
0.0
 11
271.0227652238717
 21
-1099.25234253189
 31
0.0
  0
LINE
  5
1CC47
  8
1PHANTOM
 10
276.0227652238717
 20
-1102.25234253189
 30
0.0
 11
271.0227652238717
 21
-1101.25234253189
 31
0.0
  0
LINE
  5
1CC48
  8
1PHANTOM
 10
276.0227652238717
 20
-1104.25234253189
 30
0.0
 11
271.0227652238717
 21
-1103.25234253189
 31
0.0
  0
LINE
  5
1CC49
  8
1PHANTOM
 10
276.0227652238717
 20
-1106.25234253189
 30
0.0
 11
271.0227652238717
 21
-1105.25234253189
 31
0.0
  0
LINE
  5
1CC4A
  8
1PHANTOM
 10
276.0227652238717
 20
-1108.25234253189
 30
0.0
 11
271.0227652238717
 21
-1107.25234253189
 31
0.0
  0
LINE
  5
1CC4B
  8
1PHANTOM
 10
271.7727652238717
 20
-1097.10234253189
 30
0.0
 11
271.0227652238717
 21
-1097.25234253189
 31
0.0
  0
LINE
  5
1CC4C
  8
1PHANTOM
 10
271.7727652238717
 20
-1095.10234253189
 30
0.0
 11
271.0227652238717
 21
-1095.25234253189
 31
0.0
  0
LINE
  5
1CC4D
  8
1PHANTOM
 10
271.7727652238717
 20
-1099.10234253189
 30
0.0
 11
271.0227652238717
 21
-1099.25234253189
 31
0.0
  0
LINE
  5
1CC4E
  8
1PHANTOM
 10
271.7727652238717
 20
-1101.10234253189
 30
0.0
 11
271.0227652238717
 21
-1101.25234253189
 31
0.0
  0
LINE
  5
1CC4F
  8
1PHANTOM
 10
271.7727652238717
 20
-1103.10234253189
 30
0.0
 11
271.0227652238717
 21
-1103.25234253189
 31
0.0
  0
LINE
  5
1CC50
  8
1PHANTOM
 10
271.7727652238717
 20
-1105.10234253189
 30
0.0
 11
271.0227652238717
 21
-1105.25234253189
 31
0.0
  0
LINE
  5
1CC51
  8
1PHANTOM
 10
271.7727652238717
 20
-1107.10234253189
 30
0.0
 11
271.0227652238717
 21
-1107.25234253189
 31
0.0
  0
LINE
  5
1CC52
  8
1PHANTOM
 10
271.7727652238717
 20
-1109.10234253189
 30
0.0
 11
271.0227652238717
 21
-1109.25234253189
 31
0.0
  0
LINE
  5
1CC53
  8
1PHANTOM
 10
276.0227652238717
 20
-1112.25234253189
 30
0.0
 11
275.2727652238717
 21
-1112.402342531891
 31
0.0
  0
LINE
  5
1CC54
  8
1PHANTOM
 10
276.0227652238717
 20
-1114.25234253189
 30
0.0
 11
275.2727652238717
 21
-1114.402342531891
 31
0.0
  0
LINE
  5
1CC55
  8
1PHANTOM
 10
276.0227652238717
 20
-1110.25234253189
 30
0.0
 11
275.2727652238717
 21
-1110.402342531891
 31
0.0
  0
LINE
  5
1CC56
  8
1PHANTOM
 10
276.0227652238717
 20
-1116.25234253189
 30
0.0
 11
275.2727652238717
 21
-1116.402342531891
 31
0.0
  0
LINE
  5
1CC57
  8
1PHANTOM
 10
276.0227652238717
 20
-1118.25234253189
 30
0.0
 11
275.2727652238717
 21
-1118.402342531891
 31
0.0
  0
LINE
  5
1CC58
  8
1PHANTOM
 10
276.0227652238717
 20
-1114.25234253189
 30
0.0
 11
271.0227652238717
 21
-1113.25234253189
 31
0.0
  0
LINE
  5
1CC59
  8
1PHANTOM
 10
276.0227652238717
 20
-1112.25234253189
 30
0.0
 11
271.0227652238717
 21
-1111.25234253189
 31
0.0
  0
LINE
  5
1CC5A
  8
1PHANTOM
 10
276.0227652238717
 20
-1116.25234253189
 30
0.0
 11
271.0227652238717
 21
-1115.25234253189
 31
0.0
  0
LINE
  5
1CC5B
  8
1PHANTOM
 10
276.0227652238717
 20
-1118.25234253189
 30
0.0
 11
271.0227652238717
 21
-1117.25234253189
 31
0.0
  0
LINE
  5
1CC5C
  8
1PHANTOM
 10
271.7727652238717
 20
-1113.10234253189
 30
0.0
 11
271.0227652238717
 21
-1113.25234253189
 31
0.0
  0
LINE
  5
1CC5D
  8
1PHANTOM
 10
271.7727652238717
 20
-1111.10234253189
 30
0.0
 11
271.0227652238717
 21
-1111.25234253189
 31
0.0
  0
LINE
  5
1CC5E
  8
1PHANTOM
 10
271.7727652238717
 20
-1115.10234253189
 30
0.0
 11
271.0227652238717
 21
-1115.25234253189
 31
0.0
  0
LINE
  5
1CC5F
  8
1PHANTOM
 10
271.7727652238717
 20
-1117.10234253189
 30
0.0
 11
271.0227652238717
 21
-1117.25234253189
 31
0.0
  0
LINE
  5
1CC60
  8
1PHANTOM
 10
271.7727652238717
 20
-1120.370208117936
 30
0.0
 11
275.2727652238717
 21
-1120.370208117936
 31
0.0
  0
LINE
  5
1CCBC
  8
1PHANTOM
 10
-183.9246508781754
 20
-1118.570222997272
 30
0.0
 11
-183.9770163361719
 21
-1115.570207917937
 31
0.0
  0
LINE
  5
1CCBD
  8
1PHANTOM
 10
-183.9246508781754
 20
-1118.570222997272
 30
0.0
 11
-183.9770163361719
 21
-1115.570207917937
 31
0.0
  0
LINE
  5
1CD72
  8
1PHANTOM
 10
-150.9898911826041
 20
-1145.570210859023
 30
0.0
 11
-165.181219679118
 21
-1145.570210859023
 31
0.0
  0
ARC
  5
1CD73
  8
1PHANTOM
 10
-150.9898911826041
 20
-1144.570210859023
 30
0.0
 40
1.0
 50
270.0
 51
358.0000000000485
  0
LINE
  5
1CD74
  8
1PHANTOM
 10
-183.9246508781754
 20
-1118.570222997272
 30
0.0
 11
-183.9770163361719
 21
-1115.570207917937
 31
0.0
  0
LINE
  5
1CD75
  8
1PHANTOM
 10
-149.9905003555851
 20
-1144.605110355725
 30
0.0
 11
-148.9765792203408
 21
-1115.570207917935
 31
0.0
  0
LINE
  5
1CD76
  8
1PHANTOM
 10
-183.9246508781754
 20
-1118.570222997272
 30
0.0
 11
-166.0102572516727
 21
-1145.129403762493
 31
0.0
  0
ARC
  5
1CD77
  8
1PHANTOM
 10
-165.181219679118
 20
-1144.570210859023
 30
0.0
 40
1.0
 50
214.0000000000135
 51
270.0
  0
LINE
  5
1CD78
  8
1PHANTOM
 10
-183.9246508781754
 20
-1118.570222997272
 30
0.0
 11
-183.9770163361719
 21
-1115.570207917937
 31
0.0
  0
ARC
  5
1D59A
  8
01
 10
356.522765157252
 20
-1263.370207917935
 30
0.0
 40
12.8
 50
92.84361524082813
 51
267.1563847591977
  0
LINE
  5
1D59B
  8
01
 10
406.5227651572602
 20
-1278.570207917931
 30
0.0
 11
402.022765157262
 21
-1278.570207917932
 31
0.0
  0
LINE
  5
1D59C
  8
01
 10
402.022765157262
 20
-1278.570207917932
 30
0.0
 11
355.8877561803412
 21
-1276.154446792394
 31
0.0
  0
LINE
  5
1D59D
  8
01
 10
406.5227651572602
 20
-1248.170207917931
 30
0.0
 11
402.0227651572602
 21
-1248.17020791793
 31
0.0
  0
LINE
  5
1D59E
  8
01
 10
402.0227651572424
 20
-1248.170207917931
 30
0.0
 11
355.887756180339
 21
-1250.585969043475
 31
0.0
  0
LINE
  5
1D5AB
  8
01
 10
406.5227651572602
 20
-1278.570207917931
 30
0.0
 11
406.5227651572602
 21
-1248.170207917932
 31
0.0
  0
LINE
  5
1D5AD
  8
1CENTER
 10
391.0227651572602
 20
-1248.746199404012
 30
0.0
 11
391.0227651572602
 21
-1277.994216431852
 31
0.0
  0
LINE
  5
1D5BB
  8
1PHANTOM
 10
376.5227651572588
 20
-1253.323085800948
 30
0.0
 11
376.5227651572761
 21
-1273.420393329705
 31
0.0
  0
LINE
  5
1D5BE
  8
1PHANTOM
 10
406.5227651572602
 20
-1250.874802860042
 30
0.0
 11
377.4729292691974
 21
-1252.324328380819
 31
0.0
  0
ARC
  5
1D5BF
  8
1PHANTOM
 10
377.5227651572597
 20
-1253.323085800947
 30
0.0
 40
1.0
 50
92.85656932409148
 51
180.0000000000521
  0
LINE
  5
1D5C1
  8
1PHANTOM
 10
406.5227651572602
 20
-1275.868676270568
 30
0.0
 11
377.4729292692165
 21
-1274.419150749831
 31
0.0
  0
ARC
  5
1D5C2
  8
1PHANTOM
 10
377.522765157277
 20
-1273.420393329704
 30
0.0
 40
1.0
 50
180.0000000000521
 51
267.1434306759085
  0
LINE
  5
1D5C7
  8
1PHANTOM
 10
393.1191081977769
 20
-1252.34822015777
 30
0.0
 11
393.1227650474522
 21
-1252.34822015777
 31
0.0
  0
LINE
  5
1D66C
  8
1PHANTOM
 10
387.0227651572602
 20
-1249.646199404017
 30
0.0
 11
395.0227651572602
 21
-1249.646199404017
 31
0.0
  0
LINE
  5
1D66D
  8
1PHANTOM
 10
387.0227651572602
 20
-1249.646199404017
 30
0.0
 11
388.5227651572583
 21
-1251.146199404015
 31
0.0
  0
LINE
  5
1D66E
  8
1PHANTOM
 10
395.0227651572583
 20
-1249.646199404017
 30
0.0
 11
387.0227651572583
 21
-1249.646199404017
 31
0.0
  0
LINE
  5
1D66F
  8
1PHANTOM
 10
393.1227651572578
 20
-1259.296199404017
 30
0.0
 11
393.5227651572583
 21
-1258.896199404017
 31
0.0
  0
LINE
  5
1D670
  8
1PHANTOM
 10
387.0227651572583
 20
-1249.646199404017
 30
0.0
 11
387.0227651572583
 21
-1249.296199404017
 31
0.0
  0
LINE
  5
1D671
  8
1PHANTOM
 10
395.0227651572583
 20
-1249.646199404017
 30
0.0
 11
395.0227651572583
 21
-1249.296199404017
 31
0.0
  0
LINE
  5
1D672
  8
1PHANTOM
 10
393.5227651572583
 20
-1251.146199404017
 30
0.0
 11
393.1227651572578
 21
-1251.546199404017
 31
0.0
  0
LINE
  5
1D673
  8
1PHANTOM
 10
393.1227651572578
 20
-1259.296199404017
 30
0.0
 11
393.1227651572578
 21
-1251.546199404017
 31
0.0
  0
LINE
  5
1D674
  8
1PHANTOM
 10
388.5227651572583
 20
-1251.146199404017
 30
0.0
 11
388.9227651572589
 21
-1251.546199404017
 31
0.0
  0
LINE
  5
1D675
  8
1PHANTOM
 10
388.9227651572589
 20
-1259.296199404017
 30
0.0
 11
388.9227651572589
 21
-1251.546199404017
 31
0.0
  0
LINE
  5
1D676
  8
1PHANTOM
 10
393.5227651572583
 20
-1258.896199404017
 30
0.0
 11
388.5227651572583
 21
-1258.896199404017
 31
0.0
  0
LINE
  5
1D677
  8
1PHANTOM
 10
395.0227651572583
 20
-1249.296199404017
 30
0.0
 11
387.0227651572583
 21
-1249.296199404017
 31
0.0
  0
LINE
  5
1D678
  8
1PHANTOM
 10
393.5227651572583
 20
-1258.896199404017
 30
0.0
 11
393.5227651572583
 21
-1251.146199404018
 31
0.0
  0
LINE
  5
1D679
  8
1PHANTOM
 10
388.5227651572583
 20
-1258.896199404017
 30
0.0
 11
388.5227651572583
 21
-1251.146199404015
 31
0.0
  0
LINE
  5
1D67A
  8
1PHANTOM
 10
393.1227651572578
 20
-1259.296199404017
 30
0.0
 11
393.5227651572583
 21
-1258.896199404017
 31
0.0
  0
LINE
  5
1D67B
  8
1PHANTOM
 10
393.1227651572578
 20
-1259.296199404017
 30
0.0
 11
388.9227651572589
 21
-1259.296199404017
 31
0.0
  0
LINE
  5
1D67C
  8
1PHANTOM
 10
395.0227651572565
 20
-1249.646199404017
 30
0.0
 11
393.5227651572583
 21
-1251.146199404015
 31
0.0
  0
LINE
  5
1D67D
  8
1PHANTOM
 10
388.5227651572583
 20
-1258.896199404017
 30
0.0
 11
388.9227651572589
 21
-1259.296199404017
 31
0.0
  0
LINE
  5
1D67E
  8
1PHANTOM
 10
387.0227651572602
 20
-1277.094216431852
 30
0.0
 11
395.0227651572602
 21
-1277.094216431852
 31
0.0
  0
LINE
  5
1D67F
  8
1PHANTOM
 10
387.0227651572602
 20
-1277.094216431852
 30
0.0
 11
388.5227651572583
 21
-1275.594216431855
 31
0.0
  0
LINE
  5
1D680
  8
1PHANTOM
 10
395.0227651572583
 20
-1277.094216431852
 30
0.0
 11
387.0227651572583
 21
-1277.094216431852
 31
0.0
  0
LINE
  5
1D681
  8
1PHANTOM
 10
393.1227651572578
 20
-1267.444216431853
 30
0.0
 11
393.5227651572583
 21
-1267.844216431852
 31
0.0
  0
LINE
  5
1D682
  8
1PHANTOM
 10
387.0227651572583
 20
-1277.094216431852
 30
0.0
 11
387.0227651572583
 21
-1277.444216431853
 31
0.0
  0
LINE
  5
1D683
  8
1PHANTOM
 10
395.0227651572583
 20
-1277.094216431852
 30
0.0
 11
395.0227651572583
 21
-1277.444216431853
 31
0.0
  0
LINE
  5
1D684
  8
1PHANTOM
 10
393.5227651572583
 20
-1275.594216431852
 30
0.0
 11
393.1227651572578
 21
-1275.194216431853
 31
0.0
  0
LINE
  5
1D685
  8
1PHANTOM
 10
393.1227651572578
 20
-1267.444216431853
 30
0.0
 11
393.1227651572578
 21
-1275.194216431853
 31
0.0
  0
LINE
  5
1D686
  8
1PHANTOM
 10
388.5227651572583
 20
-1275.594216431852
 30
0.0
 11
388.9227651572589
 21
-1275.194216431853
 31
0.0
  0
LINE
  5
1D687
  8
1PHANTOM
 10
388.9227651572589
 20
-1267.444216431853
 30
0.0
 11
388.9227651572589
 21
-1275.194216431853
 31
0.0
  0
LINE
  5
1D688
  8
1PHANTOM
 10
393.5227651572583
 20
-1267.844216431852
 30
0.0
 11
388.5227651572583
 21
-1267.844216431852
 31
0.0
  0
LINE
  5
1D689
  8
1PHANTOM
 10
395.0227651572583
 20
-1277.444216431853
 30
0.0
 11
387.0227651572583
 21
-1277.444216431853
 31
0.0
  0
LINE
  5
1D68A
  8
1PHANTOM
 10
393.5227651572583
 20
-1267.844216431852
 30
0.0
 11
393.5227651572583
 21
-1275.594216431851
 31
0.0
  0
LINE
  5
1D68B
  8
1PHANTOM
 10
388.5227651572583
 20
-1267.844216431852
 30
0.0
 11
388.5227651572583
 21
-1275.594216431855
 31
0.0
  0
LINE
  5
1D68C
  8
1PHANTOM
 10
393.1227651572578
 20
-1267.444216431853
 30
0.0
 11
393.5227651572583
 21
-1267.844216431852
 31
0.0
  0
LINE
  5
1D68D
  8
1PHANTOM
 10
393.1227651572578
 20
-1267.444216431853
 30
0.0
 11
388.9227651572589
 21
-1267.444216431853
 31
0.0
  0
LINE
  5
1D68E
  8
1PHANTOM
 10
395.0227651572565
 20
-1277.094216431852
 30
0.0
 11
393.5227651572583
 21
-1275.594216431855
 31
0.0
  0
LINE
  5
1D68F
  8
1PHANTOM
 10
388.5227651572583
 20
-1267.844216431852
 30
0.0
 11
388.9227651572589
 21
-1267.444216431853
 31
0.0
  0
LINE
  5
1D87D
  8
1CENTER
 10
268.4323289182999
 20
-1263.370207917935
 30
0.0
 11
298.6132015294424
 21
-1263.370207917935
 31
0.0
  0
LINE
  5
1D87E
  8
1CENTER
 10
-166.47679784487
 20
-1271.446812121696
 30
0.0
 11
-166.4767978448691
 21
-1255.293603714173
 31
0.0
  0
LINE
  5
1D87F
  8
1CENTER
 10
-158.4001936411081
 20
-1263.370207917935
 30
0.0
 11
-174.553402048631
 21
-1263.370207917935
 31
0.0
  0
LINE
  5
1D8C4
  8
01
 10
419.0227651572602
 20
-1225.389765118142
 30
0.0
 11
419.0227651572602
 21
-1305.389765118141
 31
0.0
  0
LINE
  5
1D8C5
  8
01
 10
431.0227651572602
 20
-1225.389765118142
 30
0.0
 11
431.0227651572602
 21
-1305.389765118141
 31
0.0
  0
LINE
  5
1D8C6
  8
01
 10
406.5227651572602
 20
-1225.389765118142
 30
0.0
 11
406.5227651572602
 21
-1305.389765118141
 31
0.0
  0
LINE
  5
1E0A3
  8
1PHANTOM
 10
268.9227653238721
 20
-1120.370208117936
 30
0.0
 11
268.9227653238721
 21
-1119.070207917936
 31
0.0
  0
LINE
  5
1E0A4
  8
1PHANTOM
 10
278.1227651238718
 20
-1120.370208117936
 30
0.0
 11
268.9227653238721
 21
-1120.370208117936
 31
0.0
  0
LINE
  5
1E0A5
  8
1PHANTOM
 10
278.1227651238718
 20
-1119.070207917936
 30
0.0
 11
268.9227653238721
 21
-1119.070207917936
 31
0.0
  0
LINE
  5
1E0A6
  8
1PHANTOM
 10
278.1227651238718
 20
-1120.370208117936
 30
0.0
 11
278.1227651238718
 21
-1119.070207917936
 31
0.0
  0
LINE
  5
1E0A7
  8
1PHANTOM
 10
272.8727650737563
 20
-1120.370208117936
 30
0.0
 11
274.1727650237561
 21
-1119.070207917936
 31
0.0
  0
LINE
  5
1E0AA
  8
1CENTER
 10
293.5227655664684
 20
-1124.409434060614
 30
0.0
 11
293.5227655664684
 21
-1068.621597384381
 31
0.0
  0
LINE
  5
1E0AC
  8
1PHANTOM
 10
288.9227656665265
 20
-1120.370208117936
 30
0.0
 11
288.9227656665265
 21
-1119.070207917936
 31
0.0
  0
LINE
  5
1E0AD
  8
1PHANTOM
 10
298.1227654665262
 20
-1120.370208117936
 30
0.0
 11
288.9227656665265
 21
-1120.370208117936
 31
0.0
  0
LINE
  5
1E0AE
  8
1PHANTOM
 10
298.1227654665262
 20
-1119.070207917936
 30
0.0
 11
288.9227656665265
 21
-1119.070207917936
 31
0.0
  0
LINE
  5
1E0AF
  8
1PHANTOM
 10
298.1227654665262
 20
-1120.370208117936
 30
0.0
 11
298.1227654665262
 21
-1119.070207917936
 31
0.0
  0
LINE
  5
1E0B0
  8
1PHANTOM
 10
296.0227655665261
 20
-1094.25234253189
 30
0.0
 11
291.0227655665261
 21
-1093.25234253189
 31
0.0
  0
LINE
  5
1E0B2
  8
1PHANTOM
 10
295.2727655665261
 20
-1076.901297031182
 30
0.0
 11
295.2727655665261
 21
-1119.070207917936
 31
0.0
  0
LINE
  5
1E0B3
  8
1PHANTOM
 10
293.5227655665261
 20
-1070.370208117936
 30
0.0
 11
295.2727655665261
 21
-1076.901297031182
 31
0.0
  0
LINE
  5
1E0B4
  8
1PHANTOM
 10
295.2727655665261
 20
-1120.370208117936
 30
0.0
 11
298.0227655665261
 21
-1120.370208117936
 31
0.0
  0
LINE
  5
1E0B5
  8
1PHANTOM
 10
293.5227655665261
 20
-1070.370208117936
 30
0.0
 11
291.7727655665261
 21
-1076.901297031182
 31
0.0
  0
LINE
  5
1E0B6
  8
1PHANTOM
 10
298.0227655665261
 20
-1120.370208117936
 30
0.0
 11
298.0227655665261
 21
-1121.170208117936
 31
0.0
  0
LINE
  5
1E0B7
  8
1PHANTOM
 10
291.7727655665261
 20
-1076.901297031182
 30
0.0
 11
291.7727655665261
 21
-1119.102342531891
 31
0.0
  0
ARC
  5
1E0B8
  8
1PHANTOM
 10
295.5227655665261
 20
-1121.170208117936
 30
0.0
 40
2.5
 50
270.0
 51
0.0
  0
LINE
  5
1E0B9
  8
1PHANTOM
 10
289.0227655665261
 20
-1120.370208117936
 30
0.0
 11
291.7727655665261
 21
-1120.370208117936
 31
0.0
  0
LINE
  5
1E0BA
  8
1PHANTOM
 10
291.5227655665261
 20
-1123.670208117936
 30
0.0
 11
295.5227655665261
 21
-1123.670208117936
 31
0.0
  0
LINE
  5
1E0BB
  8
1PHANTOM
 10
289.0227655665261
 20
-1120.370208117936
 30
0.0
 11
289.0227655665261
 21
-1121.170208117936
 31
0.0
  0
ARC
  5
1E0BC
  8
1PHANTOM
 10
291.5227655665261
 20
-1121.170208117936
 30
0.0
 40
2.5
 50
180.0
 51
270.0
  0
LINE
  5
1E0BD
  8
1PHANTOM
 10
295.8390325075619
 20
-1076.215595920098
 30
0.0
 11
295.0890325075619
 21
-1076.365595920098
 31
0.0
  0
LINE
  5
1E0BE
  8
1PHANTOM
 10
295.8390325075619
 20
-1076.215595920098
 30
0.0
 11
291.4421280264713
 21
-1075.33621502388
 31
0.0
  0
LINE
  5
1E0BF
  8
1PHANTOM
 10
294.7065459670433
 20
-1071.989098611994
 30
0.0
 11
293.9565459670433
 21
-1072.139098611994
 31
0.0
  0
LINE
  5
1E0C0
  8
1PHANTOM
 10
293.2094088795824
 20
-1071.389671194502
 30
0.0
 11
292.4594088795824
 21
-1071.539671194502
 31
0.0
  0
LINE
  5
1E0C1
  8
1PHANTOM
 10
294.7065459670433
 20
-1071.989098611994
 30
0.0
 11
292.4594088795824
 21
-1071.539671194502
 31
0.0
  0
LINE
  5
1E0C2
  8
1PHANTOM
 10
295.2727892373026
 20
-1074.102347266046
 30
0.0
 11
294.5227892373026
 21
-1074.252347266046
 31
0.0
  0
LINE
  5
1E0C3
  8
1PHANTOM
 10
292.7007684530271
 20
-1073.287943109191
 30
0.0
 11
291.9507684530271
 21
-1073.437943109191
 31
0.0
  0
LINE
  5
1E0C4
  8
1PHANTOM
 10
292.1921280264713
 20
-1075.186215023879
 30
0.0
 11
291.4421280264713
 21
-1075.33621502388
 31
0.0
  0
LINE
  5
1E0C5
  8
1PHANTOM
 10
295.2727892373026
 20
-1074.102347266046
 30
0.0
 11
291.9507684530271
 21
-1073.437943109191
 31
0.0
  0
LINE
  5
1E0C6
  8
1PHANTOM
 10
296.0227655665261
 20
-1090.25234253189
 30
0.0
 11
295.2727655665261
 21
-1090.402342531891
 31
0.0
  0
LINE
  5
1E0C7
  8
1PHANTOM
 10
296.0227655665261
 20
-1092.25234253189
 30
0.0
 11
295.2727655665261
 21
-1092.402342531891
 31
0.0
  0
LINE
  5
1E0C8
  8
1PHANTOM
 10
296.0227655665261
 20
-1086.25234253189
 30
0.0
 11
295.2727655665261
 21
-1086.402342531891
 31
0.0
  0
LINE
  5
1E0C9
  8
1PHANTOM
 10
296.0227655665261
 20
-1088.25234253189
 30
0.0
 11
295.2727655665261
 21
-1088.402342531891
 31
0.0
  0
LINE
  5
1E0CA
  8
1PHANTOM
 10
296.0227655665261
 20
-1084.25234253189
 30
0.0
 11
295.2727655665261
 21
-1084.402342531891
 31
0.0
  0
LINE
  5
1E0CB
  8
1PHANTOM
 10
296.0227655665261
 20
-1082.25234253189
 30
0.0
 11
295.2727655665261
 21
-1082.402342531891
 31
0.0
  0
LINE
  5
1E0CC
  8
1PHANTOM
 10
296.0227655665261
 20
-1092.25234253189
 30
0.0
 11
291.0227655665261
 21
-1091.25234253189
 31
0.0
  0
LINE
  5
1E0CD
  8
1PHANTOM
 10
296.0227655665261
 20
-1090.25234253189
 30
0.0
 11
291.0227655665261
 21
-1089.25234253189
 31
0.0
  0
LINE
  5
1E0CE
  8
1PHANTOM
 10
296.0227655665261
 20
-1088.25234253189
 30
0.0
 11
291.0227655665261
 21
-1087.25234253189
 31
0.0
  0
LINE
  5
1E0CF
  8
1PHANTOM
 10
296.0227655665261
 20
-1086.25234253189
 30
0.0
 11
291.0227655665261
 21
-1085.25234253189
 31
0.0
  0
LINE
  5
1E0D0
  8
1PHANTOM
 10
296.0227655665261
 20
-1084.25234253189
 30
0.0
 11
291.0227655665261
 21
-1083.25234253189
 31
0.0
  0
LINE
  5
1E0D1
  8
1PHANTOM
 10
296.0227655665261
 20
-1078.25234253189
 30
0.0
 11
295.2727655665261
 21
-1078.402342531891
 31
0.0
  0
LINE
  5
1E0D2
  8
1PHANTOM
 10
296.0227655665261
 20
-1080.25234253189
 30
0.0
 11
295.2727655665261
 21
-1080.402342531891
 31
0.0
  0
LINE
  5
1E0D3
  8
1PHANTOM
 10
296.0227655665261
 20
-1080.25234253189
 30
0.0
 11
291.0227655665261
 21
-1079.25234253189
 31
0.0
  0
LINE
  5
1E0D4
  8
1PHANTOM
 10
296.0227655665261
 20
-1078.25234253189
 30
0.0
 11
291.0227655665261
 21
-1077.25234253189
 31
0.0
  0
LINE
  5
1E0D5
  8
1PHANTOM
 10
296.0227655665261
 20
-1082.25234253189
 30
0.0
 11
291.0227655665261
 21
-1081.25234253189
 31
0.0
  0
LINE
  5
1E0D6
  8
1PHANTOM
 10
291.7727655665261
 20
-1085.10234253189
 30
0.0
 11
291.0227655665261
 21
-1085.25234253189
 31
0.0
  0
LINE
  5
1E0D7
  8
1PHANTOM
 10
291.7727655665261
 20
-1079.10234253189
 30
0.0
 11
291.0227655665261
 21
-1079.25234253189
 31
0.0
  0
LINE
  5
1E0D8
  8
1PHANTOM
 10
291.7727655665261
 20
-1077.10234253189
 30
0.0
 11
291.0227655665261
 21
-1077.25234253189
 31
0.0
  0
LINE
  5
1E0D9
  8
1PHANTOM
 10
291.7727655665261
 20
-1083.10234253189
 30
0.0
 11
291.0227655665261
 21
-1083.25234253189
 31
0.0
  0
LINE
  5
1E0DA
  8
1PHANTOM
 10
291.7727655665261
 20
-1081.10234253189
 30
0.0
 11
291.0227655665261
 21
-1081.25234253189
 31
0.0
  0
LINE
  5
1E0DB
  8
1PHANTOM
 10
291.7727655665261
 20
-1089.10234253189
 30
0.0
 11
291.0227655665261
 21
-1089.25234253189
 31
0.0
  0
LINE
  5
1E0DC
  8
1PHANTOM
 10
291.7727655665261
 20
-1087.10234253189
 30
0.0
 11
291.0227655665261
 21
-1087.25234253189
 31
0.0
  0
LINE
  5
1E0DD
  8
1PHANTOM
 10
291.7727655665261
 20
-1091.10234253189
 30
0.0
 11
291.0227655665261
 21
-1091.25234253189
 31
0.0
  0
LINE
  5
1E0DE
  8
1PHANTOM
 10
291.7727655665261
 20
-1093.10234253189
 30
0.0
 11
291.0227655665261
 21
-1093.25234253189
 31
0.0
  0
LINE
  5
1E0DF
  8
1PHANTOM
 10
296.0227655665261
 20
-1110.25234253189
 30
0.0
 11
291.0227655665261
 21
-1109.25234253189
 31
0.0
  0
LINE
  5
1E0E0
  8
1PHANTOM
 10
296.0227655665261
 20
-1098.25234253189
 30
0.0
 11
295.2727655665261
 21
-1098.402342531891
 31
0.0
  0
LINE
  5
1E0E1
  8
1PHANTOM
 10
296.0227655665261
 20
-1096.25234253189
 30
0.0
 11
295.2727655665261
 21
-1096.402342531891
 31
0.0
  0
LINE
  5
1E0E2
  8
1PHANTOM
 10
296.0227655665261
 20
-1094.25234253189
 30
0.0
 11
295.2727655665261
 21
-1094.402342531891
 31
0.0
  0
LINE
  5
1E0E3
  8
1PHANTOM
 10
296.0227655665261
 20
-1100.25234253189
 30
0.0
 11
295.2727655665261
 21
-1100.402342531891
 31
0.0
  0
LINE
  5
1E0E4
  8
1PHANTOM
 10
296.0227655665261
 20
-1102.25234253189
 30
0.0
 11
295.2727655665261
 21
-1102.402342531891
 31
0.0
  0
LINE
  5
1E0E5
  8
1PHANTOM
 10
296.0227655665261
 20
-1106.25234253189
 30
0.0
 11
295.2727655665261
 21
-1106.402342531891
 31
0.0
  0
LINE
  5
1E0E6
  8
1PHANTOM
 10
296.0227655665261
 20
-1104.25234253189
 30
0.0
 11
295.2727655665261
 21
-1104.402342531891
 31
0.0
  0
LINE
  5
1E0E7
  8
1PHANTOM
 10
296.0227655665261
 20
-1108.25234253189
 30
0.0
 11
295.2727655665261
 21
-1108.402342531891
 31
0.0
  0
LINE
  5
1E0E8
  8
1PHANTOM
 10
296.0227655665261
 20
-1098.25234253189
 30
0.0
 11
291.0227655665261
 21
-1097.25234253189
 31
0.0
  0
LINE
  5
1E0E9
  8
1PHANTOM
 10
296.0227655665261
 20
-1096.25234253189
 30
0.0
 11
291.0227655665261
 21
-1095.25234253189
 31
0.0
  0
LINE
  5
1E0EA
  8
1PHANTOM
 10
296.0227655665261
 20
-1100.25234253189
 30
0.0
 11
291.0227655665261
 21
-1099.25234253189
 31
0.0
  0
LINE
  5
1E0EB
  8
1PHANTOM
 10
296.0227655665261
 20
-1102.25234253189
 30
0.0
 11
291.0227655665261
 21
-1101.25234253189
 31
0.0
  0
LINE
  5
1E0EC
  8
1PHANTOM
 10
296.0227655665261
 20
-1104.25234253189
 30
0.0
 11
291.0227655665261
 21
-1103.25234253189
 31
0.0
  0
LINE
  5
1E0ED
  8
1PHANTOM
 10
296.0227655665261
 20
-1106.25234253189
 30
0.0
 11
291.0227655665261
 21
-1105.25234253189
 31
0.0
  0
LINE
  5
1E0EE
  8
1PHANTOM
 10
296.0227655665261
 20
-1108.25234253189
 30
0.0
 11
291.0227655665261
 21
-1107.25234253189
 31
0.0
  0
LINE
  5
1E0EF
  8
1PHANTOM
 10
291.7727655665261
 20
-1097.10234253189
 30
0.0
 11
291.0227655665261
 21
-1097.25234253189
 31
0.0
  0
LINE
  5
1E0F0
  8
1PHANTOM
 10
291.7727655665261
 20
-1095.10234253189
 30
0.0
 11
291.0227655665261
 21
-1095.25234253189
 31
0.0
  0
LINE
  5
1E0F1
  8
1PHANTOM
 10
291.7727655665261
 20
-1099.10234253189
 30
0.0
 11
291.0227655665261
 21
-1099.25234253189
 31
0.0
  0
LINE
  5
1E0F2
  8
1PHANTOM
 10
291.7727655665261
 20
-1101.10234253189
 30
0.0
 11
291.0227655665261
 21
-1101.25234253189
 31
0.0
  0
LINE
  5
1E0F3
  8
1PHANTOM
 10
291.7727655665261
 20
-1103.10234253189
 30
0.0
 11
291.0227655665261
 21
-1103.25234253189
 31
0.0
  0
LINE
  5
1E0F4
  8
1PHANTOM
 10
291.7727655665261
 20
-1105.10234253189
 30
0.0
 11
291.0227655665261
 21
-1105.25234253189
 31
0.0
  0
LINE
  5
1E0F5
  8
1PHANTOM
 10
291.7727655665261
 20
-1107.10234253189
 30
0.0
 11
291.0227655665261
 21
-1107.25234253189
 31
0.0
  0
LINE
  5
1E0F6
  8
1PHANTOM
 10
291.7727655665261
 20
-1109.10234253189
 30
0.0
 11
291.0227655665261
 21
-1109.25234253189
 31
0.0
  0
LINE
  5
1E0F7
  8
1PHANTOM
 10
296.0227655665261
 20
-1112.25234253189
 30
0.0
 11
295.2727655665261
 21
-1112.402342531891
 31
0.0
  0
LINE
  5
1E0F8
  8
1PHANTOM
 10
296.0227655665261
 20
-1114.25234253189
 30
0.0
 11
295.2727655665261
 21
-1114.402342531891
 31
0.0
  0
LINE
  5
1E0F9
  8
1PHANTOM
 10
296.0227655665261
 20
-1110.25234253189
 30
0.0
 11
295.2727655665261
 21
-1110.402342531891
 31
0.0
  0
LINE
  5
1E0FA
  8
1PHANTOM
 10
296.0227655665261
 20
-1116.25234253189
 30
0.0
 11
295.2727655665261
 21
-1116.402342531891
 31
0.0
  0
LINE
  5
1E0FB
  8
1PHANTOM
 10
296.0227655665261
 20
-1118.25234253189
 30
0.0
 11
295.2727655665261
 21
-1118.402342531891
 31
0.0
  0
LINE
  5
1E0FC
  8
1PHANTOM
 10
296.0227655665261
 20
-1114.25234253189
 30
0.0
 11
291.0227655665261
 21
-1113.25234253189
 31
0.0
  0
LINE
  5
1E0FD
  8
1PHANTOM
 10
296.0227655665261
 20
-1112.25234253189
 30
0.0
 11
291.0227655665261
 21
-1111.25234253189
 31
0.0
  0
LINE
  5
1E0FE
  8
1PHANTOM
 10
296.0227655665261
 20
-1116.25234253189
 30
0.0
 11
291.0227655665261
 21
-1115.25234253189
 31
0.0
  0
LINE
  5
1E0FF
  8
1PHANTOM
 10
296.0227655665261
 20
-1118.25234253189
 30
0.0
 11
291.0227655665261
 21
-1117.25234253189
 31
0.0
  0
LINE
  5
1E100
  8
1PHANTOM
 10
291.7727655665261
 20
-1113.10234253189
 30
0.0
 11
291.0227655665261
 21
-1113.25234253189
 31
0.0
  0
LINE
  5
1E101
  8
1PHANTOM
 10
291.7727655665261
 20
-1111.10234253189
 30
0.0
 11
291.0227655665261
 21
-1111.25234253189
 31
0.0
  0
LINE
  5
1E102
  8
1PHANTOM
 10
291.7727655665261
 20
-1115.10234253189
 30
0.0
 11
291.0227655665261
 21
-1115.25234253189
 31
0.0
  0
LINE
  5
1E103
  8
1PHANTOM
 10
291.7727655665261
 20
-1117.10234253189
 30
0.0
 11
291.0227655665261
 21
-1117.25234253189
 31
0.0
  0
LINE
  5
1E104
  8
1PHANTOM
 10
291.7727655665261
 20
-1120.370208117936
 30
0.0
 11
295.2727655665261
 21
-1120.370208117936
 31
0.0
  0
LINE
  5
1E105
  8
1PHANTOM
 10
292.8727654164107
 20
-1120.370208117936
 30
0.0
 11
294.1727653664105
 21
-1119.070207917936
 31
0.0
  0
LINE
  5
1E1C4
  8
1CENTER
 10
-176.4767981874658
 20
-1124.409434060614
 30
0.0
 11
-176.4767981874658
 21
-1068.621597384381
 31
0.0
  0
LINE
  5
1E1C5
  8
1PHANTOM
 10
-181.0767980874076
 20
-1120.370208117936
 30
0.0
 11
-181.0767980874076
 21
-1119.070207917936
 31
0.0
  0
LINE
  5
1E1C6
  8
1PHANTOM
 10
-171.876798287408
 20
-1120.370208117936
 30
0.0
 11
-181.0767980874076
 21
-1120.370208117936
 31
0.0
  0
LINE
  5
1E1C7
  8
1PHANTOM
 10
-171.876798287408
 20
-1119.070207917936
 30
0.0
 11
-181.0767980874076
 21
-1119.070207917936
 31
0.0
  0
LINE
  5
1E1C8
  8
1PHANTOM
 10
-171.876798287408
 20
-1120.370208117936
 30
0.0
 11
-171.876798287408
 21
-1119.070207917936
 31
0.0
  0
LINE
  5
1E1C9
  8
1PHANTOM
 10
-173.976798187408
 20
-1094.25234253189
 30
0.0
 11
-178.976798187408
 21
-1093.25234253189
 31
0.0
  0
LINE
  5
1E1CA
  8
1PHANTOM
 10
-174.726798187408
 20
-1076.901297031182
 30
0.0
 11
-174.726798187408
 21
-1119.070207917936
 31
0.0
  0
LINE
  5
1E1CB
  8
1PHANTOM
 10
-176.476798187408
 20
-1070.370208117936
 30
0.0
 11
-174.726798187408
 21
-1076.901297031182
 31
0.0
  0
LINE
  5
1E1CC
  8
1PHANTOM
 10
-174.726798187408
 20
-1120.370208117936
 30
0.0
 11
-171.976798187408
 21
-1120.370208117936
 31
0.0
  0
LINE
  5
1E1CD
  8
1PHANTOM
 10
-176.476798187408
 20
-1070.370208117936
 30
0.0
 11
-178.226798187408
 21
-1076.901297031182
 31
0.0
  0
LINE
  5
1E1CE
  8
1PHANTOM
 10
-171.976798187408
 20
-1120.370208117936
 30
0.0
 11
-171.976798187408
 21
-1121.170208117936
 31
0.0
  0
LINE
  5
1E1CF
  8
1PHANTOM
 10
-178.226798187408
 20
-1076.901297031182
 30
0.0
 11
-178.226798187408
 21
-1119.102342531891
 31
0.0
  0
ARC
  5
1E1D0
  8
1PHANTOM
 10
-174.476798187408
 20
-1121.170208117936
 30
0.0
 40
2.5
 50
270.0
 51
0.0
  0
LINE
  5
1E1D1
  8
1PHANTOM
 10
-180.976798187408
 20
-1120.370208117936
 30
0.0
 11
-178.226798187408
 21
-1120.370208117936
 31
0.0
  0
LINE
  5
1E1D2
  8
1PHANTOM
 10
-178.476798187408
 20
-1123.670208117936
 30
0.0
 11
-174.476798187408
 21
-1123.670208117936
 31
0.0
  0
LINE
  5
1E1D3
  8
1PHANTOM
 10
-180.976798187408
 20
-1120.370208117936
 30
0.0
 11
-180.976798187408
 21
-1121.170208117936
 31
0.0
  0
ARC
  5
1E1D4
  8
1PHANTOM
 10
-178.476798187408
 20
-1121.170208117936
 30
0.0
 40
2.5
 50
180.0
 51
270.0
  0
LINE
  5
1E1D5
  8
1PHANTOM
 10
-174.1605312463722
 20
-1076.215595920098
 30
0.0
 11
-174.9105312463722
 21
-1076.365595920098
 31
0.0
  0
LINE
  5
1E1D6
  8
1PHANTOM
 10
-174.1605312463722
 20
-1076.215595920098
 30
0.0
 11
-178.5574357274628
 21
-1075.33621502388
 31
0.0
  0
LINE
  5
1E1D7
  8
1PHANTOM
 10
-175.2930177868908
 20
-1071.989098611994
 30
0.0
 11
-176.0430177868908
 21
-1072.139098611994
 31
0.0
  0
LINE
  5
1E1D8
  8
1PHANTOM
 10
-176.7901548743517
 20
-1071.389671194502
 30
0.0
 11
-177.5401548743517
 21
-1071.539671194502
 31
0.0
  0
LINE
  5
1E1D9
  8
1PHANTOM
 10
-175.2930177868908
 20
-1071.989098611994
 30
0.0
 11
-177.5401548743517
 21
-1071.539671194502
 31
0.0
  0
LINE
  5
1E1DA
  8
1PHANTOM
 10
-174.7267745166315
 20
-1074.102347266046
 30
0.0
 11
-175.4767745166315
 21
-1074.252347266046
 31
0.0
  0
LINE
  5
1E1DB
  8
1PHANTOM
 10
-177.298795300907
 20
-1073.287943109191
 30
0.0
 11
-178.048795300907
 21
-1073.437943109191
 31
0.0
  0
LINE
  5
1E1DC
  8
1PHANTOM
 10
-177.8074357274628
 20
-1075.186215023879
 30
0.0
 11
-178.5574357274628
 21
-1075.33621502388
 31
0.0
  0
LINE
  5
1E1DD
  8
1PHANTOM
 10
-174.7267745166315
 20
-1074.102347266046
 30
0.0
 11
-178.048795300907
 21
-1073.437943109191
 31
0.0
  0
LINE
  5
1E1DE
  8
1PHANTOM
 10
-173.976798187408
 20
-1090.25234253189
 30
0.0
 11
-174.726798187408
 21
-1090.402342531891
 31
0.0
  0
LINE
  5
1E1DF
  8
1PHANTOM
 10
-173.976798187408
 20
-1092.25234253189
 30
0.0
 11
-174.726798187408
 21
-1092.402342531891
 31
0.0
  0
LINE
  5
1E1E0
  8
1PHANTOM
 10
-173.976798187408
 20
-1086.25234253189
 30
0.0
 11
-174.726798187408
 21
-1086.402342531891
 31
0.0
  0
LINE
  5
1E1E1
  8
1PHANTOM
 10
-173.976798187408
 20
-1088.25234253189
 30
0.0
 11
-174.726798187408
 21
-1088.402342531891
 31
0.0
  0
LINE
  5
1E1E2
  8
1PHANTOM
 10
-173.976798187408
 20
-1084.25234253189
 30
0.0
 11
-174.726798187408
 21
-1084.402342531891
 31
0.0
  0
LINE
  5
1E1E3
  8
1PHANTOM
 10
-173.976798187408
 20
-1082.25234253189
 30
0.0
 11
-174.726798187408
 21
-1082.402342531891
 31
0.0
  0
LINE
  5
1E1E4
  8
1PHANTOM
 10
-173.976798187408
 20
-1092.25234253189
 30
0.0
 11
-178.976798187408
 21
-1091.25234253189
 31
0.0
  0
LINE
  5
1E1E5
  8
1PHANTOM
 10
-173.976798187408
 20
-1090.25234253189
 30
0.0
 11
-178.976798187408
 21
-1089.25234253189
 31
0.0
  0
LINE
  5
1E1E6
  8
1PHANTOM
 10
-173.976798187408
 20
-1088.25234253189
 30
0.0
 11
-178.976798187408
 21
-1087.25234253189
 31
0.0
  0
LINE
  5
1E1E7
  8
1PHANTOM
 10
-173.976798187408
 20
-1086.25234253189
 30
0.0
 11
-178.976798187408
 21
-1085.25234253189
 31
0.0
  0
LINE
  5
1E1E8
  8
1PHANTOM
 10
-173.976798187408
 20
-1084.25234253189
 30
0.0
 11
-178.976798187408
 21
-1083.25234253189
 31
0.0
  0
LINE
  5
1E1E9
  8
1PHANTOM
 10
-173.976798187408
 20
-1078.25234253189
 30
0.0
 11
-174.726798187408
 21
-1078.402342531891
 31
0.0
  0
LINE
  5
1E1EA
  8
1PHANTOM
 10
-173.976798187408
 20
-1080.25234253189
 30
0.0
 11
-174.726798187408
 21
-1080.402342531891
 31
0.0
  0
LINE
  5
1E1EB
  8
1PHANTOM
 10
-173.976798187408
 20
-1080.25234253189
 30
0.0
 11
-178.976798187408
 21
-1079.25234253189
 31
0.0
  0
LINE
  5
1E1EC
  8
1PHANTOM
 10
-173.976798187408
 20
-1078.25234253189
 30
0.0
 11
-178.976798187408
 21
-1077.25234253189
 31
0.0
  0
LINE
  5
1E1ED
  8
1PHANTOM
 10
-173.976798187408
 20
-1082.25234253189
 30
0.0
 11
-178.976798187408
 21
-1081.25234253189
 31
0.0
  0
LINE
  5
1E1EE
  8
1PHANTOM
 10
-178.226798187408
 20
-1085.10234253189
 30
0.0
 11
-178.976798187408
 21
-1085.25234253189
 31
0.0
  0
LINE
  5
1E1EF
  8
1PHANTOM
 10
-178.226798187408
 20
-1079.10234253189
 30
0.0
 11
-178.976798187408
 21
-1079.25234253189
 31
0.0
  0
LINE
  5
1E1F0
  8
1PHANTOM
 10
-178.226798187408
 20
-1077.10234253189
 30
0.0
 11
-178.976798187408
 21
-1077.25234253189
 31
0.0
  0
LINE
  5
1E1F1
  8
1PHANTOM
 10
-178.226798187408
 20
-1083.10234253189
 30
0.0
 11
-178.976798187408
 21
-1083.25234253189
 31
0.0
  0
LINE
  5
1E1F2
  8
1PHANTOM
 10
-178.226798187408
 20
-1081.10234253189
 30
0.0
 11
-178.976798187408
 21
-1081.25234253189
 31
0.0
  0
LINE
  5
1E1F3
  8
1PHANTOM
 10
-178.226798187408
 20
-1089.10234253189
 30
0.0
 11
-178.976798187408
 21
-1089.25234253189
 31
0.0
  0
LINE
  5
1E1F4
  8
1PHANTOM
 10
-178.226798187408
 20
-1087.10234253189
 30
0.0
 11
-178.976798187408
 21
-1087.25234253189
 31
0.0
  0
LINE
  5
1E1F5
  8
1PHANTOM
 10
-178.226798187408
 20
-1091.10234253189
 30
0.0
 11
-178.976798187408
 21
-1091.25234253189
 31
0.0
  0
LINE
  5
1E1F6
  8
1PHANTOM
 10
-178.226798187408
 20
-1093.10234253189
 30
0.0
 11
-178.976798187408
 21
-1093.25234253189
 31
0.0
  0
LINE
  5
1E1F7
  8
1PHANTOM
 10
-173.976798187408
 20
-1110.25234253189
 30
0.0
 11
-178.976798187408
 21
-1109.25234253189
 31
0.0
  0
LINE
  5
1E1F8
  8
1PHANTOM
 10
-173.976798187408
 20
-1098.25234253189
 30
0.0
 11
-174.726798187408
 21
-1098.402342531891
 31
0.0
  0
LINE
  5
1E1F9
  8
1PHANTOM
 10
-173.976798187408
 20
-1096.25234253189
 30
0.0
 11
-174.726798187408
 21
-1096.402342531891
 31
0.0
  0
LINE
  5
1E1FA
  8
1PHANTOM
 10
-173.976798187408
 20
-1094.25234253189
 30
0.0
 11
-174.726798187408
 21
-1094.402342531891
 31
0.0
  0
LINE
  5
1E1FB
  8
1PHANTOM
 10
-173.976798187408
 20
-1100.25234253189
 30
0.0
 11
-174.726798187408
 21
-1100.402342531891
 31
0.0
  0
LINE
  5
1E1FC
  8
1PHANTOM
 10
-173.976798187408
 20
-1102.25234253189
 30
0.0
 11
-174.726798187408
 21
-1102.402342531891
 31
0.0
  0
LINE
  5
1E1FD
  8
1PHANTOM
 10
-173.976798187408
 20
-1106.25234253189
 30
0.0
 11
-174.726798187408
 21
-1106.402342531891
 31
0.0
  0
LINE
  5
1E1FE
  8
1PHANTOM
 10
-173.976798187408
 20
-1104.25234253189
 30
0.0
 11
-174.726798187408
 21
-1104.402342531891
 31
0.0
  0
LINE
  5
1E1FF
  8
1PHANTOM
 10
-173.976798187408
 20
-1108.25234253189
 30
0.0
 11
-174.726798187408
 21
-1108.402342531891
 31
0.0
  0
LINE
  5
1E200
  8
1PHANTOM
 10
-173.976798187408
 20
-1098.25234253189
 30
0.0
 11
-178.976798187408
 21
-1097.25234253189
 31
0.0
  0
LINE
  5
1E201
  8
1PHANTOM
 10
-173.976798187408
 20
-1096.25234253189
 30
0.0
 11
-178.976798187408
 21
-1095.25234253189
 31
0.0
  0
LINE
  5
1E202
  8
1PHANTOM
 10
-173.976798187408
 20
-1100.25234253189
 30
0.0
 11
-178.976798187408
 21
-1099.25234253189
 31
0.0
  0
LINE
  5
1E203
  8
1PHANTOM
 10
-173.976798187408
 20
-1102.25234253189
 30
0.0
 11
-178.976798187408
 21
-1101.25234253189
 31
0.0
  0
LINE
  5
1E204
  8
1PHANTOM
 10
-173.976798187408
 20
-1104.25234253189
 30
0.0
 11
-178.976798187408
 21
-1103.25234253189
 31
0.0
  0
LINE
  5
1E205
  8
1PHANTOM
 10
-173.976798187408
 20
-1106.25234253189
 30
0.0
 11
-178.976798187408
 21
-1105.25234253189
 31
0.0
  0
LINE
  5
1E206
  8
1PHANTOM
 10
-173.976798187408
 20
-1108.25234253189
 30
0.0
 11
-178.976798187408
 21
-1107.25234253189
 31
0.0
  0
LINE
  5
1E207
  8
1PHANTOM
 10
-178.226798187408
 20
-1097.10234253189
 30
0.0
 11
-178.976798187408
 21
-1097.25234253189
 31
0.0
  0
LINE
  5
1E208
  8
1PHANTOM
 10
-178.226798187408
 20
-1095.10234253189
 30
0.0
 11
-178.976798187408
 21
-1095.25234253189
 31
0.0
  0
LINE
  5
1E209
  8
1PHANTOM
 10
-178.226798187408
 20
-1099.10234253189
 30
0.0
 11
-178.976798187408
 21
-1099.25234253189
 31
0.0
  0
LINE
  5
1E20A
  8
1PHANTOM
 10
-178.226798187408
 20
-1101.10234253189
 30
0.0
 11
-178.976798187408
 21
-1101.25234253189
 31
0.0
  0
LINE
  5
1E20B
  8
1PHANTOM
 10
-178.226798187408
 20
-1103.10234253189
 30
0.0
 11
-178.976798187408
 21
-1103.25234253189
 31
0.0
  0
LINE
  5
1E20C
  8
1PHANTOM
 10
-178.226798187408
 20
-1105.10234253189
 30
0.0
 11
-178.976798187408
 21
-1105.25234253189
 31
0.0
  0
LINE
  5
1E20D
  8
1PHANTOM
 10
-178.226798187408
 20
-1107.10234253189
 30
0.0
 11
-178.976798187408
 21
-1107.25234253189
 31
0.0
  0
LINE
  5
1E20E
  8
1PHANTOM
 10
-178.226798187408
 20
-1109.10234253189
 30
0.0
 11
-178.976798187408
 21
-1109.25234253189
 31
0.0
  0
LINE
  5
1E20F
  8
1PHANTOM
 10
-173.976798187408
 20
-1112.25234253189
 30
0.0
 11
-174.726798187408
 21
-1112.402342531891
 31
0.0
  0
LINE
  5
1E210
  8
1PHANTOM
 10
-173.976798187408
 20
-1114.25234253189
 30
0.0
 11
-174.726798187408
 21
-1114.402342531891
 31
0.0
  0
LINE
  5
1E211
  8
1PHANTOM
 10
-173.976798187408
 20
-1110.25234253189
 30
0.0
 11
-174.726798187408
 21
-1110.402342531891
 31
0.0
  0
LINE
  5
1E212
  8
1PHANTOM
 10
-173.976798187408
 20
-1116.25234253189
 30
0.0
 11
-174.726798187408
 21
-1116.402342531891
 31
0.0
  0
LINE
  5
1E213
  8
1PHANTOM
 10
-173.976798187408
 20
-1118.25234253189
 30
0.0
 11
-174.726798187408
 21
-1118.402342531891
 31
0.0
  0
LINE
  5
1E214
  8
1PHANTOM
 10
-173.976798187408
 20
-1114.25234253189
 30
0.0
 11
-178.976798187408
 21
-1113.25234253189
 31
0.0
  0
LINE
  5
1E215
  8
1PHANTOM
 10
-173.976798187408
 20
-1112.25234253189
 30
0.0
 11
-178.976798187408
 21
-1111.25234253189
 31
0.0
  0
LINE
  5
1E216
  8
1PHANTOM
 10
-173.976798187408
 20
-1116.25234253189
 30
0.0
 11
-178.976798187408
 21
-1115.25234253189
 31
0.0
  0
LINE
  5
1E217
  8
1PHANTOM
 10
-173.976798187408
 20
-1118.25234253189
 30
0.0
 11
-178.976798187408
 21
-1117.25234253189
 31
0.0
  0
LINE
  5
1E218
  8
1PHANTOM
 10
-178.226798187408
 20
-1113.10234253189
 30
0.0
 11
-178.976798187408
 21
-1113.25234253189
 31
0.0
  0
LINE
  5
1E219
  8
1PHANTOM
 10
-178.226798187408
 20
-1111.10234253189
 30
0.0
 11
-178.976798187408
 21
-1111.25234253189
 31
0.0
  0
LINE
  5
1E21A
  8
1PHANTOM
 10
-178.226798187408
 20
-1115.10234253189
 30
0.0
 11
-178.976798187408
 21
-1115.25234253189
 31
0.0
  0
LINE
  5
1E21B
  8
1PHANTOM
 10
-178.226798187408
 20
-1117.10234253189
 30
0.0
 11
-178.976798187408
 21
-1117.25234253189
 31
0.0
  0
LINE
  5
1E21C
  8
1PHANTOM
 10
-178.226798187408
 20
-1120.370208117936
 30
0.0
 11
-174.726798187408
 21
-1120.370208117936
 31
0.0
  0
LINE
  5
1E21D
  8
1PHANTOM
 10
-177.1267983375234
 20
-1120.370208117936
 30
0.0
 11
-175.8267983875236
 21
-1119.070207917936
 31
0.0
  0
LINE
  5
1E21E
  8
1CENTER
 10
-156.4767978448114
 20
-1124.409434060614
 30
0.0
 11
-156.4767978448114
 21
-1068.621597384381
 31
0.0
  0
LINE
  5
1E21F
  8
1PHANTOM
 10
-161.0767977447532
 20
-1120.370208117936
 30
0.0
 11
-161.0767977447532
 21
-1119.070207917936
 31
0.0
  0
LINE
  5
1E220
  8
1PHANTOM
 10
-151.8767979447535
 20
-1120.370208117936
 30
0.0
 11
-161.0767977447532
 21
-1120.370208117936
 31
0.0
  0
LINE
  5
1E221
  8
1PHANTOM
 10
-151.8767979447535
 20
-1119.070207917936
 30
0.0
 11
-161.0767977447532
 21
-1119.070207917936
 31
0.0
  0
LINE
  5
1E222
  8
1PHANTOM
 10
-151.8767979447535
 20
-1120.370208117936
 30
0.0
 11
-151.8767979447535
 21
-1119.070207917936
 31
0.0
  0
LINE
  5
1E223
  8
1PHANTOM
 10
-153.9767978447536
 20
-1094.25234253189
 30
0.0
 11
-158.9767978447536
 21
-1093.25234253189
 31
0.0
  0
LINE
  5
1E224
  8
1PHANTOM
 10
-154.7267978447536
 20
-1076.901297031182
 30
0.0
 11
-154.7267978447536
 21
-1119.070207917936
 31
0.0
  0
LINE
  5
1E225
  8
1PHANTOM
 10
-156.4767978447536
 20
-1070.370208117936
 30
0.0
 11
-154.7267978447536
 21
-1076.901297031182
 31
0.0
  0
LINE
  5
1E226
  8
1PHANTOM
 10
-154.7267978447536
 20
-1120.370208117936
 30
0.0
 11
-151.9767978447536
 21
-1120.370208117936
 31
0.0
  0
LINE
  5
1E227
  8
1PHANTOM
 10
-156.4767978447536
 20
-1070.370208117936
 30
0.0
 11
-158.2267978447536
 21
-1076.901297031182
 31
0.0
  0
LINE
  5
1E228
  8
1PHANTOM
 10
-151.9767978447536
 20
-1120.370208117936
 30
0.0
 11
-151.9767978447536
 21
-1121.170208117936
 31
0.0
  0
LINE
  5
1E229
  8
1PHANTOM
 10
-158.2267978447536
 20
-1076.901297031182
 30
0.0
 11
-158.2267978447536
 21
-1119.102342531891
 31
0.0
  0
ARC
  5
1E22A
  8
1PHANTOM
 10
-154.4767978447536
 20
-1121.170208117936
 30
0.0
 40
2.5
 50
270.0
 51
0.0
  0
LINE
  5
1E22B
  8
1PHANTOM
 10
-160.9767978447536
 20
-1120.370208117936
 30
0.0
 11
-158.2267978447536
 21
-1120.370208117936
 31
0.0
  0
LINE
  5
1E22C
  8
1PHANTOM
 10
-158.4767978447536
 20
-1123.670208117936
 30
0.0
 11
-154.4767978447536
 21
-1123.670208117936
 31
0.0
  0
LINE
  5
1E22D
  8
1PHANTOM
 10
-160.9767978447536
 20
-1120.370208117936
 30
0.0
 11
-160.9767978447536
 21
-1121.170208117936
 31
0.0
  0
ARC
  5
1E22E
  8
1PHANTOM
 10
-158.4767978447536
 20
-1121.170208117936
 30
0.0
 40
2.5
 50
180.0
 51
270.0
  0
LINE
  5
1E22F
  8
1PHANTOM
 10
-154.1605309037178
 20
-1076.215595920098
 30
0.0
 11
-154.9105309037178
 21
-1076.365595920098
 31
0.0
  0
LINE
  5
1E230
  8
1PHANTOM
 10
-154.1605309037178
 20
-1076.215595920098
 30
0.0
 11
-158.5574353848084
 21
-1075.33621502388
 31
0.0
  0
LINE
  5
1E231
  8
1PHANTOM
 10
-155.2930174442364
 20
-1071.989098611994
 30
0.0
 11
-156.0430174442364
 21
-1072.139098611994
 31
0.0
  0
LINE
  5
1E232
  8
1PHANTOM
 10
-156.7901545316973
 20
-1071.389671194502
 30
0.0
 11
-157.5401545316973
 21
-1071.539671194502
 31
0.0
  0
LINE
  5
1E233
  8
1PHANTOM
 10
-155.2930174442364
 20
-1071.989098611994
 30
0.0
 11
-157.5401545316973
 21
-1071.539671194502
 31
0.0
  0
LINE
  5
1E234
  8
1PHANTOM
 10
-154.7267741739771
 20
-1074.102347266046
 30
0.0
 11
-155.4767741739771
 21
-1074.252347266046
 31
0.0
  0
LINE
  5
1E235
  8
1PHANTOM
 10
-157.2987949582526
 20
-1073.287943109191
 30
0.0
 11
-158.0487949582526
 21
-1073.437943109191
 31
0.0
  0
LINE
  5
1E236
  8
1PHANTOM
 10
-157.8074353848084
 20
-1075.186215023879
 30
0.0
 11
-158.5574353848084
 21
-1075.33621502388
 31
0.0
  0
LINE
  5
1E237
  8
1PHANTOM
 10
-154.7267741739771
 20
-1074.102347266046
 30
0.0
 11
-158.0487949582526
 21
-1073.437943109191
 31
0.0
  0
LINE
  5
1E238
  8
1PHANTOM
 10
-153.9767978447536
 20
-1090.25234253189
 30
0.0
 11
-154.7267978447536
 21
-1090.402342531891
 31
0.0
  0
LINE
  5
1E239
  8
1PHANTOM
 10
-153.9767978447536
 20
-1092.25234253189
 30
0.0
 11
-154.7267978447536
 21
-1092.402342531891
 31
0.0
  0
LINE
  5
1E23A
  8
1PHANTOM
 10
-153.9767978447536
 20
-1086.25234253189
 30
0.0
 11
-154.7267978447536
 21
-1086.402342531891
 31
0.0
  0
LINE
  5
1E23B
  8
1PHANTOM
 10
-153.9767978447536
 20
-1088.25234253189
 30
0.0
 11
-154.7267978447536
 21
-1088.402342531891
 31
0.0
  0
LINE
  5
1E23C
  8
1PHANTOM
 10
-153.9767978447536
 20
-1084.25234253189
 30
0.0
 11
-154.7267978447536
 21
-1084.402342531891
 31
0.0
  0
LINE
  5
1E23D
  8
1PHANTOM
 10
-153.9767978447536
 20
-1082.25234253189
 30
0.0
 11
-154.7267978447536
 21
-1082.402342531891
 31
0.0
  0
LINE
  5
1E23E
  8
1PHANTOM
 10
-153.9767978447536
 20
-1092.25234253189
 30
0.0
 11
-158.9767978447536
 21
-1091.25234253189
 31
0.0
  0
LINE
  5
1E23F
  8
1PHANTOM
 10
-153.9767978447536
 20
-1090.25234253189
 30
0.0
 11
-158.9767978447536
 21
-1089.25234253189
 31
0.0
  0
LINE
  5
1E240
  8
1PHANTOM
 10
-153.9767978447536
 20
-1088.25234253189
 30
0.0
 11
-158.9767978447536
 21
-1087.25234253189
 31
0.0
  0
LINE
  5
1E241
  8
1PHANTOM
 10
-153.9767978447536
 20
-1086.25234253189
 30
0.0
 11
-158.9767978447536
 21
-1085.25234253189
 31
0.0
  0
LINE
  5
1E242
  8
1PHANTOM
 10
-153.9767978447536
 20
-1084.25234253189
 30
0.0
 11
-158.9767978447536
 21
-1083.25234253189
 31
0.0
  0
LINE
  5
1E243
  8
1PHANTOM
 10
-153.9767978447536
 20
-1078.25234253189
 30
0.0
 11
-154.7267978447536
 21
-1078.402342531891
 31
0.0
  0
LINE
  5
1E244
  8
1PHANTOM
 10
-153.9767978447536
 20
-1080.25234253189
 30
0.0
 11
-154.7267978447536
 21
-1080.402342531891
 31
0.0
  0
LINE
  5
1E245
  8
1PHANTOM
 10
-153.9767978447536
 20
-1080.25234253189
 30
0.0
 11
-158.9767978447536
 21
-1079.25234253189
 31
0.0
  0
LINE
  5
1E246
  8
1PHANTOM
 10
-153.9767978447536
 20
-1078.25234253189
 30
0.0
 11
-158.9767978447536
 21
-1077.25234253189
 31
0.0
  0
LINE
  5
1E247
  8
1PHANTOM
 10
-153.9767978447536
 20
-1082.25234253189
 30
0.0
 11
-158.9767978447536
 21
-1081.25234253189
 31
0.0
  0
LINE
  5
1E248
  8
1PHANTOM
 10
-158.2267978447536
 20
-1085.10234253189
 30
0.0
 11
-158.9767978447536
 21
-1085.25234253189
 31
0.0
  0
LINE
  5
1E249
  8
1PHANTOM
 10
-158.2267978447536
 20
-1079.10234253189
 30
0.0
 11
-158.9767978447536
 21
-1079.25234253189
 31
0.0
  0
LINE
  5
1E24A
  8
1PHANTOM
 10
-158.2267978447536
 20
-1077.10234253189
 30
0.0
 11
-158.9767978447536
 21
-1077.25234253189
 31
0.0
  0
LINE
  5
1E24B
  8
1PHANTOM
 10
-158.2267978447536
 20
-1083.10234253189
 30
0.0
 11
-158.9767978447536
 21
-1083.25234253189
 31
0.0
  0
LINE
  5
1E24C
  8
1PHANTOM
 10
-158.2267978447536
 20
-1081.10234253189
 30
0.0
 11
-158.9767978447536
 21
-1081.25234253189
 31
0.0
  0
LINE
  5
1E24D
  8
1PHANTOM
 10
-158.2267978447536
 20
-1089.10234253189
 30
0.0
 11
-158.9767978447536
 21
-1089.25234253189
 31
0.0
  0
LINE
  5
1E24E
  8
1PHANTOM
 10
-158.2267978447536
 20
-1087.10234253189
 30
0.0
 11
-158.9767978447536
 21
-1087.25234253189
 31
0.0
  0
LINE
  5
1E24F
  8
1PHANTOM
 10
-158.2267978447536
 20
-1091.10234253189
 30
0.0
 11
-158.9767978447536
 21
-1091.25234253189
 31
0.0
  0
LINE
  5
1E250
  8
1PHANTOM
 10
-158.2267978447536
 20
-1093.10234253189
 30
0.0
 11
-158.9767978447536
 21
-1093.25234253189
 31
0.0
  0
LINE
  5
1E251
  8
1PHANTOM
 10
-153.9767978447536
 20
-1110.25234253189
 30
0.0
 11
-158.9767978447536
 21
-1109.25234253189
 31
0.0
  0
LINE
  5
1E252
  8
1PHANTOM
 10
-153.9767978447536
 20
-1098.25234253189
 30
0.0
 11
-154.7267978447536
 21
-1098.402342531891
 31
0.0
  0
LINE
  5
1E253
  8
1PHANTOM
 10
-153.9767978447536
 20
-1096.25234253189
 30
0.0
 11
-154.7267978447536
 21
-1096.402342531891
 31
0.0
  0
LINE
  5
1E254
  8
1PHANTOM
 10
-153.9767978447536
 20
-1094.25234253189
 30
0.0
 11
-154.7267978447536
 21
-1094.402342531891
 31
0.0
  0
LINE
  5
1E255
  8
1PHANTOM
 10
-153.9767978447536
 20
-1100.25234253189
 30
0.0
 11
-154.7267978447536
 21
-1100.402342531891
 31
0.0
  0
LINE
  5
1E256
  8
1PHANTOM
 10
-153.9767978447536
 20
-1102.25234253189
 30
0.0
 11
-154.7267978447536
 21
-1102.402342531891
 31
0.0
  0
LINE
  5
1E257
  8
1PHANTOM
 10
-153.9767978447536
 20
-1106.25234253189
 30
0.0
 11
-154.7267978447536
 21
-1106.402342531891
 31
0.0
  0
LINE
  5
1E258
  8
1PHANTOM
 10
-153.9767978447536
 20
-1104.25234253189
 30
0.0
 11
-154.7267978447536
 21
-1104.402342531891
 31
0.0
  0
LINE
  5
1E259
  8
1PHANTOM
 10
-153.9767978447536
 20
-1108.25234253189
 30
0.0
 11
-154.7267978447536
 21
-1108.402342531891
 31
0.0
  0
LINE
  5
1E25A
  8
1PHANTOM
 10
-153.9767978447536
 20
-1098.25234253189
 30
0.0
 11
-158.9767978447536
 21
-1097.25234253189
 31
0.0
  0
LINE
  5
1E25B
  8
1PHANTOM
 10
-153.9767978447536
 20
-1096.25234253189
 30
0.0
 11
-158.9767978447536
 21
-1095.25234253189
 31
0.0
  0
LINE
  5
1E25C
  8
1PHANTOM
 10
-153.9767978447536
 20
-1100.25234253189
 30
0.0
 11
-158.9767978447536
 21
-1099.25234253189
 31
0.0
  0
LINE
  5
1E25D
  8
1PHANTOM
 10
-153.9767978447536
 20
-1102.25234253189
 30
0.0
 11
-158.9767978447536
 21
-1101.25234253189
 31
0.0
  0
LINE
  5
1E25E
  8
1PHANTOM
 10
-153.9767978447536
 20
-1104.25234253189
 30
0.0
 11
-158.9767978447536
 21
-1103.25234253189
 31
0.0
  0
LINE
  5
1E25F
  8
1PHANTOM
 10
-153.9767978447536
 20
-1106.25234253189
 30
0.0
 11
-158.9767978447536
 21
-1105.25234253189
 31
0.0
  0
LINE
  5
1E260
  8
1PHANTOM
 10
-153.9767978447536
 20
-1108.25234253189
 30
0.0
 11
-158.9767978447536
 21
-1107.25234253189
 31
0.0
  0
LINE
  5
1E261
  8
1PHANTOM
 10
-158.2267978447536
 20
-1097.10234253189
 30
0.0
 11
-158.9767978447536
 21
-1097.25234253189
 31
0.0
  0
LINE
  5
1E262
  8
1PHANTOM
 10
-158.2267978447536
 20
-1095.10234253189
 30
0.0
 11
-158.9767978447536
 21
-1095.25234253189
 31
0.0
  0
LINE
  5
1E263
  8
1PHANTOM
 10
-158.2267978447536
 20
-1099.10234253189
 30
0.0
 11
-158.9767978447536
 21
-1099.25234253189
 31
0.0
  0
LINE
  5
1E264
  8
1PHANTOM
 10
-158.2267978447536
 20
-1101.10234253189
 30
0.0
 11
-158.9767978447536
 21
-1101.25234253189
 31
0.0
  0
LINE
  5
1E265
  8
1PHANTOM
 10
-158.2267978447536
 20
-1103.10234253189
 30
0.0
 11
-158.9767978447536
 21
-1103.25234253189
 31
0.0
  0
LINE
  5
1E266
  8
1PHANTOM
 10
-158.2267978447536
 20
-1105.10234253189
 30
0.0
 11
-158.9767978447536
 21
-1105.25234253189
 31
0.0
  0
LINE
  5
1E267
  8
1PHANTOM
 10
-158.2267978447536
 20
-1107.10234253189
 30
0.0
 11
-158.9767978447536
 21
-1107.25234253189
 31
0.0
  0
LINE
  5
1E268
  8
1PHANTOM
 10
-158.2267978447536
 20
-1109.10234253189
 30
0.0
 11
-158.9767978447536
 21
-1109.25234253189
 31
0.0
  0
LINE
  5
1E269
  8
1PHANTOM
 10
-153.9767978447536
 20
-1112.25234253189
 30
0.0
 11
-154.7267978447536
 21
-1112.402342531891
 31
0.0
  0
LINE
  5
1E26A
  8
1PHANTOM
 10
-153.9767978447536
 20
-1114.25234253189
 30
0.0
 11
-154.7267978447536
 21
-1114.402342531891
 31
0.0
  0
LINE
  5
1E26B
  8
1PHANTOM
 10
-153.9767978447536
 20
-1110.25234253189
 30
0.0
 11
-154.7267978447536
 21
-1110.402342531891
 31
0.0
  0
LINE
  5
1E26C
  8
1PHANTOM
 10
-153.9767978447536
 20
-1116.25234253189
 30
0.0
 11
-154.7267978447536
 21
-1116.402342531891
 31
0.0
  0
LINE
  5
1E26D
  8
1PHANTOM
 10
-153.9767978447536
 20
-1118.25234253189
 30
0.0
 11
-154.7267978447536
 21
-1118.402342531891
 31
0.0
  0
LINE
  5
1E26E
  8
1PHANTOM
 10
-153.9767978447536
 20
-1114.25234253189
 30
0.0
 11
-158.9767978447536
 21
-1113.25234253189
 31
0.0
  0
LINE
  5
1E26F
  8
1PHANTOM
 10
-153.9767978447536
 20
-1112.25234253189
 30
0.0
 11
-158.9767978447536
 21
-1111.25234253189
 31
0.0
  0
LINE
  5
1E270
  8
1PHANTOM
 10
-153.9767978447536
 20
-1116.25234253189
 30
0.0
 11
-158.9767978447536
 21
-1115.25234253189
 31
0.0
  0
LINE
  5
1E271
  8
1PHANTOM
 10
-153.9767978447536
 20
-1118.25234253189
 30
0.0
 11
-158.9767978447536
 21
-1117.25234253189
 31
0.0
  0
LINE
  5
1E272
  8
1PHANTOM
 10
-158.2267978447536
 20
-1113.10234253189
 30
0.0
 11
-158.9767978447536
 21
-1113.25234253189
 31
0.0
  0
LINE
  5
1E273
  8
1PHANTOM
 10
-158.2267978447536
 20
-1111.10234253189
 30
0.0
 11
-158.9767978447536
 21
-1111.25234253189
 31
0.0
  0
LINE
  5
1E274
  8
1PHANTOM
 10
-158.2267978447536
 20
-1115.10234253189
 30
0.0
 11
-158.9767978447536
 21
-1115.25234253189
 31
0.0
  0
LINE
  5
1E275
  8
1PHANTOM
 10
-158.2267978447536
 20
-1117.10234253189
 30
0.0
 11
-158.9767978447536
 21
-1117.25234253189
 31
0.0
  0
LINE
  5
1E276
  8
1PHANTOM
 10
-158.2267978447536
 20
-1120.370208117936
 30
0.0
 11
-154.7267978447536
 21
-1120.370208117936
 31
0.0
  0
LINE
  5
1E277
  8
1PHANTOM
 10
-157.126797994869
 20
-1120.370208117936
 30
0.0
 11
-155.8267980448692
 21
-1119.070207917936
 31
0.0
  0
LINE
  5
1E27A
  8
1PHANTOM
 10
270.5227652238139
 20
-1119.070207917936
 30
0.0
 11
270.5227652238139
 21
-1115.570207917936
 31
0.0
  0
LINE
  5
1E27B
  8
1PHANTOM
 10
276.5227652238139
 20
-1119.070207917936
 30
0.0
 11
276.5227652238139
 21
-1115.570207917936
 31
0.0
  0
LINE
  5
1E2DC
  8
1CENTER
 10
397.683539014582
 20
-1263.370207917935
 30
0.0
 11
453.4713756908154
 21
-1263.370207917935
 31
0.0
  0
LINE
  5
1E2DD
  8
1PHANTOM
 10
401.72276495726
 20
-1267.970207817877
 30
0.0
 11
403.0227651572599
 21
-1267.970207817877
 31
0.0
  0
LINE
  5
1E2DE
  8
1PHANTOM
 10
401.72276495726
 20
-1258.770208017877
 30
0.0
 11
401.72276495726
 21
-1267.970207817877
 31
0.0
  0
LINE
  5
1E2DF
  8
1PHANTOM
 10
403.0227651572599
 20
-1258.770208017877
 30
0.0
 11
403.0227651572599
 21
-1267.970207817877
 31
0.0
  0
LINE
  5
1E2E0
  8
1PHANTOM
 10
401.72276495726
 20
-1258.770208017877
 30
0.0
 11
403.0227651572599
 21
-1258.770208017877
 31
0.0
  0
LINE
  5
1E2E1
  8
1PHANTOM
 10
427.8406305433058
 20
-1260.870207917877
 30
0.0
 11
428.8406305433058
 21
-1265.870207917877
 31
0.0
  0
LINE
  5
1E2E2
  8
1PHANTOM
 10
445.1916760440144
 20
-1261.620207917877
 30
0.0
 11
403.0227651572599
 21
-1261.620207917877
 31
0.0
  0
LINE
  5
1E2E3
  8
1PHANTOM
 10
451.72276495726
 20
-1263.370207917877
 30
0.0
 11
445.1916760440144
 21
-1261.620207917877
 31
0.0
  0
LINE
  5
1E2E4
  8
1PHANTOM
 10
401.72276495726
 20
-1261.620207917877
 30
0.0
 11
401.72276495726
 21
-1258.870207917877
 31
0.0
  0
LINE
  5
1E2E5
  8
1PHANTOM
 10
451.72276495726
 20
-1263.370207917877
 30
0.0
 11
445.1916760440144
 21
-1265.120207917877
 31
0.0
  0
LINE
  5
1E2E6
  8
1PHANTOM
 10
401.72276495726
 20
-1258.870207917877
 30
0.0
 11
400.9227649572603
 21
-1258.870207917877
 31
0.0
  0
LINE
  5
1E2E7
  8
1PHANTOM
 10
445.1916760440144
 20
-1265.120207917877
 30
0.0
 11
402.9906305433055
 21
-1265.120207917877
 31
0.0
  0
ARC
  5
1E2E8
  8
1PHANTOM
 10
400.9227649572599
 20
-1261.370207917877
 30
0.0
 40
2.5
 50
90.0
 51
180.0
  0
LINE
  5
1E2E9
  8
1PHANTOM
 10
401.72276495726
 20
-1267.870207917877
 30
0.0
 11
401.72276495726
 21
-1265.120207917877
 31
0.0
  0
LINE
  5
1E2EA
  8
1PHANTOM
 10
398.4227649572599
 20
-1265.370207917877
 30
0.0
 11
398.4227649572599
 21
-1261.370207917877
 31
0.0
  0
LINE
  5
1E2EB
  8
1PHANTOM
 10
401.72276495726
 20
-1267.870207917877
 30
0.0
 11
400.9227649572599
 21
-1267.870207917877
 31
0.0
  0
ARC
  5
1E2EC
  8
1PHANTOM
 10
400.9227649572599
 20
-1265.370207917877
 30
0.0
 40
2.5
 50
180.0
 51
270.0
  0
LINE
  5
1E2ED
  8
1PHANTOM
 10
445.8773771550986
 20
-1261.053940976841
 30
0.0
 11
445.7273771550985
 21
-1261.803940976841
 31
0.0
  0
LINE
  5
1E2EE
  8
1PHANTOM
 10
445.8773771550986
 20
-1261.053940976841
 30
0.0
 11
446.7567580513168
 21
-1265.450845457932
 31
0.0
  0
LINE
  5
1E2EF
  8
1PHANTOM
 10
450.1038744632023
 20
-1262.18642751736
 30
0.0
 11
449.9538744632022
 21
-1262.93642751736
 31
0.0
  0
LINE
  5
1E2F0
  8
1PHANTOM
 10
450.7033018806946
 20
-1263.683564604821
 30
0.0
 11
450.5533018806945
 21
-1264.433564604821
 31
0.0
  0
LINE
  5
1E2F1
  8
1PHANTOM
 10
450.1038744632023
 20
-1262.18642751736
 30
0.0
 11
450.5533018806945
 21
-1264.433564604821
 31
0.0
  0
LINE
  5
1E2F2
  8
1PHANTOM
 10
447.9906258091505
 20
-1261.6201842471
 30
0.0
 11
447.8406258091504
 21
-1262.3701842471
 31
0.0
  0
LINE
  5
1E2F3
  8
1PHANTOM
 10
448.8050299660057
 20
-1264.192205031376
 30
0.0
 11
448.6550299660057
 21
-1264.942205031376
 31
0.0
  0
LINE
  5
1E2F4
  8
1PHANTOM
 10
446.9067580513169
 20
-1264.700845457932
 30
0.0
 11
446.7567580513168
 21
-1265.450845457932
 31
0.0
  0
LINE
  5
1E2F5
  8
1PHANTOM
 10
447.9906258091505
 20
-1261.6201842471
 30
0.0
 11
448.6550299660057
 21
-1264.942205031376
 31
0.0
  0
LINE
  5
1E2F6
  8
1PHANTOM
 10
431.8406305433058
 20
-1260.870207917877
 30
0.0
 11
431.6906305433058
 21
-1261.620207917877
 31
0.0
  0
LINE
  5
1E2F7
  8
1PHANTOM
 10
429.8406305433058
 20
-1260.870207917877
 30
0.0
 11
429.6906305433058
 21
-1261.620207917877
 31
0.0
  0
LINE
  5
1E2F8
  8
1PHANTOM
 10
435.8406305433058
 20
-1260.870207917877
 30
0.0
 11
435.6906305433058
 21
-1261.620207917877
 31
0.0
  0
LINE
  5
1E2F9
  8
1PHANTOM
 10
433.8406305433058
 20
-1260.870207917877
 30
0.0
 11
433.6906305433058
 21
-1261.620207917877
 31
0.0
  0
LINE
  5
1E2FA
  8
1PHANTOM
 10
437.8406305433058
 20
-1260.870207917877
 30
0.0
 11
437.6906305433058
 21
-1261.620207917877
 31
0.0
  0
LINE
  5
1E2FB
  8
1PHANTOM
 10
439.8406305433058
 20
-1260.870207917877
 30
0.0
 11
439.6906305433058
 21
-1261.620207917877
 31
0.0
  0
LINE
  5
1E2FC
  8
1PHANTOM
 10
429.8406305433058
 20
-1260.870207917877
 30
0.0
 11
430.8406305433058
 21
-1265.870207917877
 31
0.0
  0
LINE
  5
1E2FD
  8
1PHANTOM
 10
431.8406305433058
 20
-1260.870207917877
 30
0.0
 11
432.8406305433058
 21
-1265.870207917877
 31
0.0
  0
LINE
  5
1E2FE
  8
1PHANTOM
 10
433.8406305433058
 20
-1260.870207917877
 30
0.0
 11
434.8406305433058
 21
-1265.870207917877
 31
0.0
  0
LINE
  5
1E2FF
  8
1PHANTOM
 10
435.8406305433058
 20
-1260.870207917877
 30
0.0
 11
436.8406305433058
 21
-1265.870207917877
 31
0.0
  0
LINE
  5
1E300
  8
1PHANTOM
 10
437.8406305433058
 20
-1260.870207917877
 30
0.0
 11
438.8406305433058
 21
-1265.870207917877
 31
0.0
  0
LINE
  5
1E301
  8
1PHANTOM
 10
443.8406305433058
 20
-1260.870207917877
 30
0.0
 11
443.6906305433058
 21
-1261.620207917877
 31
0.0
  0
LINE
  5
1E302
  8
1PHANTOM
 10
441.8406305433058
 20
-1260.870207917877
 30
0.0
 11
441.6906305433058
 21
-1261.620207917877
 31
0.0
  0
LINE
  5
1E303
  8
1PHANTOM
 10
441.8406305433058
 20
-1260.870207917877
 30
0.0
 11
442.8406305433058
 21
-1265.870207917877
 31
0.0
  0
LINE
  5
1E304
  8
1PHANTOM
 10
443.8406305433058
 20
-1260.870207917877
 30
0.0
 11
444.8406305433058
 21
-1265.870207917877
 31
0.0
  0
LINE
  5
1E305
  8
1PHANTOM
 10
439.8406305433058
 20
-1260.870207917877
 30
0.0
 11
440.8406305433058
 21
-1265.870207917877
 31
0.0
  0
LINE
  5
1E306
  8
1PHANTOM
 10
436.9906305433059
 20
-1265.120207917877
 30
0.0
 11
436.8406305433058
 21
-1265.870207917877
 31
0.0
  0
LINE
  5
1E307
  8
1PHANTOM
 10
442.9906305433059
 20
-1265.120207917877
 30
0.0
 11
442.8406305433058
 21
-1265.870207917877
 31
0.0
  0
LINE
  5
1E308
  8
1PHANTOM
 10
444.9906305433059
 20
-1265.120207917877
 30
0.0
 11
444.8406305433058
 21
-1265.870207917877
 31
0.0
  0
LINE
  5
1E309
  8
1PHANTOM
 10
438.9906305433059
 20
-1265.120207917877
 30
0.0
 11
438.8406305433058
 21
-1265.870207917877
 31
0.0
  0
LINE
  5
1E30A
  8
1PHANTOM
 10
440.9906305433059
 20
-1265.120207917877
 30
0.0
 11
440.8406305433058
 21
-1265.870207917877
 31
0.0
  0
LINE
  5
1E30B
  8
1PHANTOM
 10
432.9906305433059
 20
-1265.120207917877
 30
0.0
 11
432.8406305433058
 21
-1265.870207917877
 31
0.0
  0
LINE
  5
1E30C
  8
1PHANTOM
 10
434.9906305433059
 20
-1265.120207917877
 30
0.0
 11
434.8406305433058
 21
-1265.870207917877
 31
0.0
  0
LINE
  5
1E30D
  8
1PHANTOM
 10
430.9906305433059
 20
-1265.120207917877
 30
0.0
 11
430.8406305433058
 21
-1265.870207917877
 31
0.0
  0
LINE
  5
1E30E
  8
1PHANTOM
 10
428.9906305433059
 20
-1265.120207917877
 30
0.0
 11
428.8406305433058
 21
-1265.870207917877
 31
0.0
  0
LINE
  5
1E30F
  8
1PHANTOM
 10
411.8406305433058
 20
-1260.870207917877
 30
0.0
 11
412.8406305433058
 21
-1265.870207917877
 31
0.0
  0
LINE
  5
1E310
  8
1PHANTOM
 10
423.8406305433058
 20
-1260.870207917877
 30
0.0
 11
423.6906305433058
 21
-1261.620207917877
 31
0.0
  0
LINE
  5
1E311
  8
1PHANTOM
 10
425.8406305433058
 20
-1260.870207917877
 30
0.0
 11
425.6906305433058
 21
-1261.620207917877
 31
0.0
  0
LINE
  5
1E312
  8
1PHANTOM
 10
427.8406305433058
 20
-1260.870207917877
 30
0.0
 11
427.6906305433058
 21
-1261.620207917877
 31
0.0
  0
LINE
  5
1E313
  8
1PHANTOM
 10
421.8406305433058
 20
-1260.870207917877
 30
0.0
 11
421.6906305433058
 21
-1261.620207917877
 31
0.0
  0
LINE
  5
1E314
  8
1PHANTOM
 10
419.8406305433058
 20
-1260.870207917877
 30
0.0
 11
419.6906305433058
 21
-1261.620207917877
 31
0.0
  0
LINE
  5
1E315
  8
1PHANTOM
 10
415.8406305433058
 20
-1260.870207917877
 30
0.0
 11
415.6906305433058
 21
-1261.620207917877
 31
0.0
  0
LINE
  5
1E316
  8
1PHANTOM
 10
417.8406305433058
 20
-1260.870207917877
 30
0.0
 11
417.6906305433058
 21
-1261.620207917877
 31
0.0
  0
LINE
  5
1E317
  8
1PHANTOM
 10
413.8406305433058
 20
-1260.870207917877
 30
0.0
 11
413.6906305433058
 21
-1261.620207917877
 31
0.0
  0
LINE
  5
1E318
  8
1PHANTOM
 10
423.8406305433058
 20
-1260.870207917877
 30
0.0
 11
424.8406305433058
 21
-1265.870207917877
 31
0.0
  0
LINE
  5
1E319
  8
1PHANTOM
 10
425.8406305433058
 20
-1260.870207917877
 30
0.0
 11
426.8406305433058
 21
-1265.870207917877
 31
0.0
  0
LINE
  5
1E31A
  8
1PHANTOM
 10
421.8406305433058
 20
-1260.870207917877
 30
0.0
 11
422.8406305433058
 21
-1265.870207917877
 31
0.0
  0
LINE
  5
1E31B
  8
1PHANTOM
 10
419.8406305433058
 20
-1260.870207917877
 30
0.0
 11
420.8406305433058
 21
-1265.870207917877
 31
0.0
  0
LINE
  5
1E31C
  8
1PHANTOM
 10
417.8406305433058
 20
-1260.870207917877
 30
0.0
 11
418.8406305433058
 21
-1265.870207917877
 31
0.0
  0
LINE
  5
1E31D
  8
1PHANTOM
 10
415.8406305433058
 20
-1260.870207917877
 30
0.0
 11
416.8406305433058
 21
-1265.870207917877
 31
0.0
  0
LINE
  5
1E31E
  8
1PHANTOM
 10
413.8406305433058
 20
-1260.870207917877
 30
0.0
 11
414.8406305433058
 21
-1265.870207917877
 31
0.0
  0
LINE
  5
1E31F
  8
1PHANTOM
 10
424.9906305433059
 20
-1265.120207917877
 30
0.0
 11
424.8406305433058
 21
-1265.870207917877
 31
0.0
  0
LINE
  5
1E320
  8
1PHANTOM
 10
426.9906305433059
 20
-1265.120207917877
 30
0.0
 11
426.8406305433058
 21
-1265.870207917877
 31
0.0
  0
LINE
  5
1E321
  8
1PHANTOM
 10
422.9906305433059
 20
-1265.120207917877
 30
0.0
 11
422.8406305433058
 21
-1265.870207917877
 31
0.0
  0
LINE
  5
1E322
  8
1PHANTOM
 10
420.9906305433059
 20
-1265.120207917877
 30
0.0
 11
420.8406305433058
 21
-1265.870207917877
 31
0.0
  0
LINE
  5
1E323
  8
1PHANTOM
 10
418.9906305433059
 20
-1265.120207917877
 30
0.0
 11
418.8406305433058
 21
-1265.870207917877
 31
0.0
  0
LINE
  5
1E324
  8
1PHANTOM
 10
416.9906305433059
 20
-1265.120207917877
 30
0.0
 11
416.8406305433058
 21
-1265.870207917877
 31
0.0
  0
LINE
  5
1E325
  8
1PHANTOM
 10
414.9906305433059
 20
-1265.120207917877
 30
0.0
 11
414.8406305433058
 21
-1265.870207917877
 31
0.0
  0
LINE
  5
1E326
  8
1PHANTOM
 10
412.9906305433059
 20
-1265.120207917877
 30
0.0
 11
412.8406305433058
 21
-1265.870207917877
 31
0.0
  0
LINE
  5
1E327
  8
1PHANTOM
 10
409.8406305433058
 20
-1260.870207917877
 30
0.0
 11
409.6906305433058
 21
-1261.620207917877
 31
0.0
  0
LINE
  5
1E328
  8
1PHANTOM
 10
407.8406305433058
 20
-1260.870207917877
 30
0.0
 11
407.6906305433058
 21
-1261.620207917877
 31
0.0
  0
LINE
  5
1E329
  8
1PHANTOM
 10
411.8406305433058
 20
-1260.870207917877
 30
0.0
 11
411.6906305433058
 21
-1261.620207917877
 31
0.0
  0
LINE
  5
1E32A
  8
1PHANTOM
 10
405.8406305433058
 20
-1260.870207917877
 30
0.0
 11
405.6906305433058
 21
-1261.620207917877
 31
0.0
  0
LINE
  5
1E32B
  8
1PHANTOM
 10
403.8406305433058
 20
-1260.870207917877
 30
0.0
 11
403.6906305433058
 21
-1261.620207917877
 31
0.0
  0
LINE
  5
1E32C
  8
1PHANTOM
 10
407.8406305433058
 20
-1260.870207917877
 30
0.0
 11
408.8406305433058
 21
-1265.870207917877
 31
0.0
  0
LINE
  5
1E32D
  8
1PHANTOM
 10
409.8406305433058
 20
-1260.870207917877
 30
0.0
 11
410.8406305433058
 21
-1265.870207917877
 31
0.0
  0
LINE
  5
1E32E
  8
1PHANTOM
 10
405.8406305433058
 20
-1260.870207917877
 30
0.0
 11
406.8406305433058
 21
-1265.870207917877
 31
0.0
  0
LINE
  5
1E32F
  8
1PHANTOM
 10
403.8406305433058
 20
-1260.870207917877
 30
0.0
 11
404.8406305433058
 21
-1265.870207917877
 31
0.0
  0
LINE
  5
1E330
  8
1PHANTOM
 10
408.9906305433059
 20
-1265.120207917877
 30
0.0
 11
408.8406305433058
 21
-1265.870207917877
 31
0.0
  0
LINE
  5
1E331
  8
1PHANTOM
 10
410.9906305433059
 20
-1265.120207917877
 30
0.0
 11
410.8406305433058
 21
-1265.870207917877
 31
0.0
  0
LINE
  5
1E332
  8
1PHANTOM
 10
406.9906305433059
 20
-1265.120207917877
 30
0.0
 11
406.8406305433058
 21
-1265.870207917877
 31
0.0
  0
LINE
  5
1E333
  8
1PHANTOM
 10
404.9906305433059
 20
-1265.120207917877
 30
0.0
 11
404.8406305433058
 21
-1265.870207917877
 31
0.0
  0
LINE
  5
1E334
  8
1PHANTOM
 10
401.72276495726
 20
-1265.120207917877
 30
0.0
 11
401.72276495726
 21
-1261.620207917877
 31
0.0
  0
LINE
  5
1E335
  8
1PHANTOM
 10
401.72276495726
 20
-1264.020208067992
 30
0.0
 11
403.0227651572599
 21
-1262.720208117993
 31
0.0
  0
LINE
  5
1E9BF
  8
01
 10
270.7727652238707
 20
-1261.870207917935
 30
0.0
 11
270.7727652238707
 21
-1264.870207917935
 31
0.0
  0
CIRCLE
  5
1E9C0
  8
01
 10
293.5227652238707
 20
-1263.370207917935
 30
0.0
 40
2.75
  0
ARC
  5
1E9C1
  8
01
 10
-273.5227652238707
 20
-1261.870207917935
 30
0.0
 40
2.75
 50
0.0
 51
180.0
210
0.0
220
0.0
230
-1.0
  0
ARC
  5
1E9C2
  8
01
 10
-273.5227652238707
 20
-1264.870207917935
 30
0.0
 40
2.75
 50
180.0
 51
0.0
210
0.0
220
0.0
230
-1.0
  0
LINE
  5
1E9C3
  8
01
 10
276.2727652238707
 20
-1264.870207917935
 30
0.0
 11
276.2727652238707
 21
-1261.870207917935
 31
0.0
  0
LINE
  5
1E9C5
  8
1CENTER
  6
BYBLOCK
 10
273.5227652238721
 20
-1268.431870455165
 30
0.0
 11
273.522765223872
 21
-1258.308545380704
 31
0.0
  0
LINE
  5
1E9C7
  8
1CENTER
  6
BYBLOCK
 10
-176.4767978448692
 20
-1267.83412604493
 30
0.0
 11
-176.4767978448683
 21
-1258.906289790939
 31
0.0
  0
LINE
  5
1E9C8
  8
1PHANTOM
 10
-149.9763607803763
 20
-1250.840207896384
 30
0.0
 11
-182.9767978448692
 21
-1250.840207896384
 31
0.0
  0
ARC
  5
1E9C9
  8
1PHANTOM
 10
-149.9763607803763
 20
-1251.840207896384
 30
0.0
 40
1.0
 50
0.0000000000260551
 51
90.0
  0
LINE
  5
1E9CA
  8
1PHANTOM
 10
-149.9763607803763
 20
-1275.840207901937
 30
0.0
 11
-182.9767978448692
 21
-1275.840207901933
 31
0.0
  0
ARC
  5
1E9CB
  8
1PHANTOM
 10
-149.9763607803763
 20
-1274.840207901937
 30
0.0
 40
1.0
 50
270.0
 51
0.0
  0
LINE
  5
1E9CC
  8
1PHANTOM
 10
-148.9763607803745
 20
-1274.870207917932
 30
0.0
 11
-148.9763607803763
 21
-1251.87020791793
 31
0.0
  0
LINE
  5
1E9CD
  8
1PHANTOM
 10
-183.9767978448692
 20
-1274.870207917928
 30
0.0
 11
-183.9767978448692
 21
-1251.840207896384
 31
0.0
  0
ARC
  5
1E9CE
  8
1PHANTOM
 10
-182.9767978448692
 20
-1274.840207901933
 30
0.0
 40
1.0
 50
180.0
 51
270.0
  0
ARC
  5
1E9CF
  8
1PHANTOM
 10
-182.9767978448692
 20
-1251.840207896384
 30
0.0
 40
1.0
 50
90.0
 51
180.0
  0
LINE
  5
1E9D0
  8
1CENTER
 10
-151.3863615392983
 20
-1263.370207917935
 30
0.0
 11
-181.5672341504409
 21
-1263.370207917935
 31
0.0
  0
LINE
  5
1E9D1
  8
01
 10
-153.7267978448692
 20
-1261.870207917935
 30
0.0
 11
-153.7267978448692
 21
-1264.870207917935
 31
0.0
  0
CIRCLE
  5
1E9D2
  8
01
 10
-176.4767978448692
 20
-1263.370207917935
 30
0.0
 40
2.75
  0
ARC
  5
1E9D3
  8
01
 10
156.4767978448692
 20
-1261.870207917935
 30
0.0
 40
2.75
 50
0.0
 51
180.0
210
0.0
220
0.0
230
-1.0
  0
ARC
  5
1E9D4
  8
01
 10
156.4767978448692
 20
-1264.870207917935
 30
0.0
 40
2.75
 50
180.0
 51
0.0
210
0.0
220
0.0
230
-1.0
  0
LINE
  5
1E9D5
  8
01
 10
-159.2267978448692
 20
-1264.870207917935
 30
0.0
 11
-159.2267978448692
 21
-1261.870207917935
 31
0.0
  0
LINE
  5
1E9D6
  8
1CENTER
  6
BYBLOCK
 10
-156.4767978448705
 20
-1268.431870455165
 30
0.0
 11
-156.4767978448704
 21
-1258.308545380704
 31
0.0
  0
LINE
  5
1EA7C
  8
1DIM
 10
343.722765157252
 20
-1263.370207917935
 30
0.0
 11
343.722765157252
 21
-1224.264534912756
 31
0.0
1001
ACAD
1000
DSTYLE
1002
{
1070
    40
1040
1.0
1070
   271
1070
     0
1002
}
  0
LINE
  5
1EA7D
  8
1DIM
 10
406.5227651572602
 20
-1248.170207917932
 30
0.0
 11
406.5227651572602
 21
-1224.264534912756
 31
0.0
1001
ACAD
1000
DSTYLE
1002
{
1070
    40
1040
1.0
1070
   271
1070
     0
1002
}
  0
LINE
  5
1EA7E
  8
1DIM
 10
345.722765157252
 20
-1225.264534912756
 30
0.0
 11
404.5227651572602
 21
-1225.264534912756
 31
0.0
1001
ACAD
1000
DSTYLE
1002
{
1070
    40
1040
1.0
1070
   271
1070
     0
1002
}
  0
SOLID
  5
1EA82
  8
1DIM
 10
423.7711814392788
 20
-1225.122756763868
 30
0.0
 11
422.5918525455274
 21
-1226.772088286477
 31
0.0
 12
423.1725155998513
 22
-1224.829424772522
 32
0.0
 13
423.1725155998513
 23
-1224.829424772522
 33
0.0
  0
LINE
  5
1EA83
  8
1DIM
 10
423.4718485195651
 20
-1224.976090768195
 30
0.0
 11
430.8783109168094
 21
-1209.860126062502
 31
0.0
  0
LINE
  5
1EA84
  8
1DIM
 10
430.8783109168094
 20
-1209.860126062502
 30
0.0
 11
469.2616442501427
 21
-1209.860126062502
 31
0.0
  0
TEXT
  5
1EA85
  8
1DIM
  6
CONTINUOUS
 10
433.5783109168094
 20
-1203.321931618058
 30
0.0
 40
3.5
  1
合板12mm以上
  0
TEXT
  5
1EA86
  8
1DIM
  6
CONTINUOUS
 10
430.7783109168093
 20
-1209.160126062502
 30
0.0
 40
3.5
  1
（15mm以上推奨）
  0
SOLID
  5
1EA87
  8
1DIM
 10
411.1947504083248
 20
-1225.38480913596
 30
0.0
 11
409.9386479439126
 21
-1226.976449079543
 31
0.0
 12
410.6106454285459
 22
-1225.063459144453
 32
0.0
 13
410.6106454285459
 23
-1225.063459144453
 33
0.0
  0
LINE
  5
1EA88
  8
1DIM
 10
410.9026979184354
 20
-1225.224134140206
 30
0.0
 11
427.1409216812242
 21
-1195.708566649098
 31
0.0
  0
LINE
  5
1EA89
  8
1DIM
 10
427.1409216812242
 20
-1195.708566649098
 30
0.0
 11
435.6742550145576
 21
-1195.708566649098
 31
0.0
  0
TEXT
  5
1EA8A
  8
1DIM
  6
CONTINUOUS
 10
429.8409216812242
 20
-1195.008566649098
 30
0.0
 40
3.5
  1
PB
  0
SOLID
  5
1EA8B
  8
1DIM
 10
164.7171434728265
 20
-1156.52522787368
 30
0.0
 11
163.0621930388713
 21
-1157.696658696334
 31
0.0
 12
164.2477631825629
 22
-1156.051807777406
 32
0.0
 13
164.2477631825629
 23
-1156.051807777406
 33
0.0
  0
LINE
  5
1EA8C
  8
1DIM
 10
164.4824533276947
 20
-1156.288517825543
 30
0.0
 11
193.4922469536662
 21
-1127.526271651795
 31
0.0
  0
LINE
  5
1EA8D
  8
1DIM
 10
193.4922469536662
 20
-1127.526271651795
 30
0.0
 11
241.4589136203329
 21
-1127.526271651795
 31
0.0
  0
TEXT
  5
1EA8E
  8
1DIM
  6
CONTINUOUS
 10
195.9589136203329
 20
-1120.992938318462
 30
0.0
 40
3.5
  1
材質：ステンレス
  0
TEXT
  5
1EA8F
  8
1DIM
  6
CONTINUOUS
 10
196.0755802869995
 20
-1126.826271651795
 30
0.0
 40
3.5
  1
仕上げ：各種仕上げ
  0
SOLID
  5
1EA90
  8
1DIM
 10
285.2357900706797
 20
-1150.458575075252
 30
0.0
 11
284.4999318616244
 21
-1148.569230266257
 31
0.0
 12
285.8087744298644
 22
-1150.11779161237
 32
0.0
 13
285.8087744298644
 23
-1150.11779161237
 33
0.0
  0
LINE
  5
1EA91
  8
1DIM
 10
285.5222822502721
 20
-1150.288183343811
 30
0.0
 11
299.2491871031755
 21
-1173.368240439891
 31
0.0
  0
LINE
  5
1EA92
  8
1DIM
 10
299.2491871031755
 20
-1173.368240439891
 30
0.0
 11
347.2158537698422
 21
-1173.368240439891
 31
0.0
  0
TEXT
  5
1EA93
  8
1DIM
  6
CONTINUOUS
 10
301.7158537698422
 20
-1166.834907106558
 30
0.0
 40
3.5
  1
材質：ステンレス
  0
TEXT
  5
1EA94
  8
1DIM
  6
CONTINUOUS
 10
301.8325204365088
 20
-1172.668240439891
 30
0.0
 40
3.5
  1
仕上げ：各種仕上げ
  0
LINE
  5
1EA95
  8
1DIM
 10
402.0227651572602
 20
-1248.17020791793
 30
0.0
 11
328.4929033479738
 21
-1248.17020791793
 31
0.0
1001
ACAD
1000
DSTYLE
1002
{
1070
    40
1040
1.0
1070
   271
1070
     0
1002
}
  0
LINE
  5
1EA96
  8
1DIM
 10
402.022765157262
 20
-1278.570207917932
 30
0.0
 11
328.4929033479738
 21
-1278.570207917932
 31
0.0
1001
ACAD
1000
DSTYLE
1002
{
1070
    40
1040
1.0
1070
   271
1070
     0
1002
}
  0
LINE
  5
1EA97
  8
1DIM
 10
329.4929033479738
 20
-1250.17020791793
 30
0.0
 11
329.4929033479738
 21
-1276.570207917932
 31
0.0
1001
ACAD
1000
DSTYLE
1002
{
1070
    40
1040
1.0
1070
   271
1070
     0
1002
}
  0
LINE
  5
1EA9B
  8
1DIM1
 10
303.7227651572474
 20
-1249.170207917929
 30
0.0
 11
303.7227651572474
 21
-1196.370207917935
 31
0.0
1001
ACAD
1000
DSTYLE
1002
{
1070
    40
1040
2.0
1002
}
  0
LINE
  5
1EA9C
  8
1DIM1
 10
-186.6767977782449
 20
-1249.170207917929
 30
0.0
 11
-186.6767977782449
 21
-1196.370207917935
 31
0.0
1001
ACAD
1000
DSTYLE
1002
{
1070
    40
1040
2.0
1002
}
  0
LINE
  5
1EA9D
  8
1DIM1
 10
299.7227651572474
 20
-1198.370207917935
 30
0.0
 11
-182.6767977782449
 21
-1198.370207917935
 31
0.0
1001
ACAD
1000
DSTYLE
1002
{
1070
    40
1040
2.0
1002
}
  0
LINE
  5
1EAA1
  8
1DIM1
 10
-166.4767978448691
 20
-1255.293603714173
 30
0.0
 11
-166.4767978448691
 21
-1223.264534912756
 31
0.0
1001
ACAD
1000
DSTYLE
1002
{
1070
    40
1040
2.0
1002
}
  0
LINE
  5
1EAA2
  8
1DIM1
 10
283.5227652238707
 20
-1255.293603714173
 30
0.0
 11
283.5227652238707
 21
-1223.264534912756
 31
0.0
1001
ACAD
1000
DSTYLE
1002
{
1070
    40
1040
2.0
1002
}
  0
LINE
  5
1EAA3
  8
1DIM1
 10
-162.4767978448691
 20
-1225.264534912756
 30
0.0
 11
279.5227652238707
 21
-1225.264534912756
 31
0.0
1001
ACAD
1000
DSTYLE
1002
{
1070
    40
1040
2.0
1002
}
  0
LINE
  5
1EAA7
  8
1DIM1
 10
273.5227652238721
 20
-1268.431870455165
 30
0.0
 11
273.5227652238721
 21
-1300.570207917928
 31
0.0
1001
ACAD
1000
DSTYLE
1002
{
1070
    40
1040
2.0
1002
}
  0
LINE
  5
1EAA8
  8
1DIM1
 10
293.5227652238707
 20
-1267.819126034151
 30
0.0
 11
293.5227652238707
 21
-1300.570207917928
 31
0.0
1001
ACAD
1000
DSTYLE
1002
{
1070
    40
1040
2.0
1002
}
  0
LINE
  5
1EAA9
  8
1DIM1
 10
277.5227652238721
 20
-1298.570207917928
 30
0.0
 11
289.5227652238707
 21
-1298.570207917928
 31
0.0
1001
ACAD
1000
DSTYLE
1002
{
1070
    40
1040
2.0
1002
}
  0
LINE
  5
1EAAD
  8
1DIM1
 10
-176.4767978448692
 20
-1267.83412604493
 30
0.0
 11
-176.4767978448692
 21
-1300.570207917928
 31
0.0
1001
ACAD
1000
DSTYLE
1002
{
1070
    40
1040
2.0
1002
}
  0
LINE
  5
1EAAE
  8
1DIM1
 10
-156.4767978448705
 20
-1268.431870455165
 30
0.0
 11
-156.4767978448705
 21
-1300.570207917928
 31
0.0
1001
ACAD
1000
DSTYLE
1002
{
1070
    40
1040
2.0
1002
}
  0
LINE
  5
1EAAF
  8
1DIM1
 10
-172.4767978448692
 20
-1298.570207917928
 30
0.0
 11
-160.4767978448705
 21
-1298.570207917928
 31
0.0
1001
ACAD
1000
DSTYLE
1002
{
1070
    40
1040
2.0
1002
}
  0
LINE
  5
1EAB3
  8
1DIM
 10
206.1449366862187
 20
-1275.870207917951
 30
0.0
 11
205.1449366862187
 21
-1275.870207917951
 31
0.0
1001
ACAD
1000
DSTYLE
1002
{
1070
     3
1000
φ<>
1070
    40
1040
1.0
1002
}
  0
LINE
  5
1EAB4
  8
1DIM
 10
206.1449366862187
 20
-1250.870207917952
 30
0.0
 11
205.1449366862187
 21
-1250.870207917952
 31
0.0
1001
ACAD
1000
DSTYLE
1002
{
1070
     3
1000
φ<>
1070
    40
1040
1.0
1002
}
  0
LINE
  5
1EAB5
  8
1DIM
 10
206.1449366862187
 20
-1273.870207917951
 30
0.0
 11
206.1449366862187
 21
-1252.870207917952
 31
0.0
1001
ACAD
1000
DSTYLE
1002
{
1070
     3
1000
φ<>
1070
    40
1040
1.0
1002
}
  0
LINE
  5
1EAB9
  8
1DIM
 10
391.0227651572602
 20
-1277.994216431852
 30
0.0
 11
391.0227651572602
 21
-1299.570207917928
 31
0.0
1001
ACAD
1000
DSTYLE
1002
{
1070
    40
1040
1.0
1002
}
  0
LINE
  5
1EABA
  8
1DIM
 10
406.5227651572602
 20
-1278.570207917931
 30
0.0
 11
406.5227651572602
 21
-1299.570207917928
 31
0.0
1001
ACAD
1000
DSTYLE
1002
{
1070
    40
1040
1.0
1002
}
  0
LINE
  5
1EABB
  8
1DIM
 10
393.0227651572602
 20
-1298.570207917928
 30
0.0
 11
404.5227651572602
 21
-1298.570207917928
 31
0.0
1001
ACAD
1000
DSTYLE
1002
{
1070
    40
1040
1.0
1002
}
  0
LINE
  5
1EABF
  8
0
  6
BYBLOCK
 10
345.722765157252
 20
-1225.800433292756
 30
0.0
 11
343.722765157252
 21
-1225.264534912756
 31
0.0
  0
LINE
  5
1EAC0
  8
0
  6
BYBLOCK
 10
343.722765157252
 20
-1225.264534912756
 30
0.0
 11
345.722765157252
 21
-1224.728636532756
 31
0.0
  0
LINE
  5
1EAC1
  8
0
  6
BYBLOCK
 10
343.722765157252
 20
-1225.264534912756
 30
0.0
 11
345.722765157252
 21
-1225.264534912756
 31
0.0
  0
LINE
  5
1EAC2
  8
0
  6
BYBLOCK
 10
404.5227651572602
 20
-1224.728636532756
 30
0.0
 11
406.5227651572602
 21
-1225.264534912756
 31
0.0
  0
LINE
  5
1EAC3
  8
0
  6
BYBLOCK
 10
406.5227651572602
 20
-1225.264534912756
 30
0.0
 11
404.5227651572602
 21
-1225.800433292756
 31
0.0
  0
LINE
  5
1EAC4
  8
0
  6
BYBLOCK
 10
406.5227651572602
 20
-1225.264534912756
 30
0.0
 11
404.5227651572602
 21
-1225.264534912756
 31
0.0
  0
TEXT
  5
1EAC5
  8
1DIM
  6
CONTINUOUS
 10
372.1939457128116
 20
-1224.564534912756
 30
0.0
 40
3.5
  1
63
1001
ACAD
1000
DSTYLE
1002
{
1070
    40
1040
1.0
1070
   271
1070
     0
1002
}
  0
LINE
  5
1EAC6
  8
0
  6
BYBLOCK
 10
328.9570049679738
 20
-1250.17020791793
 30
0.0
 11
329.4929033479738
 21
-1248.17020791793
 31
0.0
  0
LINE
  5
1EAC7
  8
0
  6
BYBLOCK
 10
329.4929033479738
 20
-1248.17020791793
 30
0.0
 11
330.0288017279738
 21
-1250.17020791793
 31
0.0
  0
LINE
  5
1EAC8
  8
0
  6
BYBLOCK
 10
329.4929033479738
 20
-1248.17020791793
 30
0.0
 11
329.4929033479738
 21
-1250.17020791793
 31
0.0
  0
LINE
  5
1EAC9
  8
0
  6
BYBLOCK
 10
330.0288017279738
 20
-1276.570207917932
 30
0.0
 11
329.4929033479738
 21
-1278.570207917932
 31
0.0
  0
LINE
  5
1EACA
  8
0
  6
BYBLOCK
 10
329.4929033479738
 20
-1278.570207917932
 30
0.0
 11
328.9570049679738
 21
-1276.570207917932
 31
0.0
  0
LINE
  5
1EACB
  8
0
  6
BYBLOCK
 10
329.4929033479738
 20
-1278.570207917932
 30
0.0
 11
329.4929033479738
 21
-1276.570207917932
 31
0.0
  0
TEXT
  5
1EACC
  8
1DIM
  6
CONTINUOUS
 10
328.7929033479741
 20
-1266.068124584598
 30
0.0
 40
3.5
  1
30
 50
90.0
1001
ACAD
1000
DSTYLE
1002
{
1070
    40
1040
1.0
1070
   271
1070
     0
1002
}
  0
LINE
  5
1EACD
  8
0
  6
BYBLOCK
 10
299.7227651572474
 20
-1197.298411157935
 30
0.0
 11
303.7227651572474
 21
-1198.370207917935
 31
0.0
  0
LINE
  5
1EACE
  8
0
  6
BYBLOCK
 10
303.7227651572474
 20
-1198.370207917935
 30
0.0
 11
299.7227651572474
 21
-1199.442004677935
 31
0.0
  0
LINE
  5
1EACF
  8
0
  6
BYBLOCK
 10
303.7227651572474
 20
-1198.370207917935
 30
0.0
 11
299.7227651572474
 21
-1198.370207917935
 31
0.0
  0
LINE
  5
1EAD0
  8
0
  6
BYBLOCK
 10
-182.6767977782449
 20
-1199.442004677935
 30
0.0
 11
-186.6767977782449
 21
-1198.370207917935
 31
0.0
  0
LINE
  5
1EAD1
  8
0
  6
BYBLOCK
 10
-186.6767977782449
 20
-1198.370207917935
 30
0.0
 11
-182.6767977782449
 21
-1197.298411157935
 31
0.0
  0
LINE
  5
1EAD2
  8
0
  6
BYBLOCK
 10
-186.6767977782449
 20
-1198.370207917935
 30
0.0
 11
-182.6767977782449
 21
-1198.370207917935
 31
0.0
  0
TEXT
  5
1EAD3
  8
1DIM1
  6
CONTINUOUS
 10
49.62552998805035
 20
-1196.970207917935
 30
0.0
 40
7.0
  1
490
1001
ACAD
1000
DSTYLE
1002
{
1070
    40
1040
2.0
1002
}
  0
LINE
  5
1EAD4
  8
0
  6
BYBLOCK
 10
-162.4767978448691
 20
-1226.336331672756
 30
0.0
 11
-166.4767978448691
 21
-1225.264534912756
 31
0.0
  0
LINE
  5
1EAD5
  8
0
  6
BYBLOCK
 10
-166.4767978448691
 20
-1225.264534912756
 30
0.0
 11
-162.4767978448691
 21
-1224.192738152756
 31
0.0
  0
LINE
  5
1EAD6
  8
0
  6
BYBLOCK
 10
-166.4767978448691
 20
-1225.264534912756
 30
0.0
 11
-162.4767978448691
 21
-1225.264534912756
 31
0.0
  0
LINE
  5
1EAD7
  8
0
  6
BYBLOCK
 10
279.5227652238707
 20
-1224.192738152756
 30
0.0
 11
283.5227652238707
 21
-1225.264534912756
 31
0.0
  0
LINE
  5
1EAD8
  8
0
  6
BYBLOCK
 10
283.5227652238707
 20
-1225.264534912756
 30
0.0
 11
279.5227652238707
 21
-1226.336331672756
 31
0.0
  0
LINE
  5
1EAD9
  8
0
  6
BYBLOCK
 10
283.5227652238707
 20
-1225.264534912756
 30
0.0
 11
279.5227652238707
 21
-1225.264534912756
 31
0.0
  0
TEXT
  5
1EADA
  8
1DIM1
  6
CONTINUOUS
 10
46.10284480286516
 20
-1223.864534912756
 30
0.0
 40
7.0
  1
P450
1001
ACAD
1000
DSTYLE
1002
{
1070
    40
1040
2.0
1002
}
  0
LINE
  5
1EADB
  8
0
  6
BYBLOCK
 10
277.5227652238721
 20
-1299.642004677928
 30
0.0
 11
273.5227652238721
 21
-1298.570207917928
 31
0.0
  0
LINE
  5
1EADC
  8
0
  6
BYBLOCK
 10
273.5227652238721
 20
-1298.570207917928
 30
0.0
 11
277.5227652238721
 21
-1297.498411157928
 31
0.0
  0
LINE
  5
1EADD
  8
0
  6
BYBLOCK
 10
273.5227652238721
 20
-1298.570207917928
 30
0.0
 11
277.5227652238721
 21
-1298.570207917928
 31
0.0
  0
LINE
  5
1EADE
  8
0
  6
BYBLOCK
 10
289.5227652238707
 20
-1297.498411157928
 30
0.0
 11
293.5227652238707
 21
-1298.570207917928
 31
0.0
  0
LINE
  5
1EADF
  8
0
  6
BYBLOCK
 10
293.5227652238707
 20
-1298.570207917928
 30
0.0
 11
289.5227652238707
 21
-1299.642004677928
 31
0.0
  0
LINE
  5
1EAE0
  8
0
  6
BYBLOCK
 10
293.5227652238707
 20
-1298.570207917928
 30
0.0
 11
289.5227652238707
 21
-1298.570207917928
 31
0.0
  0
TEXT
  5
1EAE1
  8
1DIM1
  6
CONTINUOUS
 10
274.6269318905374
 20
-1297.170207917928
 30
0.0
 40
7.0
  1
P20
1001
ACAD
1000
DSTYLE
1002
{
1070
    40
1040
2.0
1002
}
  0
LINE
  5
1EAE2
  8
0
  6
BYBLOCK
 10
-172.4767978448692
 20
-1299.642004677928
 30
0.0
 11
-176.4767978448692
 21
-1298.570207917928
 31
0.0
  0
LINE
  5
1EAE3
  8
0
  6
BYBLOCK
 10
-176.4767978448692
 20
-1298.570207917928
 30
0.0
 11
-172.4767978448692
 21
-1297.498411157928
 31
0.0
  0
LINE
  5
1EAE4
  8
0
  6
BYBLOCK
 10
-176.4767978448692
 20
-1298.570207917928
 30
0.0
 11
-172.4767978448692
 21
-1298.570207917928
 31
0.0
  0
LINE
  5
1EAE5
  8
0
  6
BYBLOCK
 10
-160.4767978448705
 20
-1297.498411157928
 30
0.0
 11
-156.4767978448705
 21
-1298.570207917928
 31
0.0
  0
LINE
  5
1EAE6
  8
0
  6
BYBLOCK
 10
-156.4767978448705
 20
-1298.570207917928
 30
0.0
 11
-160.4767978448705
 21
-1299.642004677928
 31
0.0
  0
LINE
  5
1EAE7
  8
0
  6
BYBLOCK
 10
-156.4767978448705
 20
-1298.570207917928
 30
0.0
 11
-160.4767978448705
 21
-1298.570207917928
 31
0.0
  0
TEXT
  5
1EAE8
  8
1DIM1
  6
CONTINUOUS
 10
-175.3726308749748
 20
-1297.170207917928
 30
0.0
 40
7.0
  1
P20
1001
ACAD
1000
DSTYLE
1002
{
1070
    40
1040
2.0
1002
}
  0
LINE
  5
1EAE9
  8
0
  6
BYBLOCK
 10
206.6808350662187
 20
-1273.870207917951
 30
0.0
 11
206.1449366862187
 21
-1275.870207917951
 31
0.0
  0
LINE
  5
1EAEA
  8
0
  6
BYBLOCK
 10
206.1449366862187
 20
-1275.870207917951
 30
0.0
 11
205.6090383062187
 21
-1273.870207917951
 31
0.0
  0
LINE
  5
1EAEB
  8
0
  6
BYBLOCK
 10
206.1449366862187
 20
-1275.870207917951
 30
0.0
 11
206.1449366862187
 21
-1273.870207917951
 31
0.0
  0
LINE
  5
1EAEC
  8
0
  6
BYBLOCK
 10
205.6090383062187
 20
-1252.870207917952
 30
0.0
 11
206.1449366862187
 21
-1250.870207917952
 31
0.0
  0
LINE
  5
1EAED
  8
0
  6
BYBLOCK
 10
206.1449366862187
 20
-1250.870207917952
 30
0.0
 11
206.6808350662187
 21
-1252.870207917952
 31
0.0
  0
LINE
  5
1EAEE
  8
0
  6
BYBLOCK
 10
206.1449366862187
 20
-1250.870207917952
 30
0.0
 11
206.1449366862187
 21
-1252.870207917952
 31
0.0
  0
TEXT
  5
1EAEF
  8
1DIM
  6
CONTINUOUS
 10
205.4449366862189
 20
-1268.853541251285
 30
0.0
 40
3.5
  1
φ25
 50
90.0
1001
ACAD
1000
DSTYLE
1002
{
1070
     3
1000
φ<>
1070
    40
1040
1.0
1002
}
  0
LINE
  5
1EAF0
  8
0
  6
BYBLOCK
 10
393.0227651572602
 20
-1299.106106297928
 30
0.0
 11
391.0227651572602
 21
-1298.570207917928
 31
0.0
  0
LINE
  5
1EAF1
  8
0
  6
BYBLOCK
 10
391.0227651572602
 20
-1298.570207917928
 30
0.0
 11
393.0227651572602
 21
-1298.034309537928
 31
0.0
  0
LINE
  5
1EAF2
  8
0
  6
BYBLOCK
 10
391.0227651572602
 20
-1298.570207917928
 30
0.0
 11
393.0227651572602
 21
-1298.570207917928
 31
0.0
  0
LINE
  5
1EAF3
  8
0
  6
BYBLOCK
 10
404.5227651572602
 20
-1298.034309537928
 30
0.0
 11
406.5227651572602
 21
-1298.570207917928
 31
0.0
  0
LINE
  5
1EAF4
  8
0
  6
BYBLOCK
 10
406.5227651572602
 20
-1298.570207917928
 30
0.0
 11
404.5227651572602
 21
-1299.106106297928
 31
0.0
  0
LINE
  5
1EAF5
  8
0
  6
BYBLOCK
 10
406.5227651572602
 20
-1298.570207917928
 30
0.0
 11
404.5227651572602
 21
-1298.570207917928
 31
0.0
  0
TEXT
  5
1EAF6
  8
1DIM
  6
CONTINUOUS
 10
394.2224038743051
 20
-1297.870207917928
 30
0.0
 40
3.5
  1
15.5
1001
ACAD
1000
DSTYLE
1002
{
1070
    40
1040
1.0
1002
}
  0
VIEWPORT
  5
57
 67
     1
  8
0
 10
0.0
 20
0.0
 30
0.0
 40
629.8767123287671
 41
297.0
 68
     1
 69
     1
1001
ACAD
1000
MVIEW
1002
{
1070
    16
1010
0.0
1020
0.0
1030
0.0
1010
0.0
1020
0.0
1030
1.0
1040
0.0
1040
297.0
1040
5.728000000000009
1040
25.339
1040
50.0
1040
0.0
1040
0.0
1070
    16
1070
   100
1070
     0
1070
     1
1070
     0
1070
     0
1070
     0
1070
     0
1040
0.0
1040
0.0
1040
0.0
1040
10.0
1040
10.0
1040
10.0
1040
10.0
1070
     0
1002
{
1002
}
1002
}
  0
ENDSEC
  0
EOF
