  0
SECTION
  2
HEADER
  9
$ACADVER
  1
AC1009
  9
$INSBASE
 10
0.0
 20
0.0
 30
0.0
  9
$EXTMIN
 10
-34.213508169584152
 20
458.2125769569854
 30
0.0
  9
$EXTMAX
 10
670.74458072949994
 20
729.37425952790807
 30
0.0
  9
$LIMMIN
 10
0.0
 20
0.0
  9
$LIMMAX
 10
420.0
 20
297.0
  9
$ORTHOMODE
 70
     0
  9
$REGENMODE
 70
     1
  9
$FILLMODE
 70
     1
  9
$QTEXTMODE
 70
     0
  9
$MIRRTEXT
 70
     1
  9
$DRAGMODE
 70
     2
  9
$LTSCALE
 40
0.5
  9
$OSMODE
 70
  2175
  9
$ATTMODE
 70
     1
  9
$TEXTSIZE
 40
4.0
  9
$TRACEWID
 40
1.0
  9
$TEXTSTYLE
  7
STANDARD
  9
$CLAYER
  8
1TEXT
  9
$CELTYPE
  6
BYLAYER
  9
$CECOLOR
 62
   256
  9
$DIMSCALE
 40
2.0
  9
$DIMASZ
 40
2.0
  9
$DIMEXO
 40
0.0
  9
$DIMDLI
 40
7.0
  9
$DIMRND
 40
0.0
  9
$DIMDLE
 40
0.0
  9
$DIMEXE
 40
1.0
  9
$DIMTP
 40
0.0
  9
$DIMTM
 40
0.0
  9
$DIMTXT
 40
3.5
  9
$DIMCEN
 40
0.0
  9
$DIMTSZ
 40
0.0
  9
$DIMTOL
 70
     0
  9
$DIMLIM
 70
     0
  9
$DIMTIH
 70
     0
  9
$DIMTOH
 70
     0
  9
$DIMSE1
 70
     0
  9
$DIMSE2
 70
     0
  9
$DIMTAD
 70
     1
  9
$DIMZIN
 70
     8
  9
$DIMBLK
  1

  9
$DIMASO
 70
     1
  9
$DIMSHO
 70
     1
  9
$DIMPOST
  1
 
  9
$DIMAPOST
  1

  9
$DIMALT
 70
     0
  9
$DIMALTD
 70
     2
  9
$DIMALTF
 40
25.399999999999999
  9
$DIMLFAC
 40
1.0
  9
$DIMTOFL
 70
     1
  9
$DIMTVP
 40
0.0
  9
$DIMTIX
 70
     0
  9
$DIMSOXD
 70
     0
  9
$DIMSAH
 70
     1
  9
$DIMBLK1
  1
OPEN30
  9
$DIMBLK2
  1
OPEN30
  9
$DIMSTYLE
  2
NEWX10
  9
$DIMCLRD
 70
   256
  9
$DIMCLRE
 70
   256
  9
$DIMCLRT
 70
   201
  9
$DIMTFAC
 40
0.7
  9
$DIMGAP
 40
0.7
  9
$LUNITS
 70
     2
  9
$LUPREC
 70
     4
  9
$SKETCHINC
 40
1.0
  9
$FILLETRAD
 40
0.0
  9
$AUNITS
 70
     0
  9
$AUPREC
 70
     2
  9
$MENU
  1
acad
  9
$ELEVATION
 40
0.0
  9
$PELEVATION
 40
0.0
  9
$THICKNESS
 40
0.0
  9
$LIMCHECK
 70
     0
  9
$BLIPMODE
 70
     0
  9
$CHAMFERA
 40
0.5
  9
$CHAMFERB
 40
0.5
  9
$SKPOLY
 70
     0
  9
$TDCREATE
 40
2451318.621352917
  9
$TDUPDATE
 40
2455411.6808635299
  9
$TDINDWG
 40
2.8378490625000001
  9
$TDUSRTIMER
 40
2.8378490625000001
  9
$USRTIMER
 70
     1
  9
$ANGBASE
 50
0.0
  9
$ANGDIR
 70
     0
  9
$PDMODE
 70
     0
  9
$PDSIZE
 40
0.0
  9
$PLINEWID
 40
0.0
  9
$COORDS
 70
     2
  9
$SPLFRAME
 70
     0
  9
$SPLINETYPE
 70
     6
  9
$SPLINESEGS
 70
     8
  9
$ATTDIA
 70
     0
  9
$ATTREQ
 70
     1
  9
$HANDLING
 70
     1
  9
$HANDSEED
  5
A427
  9
$SURFTAB1
 70
     6
  9
$SURFTAB2
 70
     6
  9
$SURFTYPE
 70
     6
  9
$SURFU
 70
     6
  9
$SURFV
 70
     6
  9
$UCSNAME
  2

  9
$UCSORG
 10
0.0
 20
0.0
 30
0.0
  9
$UCSXDIR
 10
1.0
 20
0.0
 30
0.0
  9
$UCSYDIR
 10
0.0
 20
1.0
 30
0.0
  9
$PUCSNAME
  2

  9
$PUCSORG
 10
0.0
 20
0.0
 30
0.0
  9
$PUCSXDIR
 10
1.0
 20
0.0
 30
0.0
  9
$PUCSYDIR
 10
0.0
 20
1.0
 30
0.0
  9
$USERI1
 70
     0
  9
$USERI2
 70
     0
  9
$USERI3
 70
     0
  9
$USERI4
 70
     0
  9
$USERI5
 70
     0
  9
$USERR1
 40
0.0
  9
$USERR2
 40
0.0
  9
$USERR3
 40
0.0
  9
$USERR4
 40
0.0
  9
$USERR5
 40
11.5
  9
$WORLDVIEW
 70
     1
  9
$SHADEDGE
 70
     3
  9
$SHADEDIF
 70
    70
  9
$TILEMODE
 70
     1
  9
$MAXACTVP
 70
    48
  9
$PLIMCHECK
 70
     0
  9
$PEXTMIN
 10
1.0000000000000000E+020
 20
1.0000000000000000E+020
 30
1.0000000000000000E+020
  9
$PEXTMAX
 10
-1.0000000000000000E+020
 20
-1.0000000000000000E+020
 30
-1.0000000000000000E+020
  9
$PLIMMIN
 10
0.0
 20
0.0
  9
$PLIMMAX
 10
420.0
 20
297.0
  9
$UNITMODE
 70
     0
  9
$VISRETAIN
 70
     1
  9
$PLINEGEN
 70
     0
  9
$PSLTSCALE
 70
     1
  0
ENDSEC
  0
SECTION
  2
TABLES
  0
TABLE
  2
VPORT
 70
     1
  0
VPORT
  2
*ACTIVE
 70
     0
 10
0.0
 20
0.0
 11
1.0
 21
1.0
 12
318.26553792131631
 22
593.78517146858144
 13
0.0
 23
0.0
 14
10.0
 24
10.0
 15
10.0
 25
10.0
 16
0.0
 26
0.0
 36
1.0
 17
0.0
 27
0.0
 37
0.0
 40
528.249162468093
 41
1.4123581336696089
 42
50.0
 43
0.0
 44
0.0
 50
0.0
 51
0.0
 71
     0
 72
   100
 73
     1
 74
     1
 75
     0
 76
     0
 77
     0
 78
     0
  0
ENDTAB
  0
TABLE
  2
LTYPE
 70
    12
  0
LTYPE
  2
CONTINUOUS
 70
     0
  3
Solid line
 72
    65
 73
     0
 40
0.0
  0
LTYPE
  2
XREF1|CENTER2
 70
    48
  3
Center (.5x) ___ _ ___ _ ___ _ ___ _ ___ _ ___
 72
    65
 73
     4
 40
28.574999999999999
 49
19.050000000000001
 49
-3.1749999999999989
 49
3.1749999999999989
 49
-3.1749999999999989
  0
ENDTAB
  0
TABLE
  2
LAYER
 70
    36
  0
LAYER
  2
0
 70
     0
 62
     7
  6
CONTINUOUS
  0
LAYER
  2
1TEXT
 70
     0
 62
     7
  6
CONTINUOUS
  0
LAYER
  2
01
 70
     0
 62
     1
  6
CONTINUOUS
  0
LAYER
  2
A3WAKUDAKE|THICK
 70
    48
 62
     7
  6
CONTINUOUS
  0
LAYER
  2
A3WAKUDAKE|POINT
 70
    48
 62
     7
  6
CONTINUOUS
  0
LAYER
  2
A3WAKUDAKE|1CENTER
 70
    48
 62
     7
  6
CONTINUOUS
  0
LAYER
  2
A3WAKUDAKE|0-6
 70
    48
 62
     7
  6
CONTINUOUS
  0
LAYER
  2
A3WAKUDAKE|1DIM
 70
    48
 62
     7
  6
CONTINUOUS
  0
LAYER
  2
XREF1|1CENTER
 70
    48
 62
     7
  6
XREF1|CENTER2
  0
ENDTAB
  0
TABLE
  2
STYLE
 70
     4
  0
STYLE
  2
STANDARD
 70
     0
 40
0.0
 41
1.0
 50
0.0
 71
     0
 42
4.0
  3
romans.shx
  4
extfont.shx
  0
ENDTAB
  0
TABLE
  2
VIEW
 70
     0
  0
ENDTAB
  0
TABLE
  2
UCS
 70
     0
  0
ENDTAB
  0
TABLE
  2
APPID
 70
    10
  0
APPID
  2
ACAD
 70
     0
  0
APPID
  2
DRAWINGVARIABLESXDATA
 70
     0
  0
APPID
  2
CONTENTTABDATA
 70
     0
  0
APPID
  2
CONTENTCURRENTTAB
 70
     0
  0
APPID
  2
CONTENTBLOCKDESCRIPTION
 70
     0
  0
APPID
  2
CONTENTBLOCKICON
 70
     0
  0
APPID
  2
CONTENTLONGBLOCKNAME
 70
     0
  0
APPID
  2
ACAD_PSEXT
 70
     0
  0
APPID
  2
ACAD_MLEADERVER
 70
     0
  0
APPID
  2
ACAD_DSTYLE_DIMRADIAL_EXTENSION
 70
     0
  0
ENDTAB
  0
TABLE
  2
DIMSTYLE
 70
     5
  0
DIMSTYLE
  2
NEWX10
 70
     0
  3
 
  4

  5

  6
OPEN30
  7
OPEN30
 40
1.0
 41
2.0
 42
0.0
 43
7.0
 44
1.0
 45
0.0
 46
0.0
 47
0.0
 48
0.0
140
3.5
141
0.0
142
0.0
143
25.399999999999999
144
1.0
145
0.0
146
0.7
147
0.7
 71
     0
 72
     0
 73
     0
 74
     0
 75
     0
 76
     0
 77
     1
 78
     8
170
     0
171
     2
172
     1
173
     1
174
     0
175
     0
176
   256
177
   256
178
   201
  0
ENDTAB
  0
ENDSEC
  0
SECTION
  2
BLOCKS
  0
BLOCK
  8
0
  2
$MODEL_SPACE
 70
     0
 10
0.0
 20
0.0
 30
0.0
  3
$MODEL_SPACE
  1

  0
ENDBLK
  5
1A
  8
0
  0
BLOCK
 67
     1
  8
0
  2
$PAPER_SPACE
 70
     0
 10
0.0
 20
0.0
 30
0.0
  3
$PAPER_SPACE
  1

  0
ENDBLK
  5
17
 67
     1
  8
0
  0
BLOCK
  8
0
  2
_OPEN30
 70
     0
 10
0.0
 20
0.0
 30
0.0
  3
_OPEN30
  1

  0
LINE
  5
44
  8
0
  6
BYBLOCK
 62
     0
 10
-1.0
 20
0.26794919
 30
0.0
 11
0.0
 21
0.0
 31
0.0
  0
LINE
  5
45
  8
0
  6
BYBLOCK
 62
     0
 10
0.0
 20
0.0
 30
0.0
 11
-1.0
 21
-0.26794919
 31
0.0
  0
LINE
  5
46
  8
0
  6
BYBLOCK
 62
     0
 10
0.0
 20
0.0
 30
0.0
 11
-1.0
 21
0.0
 31
0.0
  0
ENDBLK
  5
47
  8
0
  0
BLOCK
  8
0
  2
XREF1
 70
    36
 10
0.0
 20
0.0
 30
0.0
  3
XREF1
  1
D:\ACLT\FORMAT\KAWAJUN(9)図面用.dwg
  0
ENDBLK
  5
5D
  8
0
  0
BLOCK
  8
0
  2
A3WAKUDAKE
 70
    36
 10
0.0
 20
0.0
 30
0.0
  3
A3WAKUDAKE
  1
D:\ACLT\FORMAT\A3WAKUdake.dwg
  0
ENDBLK
  5
8892
  8
0
  0
BLOCK
  8
0
  2
*U15
 70
     1
 10
0.0
 20
0.0
 30
0.0
  3
*U15
  1

  0
LINE
  5
A3F7
  8
0
 10
-29.700003489976531
 20
-1.4999534641020771
 30
0.0
 11
-2.8000383918526941
 21
-1.4999534641020771
 31
0.0
  0
LINE
  5
A3F8
  8
0
 10
-0.3000093071805736
 20
-4.0
 30
0.0
 11
-2.8000383918526941
 21
-1.4999534641020771
 31
0.0
  0
LINE
  5
A3F9
  8
0
 10
-34.99999999983757
 20
0.0000465358979227
 30
0.0
 11
-29.700003489976531
 21
-1.4999534641020771
 31
0.0
  0
LINE
  5
A3FA
  8
0
 10
-0.3000093071805736
 20
-4.0
 30
0.0
 11
-0.0000093071795959
 21
-4.0
 31
0.0
  0
LINE
  5
A3FB
  8
0
 10
-34.99999999983757
 20
0.0000465358979227
 30
0.0
 11
-29.699996509592239
 21
1.500046535897922
 31
0.0
  0
LINE
  5
A3FC
  8
0
 10
-0.0000093071795959
 20
-4.0
 30
0.0
 11
0.0000093071795959
 21
4.0
 31
0.0
  0
LINE
  5
A3FD
  8
0
 10
-29.699996509592239
 20
1.500046535897922
 30
0.0
 11
-2.7999732414874918
 21
1.500046535897922
 31
0.0
  0
LINE
  5
A3FE
  8
0
 10
-0.2999906928214955
 20
4.0
 30
0.0
 11
0.0000093071795959
 21
4.0
 31
0.0
  0
LINE
  5
A3FF
  8
0
 10
-0.2999906928214955
 20
4.0
 30
0.0
 11
-2.7999732414874918
 21
1.500046535897922
 31
0.0
  0
ENDBLK
  5
A401
  8
0
  0
BLOCK
  8
0
  2
*U16
 70
     1
 10
0.0
 20
0.0
 30
0.0
  3
*U16
  1

  0
TEXT
  5
A403
  8
1TEXT
 62
   201
 10
-12.12411312243723
 20
551.46987101067623
 30
0.0
 40
7.0
  1
50
  0
ENDBLK
  5
A405
  8
0
  0
BLOCK
  8
0
  2
*U17
 70
     1
 10
0.0
 20
0.0
 30
0.0
  3
*U17
  1

  0
TEXT
  5
A407
  8
1TEXT
 62
   201
 10
507.52627511768338
 20
509.49246186767363
 30
0.0
 40
7.0
  1
50
 50
90.0
  0
ENDBLK
  5
A409
  8
0
  0
BLOCK
  8
0
  2
*U18
 70
     1
 10
0.0
 20
0.0
 30
0.0
  3
*U18
  1

  0
TEXT
  5
A40B
  8
1TEXT
 62
   201
 10
209.5425535442383
 20
562.02547348944449
 30
0.0
 40
7.0
  1
500
  0
ENDBLK
  5
A40D
  8
0
  0
BLOCK
  8
0
  2
*U19
 70
     1
 10
0.0
 20
0.0
 30
0.0
  3
*U19
  1

  0
TEXT
  5
A40F
  8
1TEXT
 62
   201
 10
309.54257330180059
 20
551.46987101067623
 30
0.0
 40
7.0
  1
200
  0
ENDBLK
  5
A411
  8
0
  0
BLOCK
  8
0
  2
*U20
 70
     1
 10
0.0
 20
0.0
 30
0.0
  3
*U20
  1

  0
TEXT
  5
A413
  8
1TEXT
 62
   201
 10
109.54255354423481
 20
551.46987101067623
 30
0.0
 40
7.0
  1
200
  0
ENDBLK
  5
A415
  8
0
  0
BLOCK
  8
0
  2
*U21
 70
     1
 10
0.0
 20
0.0
 30
0.0
  3
*U21
  1

  0
TEXT
  5
A417
  8
1TEXT
 62
   201
 10
485.67907558792513
 20
545.55870699092691
 30
0.0
 40
7.0
  1
22.4
 50
90.0
  0
ENDBLK
  5
A419
  8
0
  0
BLOCK
  8
0
  2
*U22
 70
     1
 10
0.0
 20
0.0
 30
0.0
  3
*U22
  1

  0
TEXT
  5
A41B
  8
1TEXT
 62
   201
 10
495.85960845101658
 20
619.67163854061459
 30
0.0
 40
7.0
  1
使用時
 50
90.0
  0
TEXT
  5
A41C
  8
1TEXT
 62
   201
 10
507.52627511768338
 20
624.67163854061459
 30
0.0
 40
7.0
  1
52
 50
90.0
  0
ENDBLK
  5
A41E
  8
0
  0
BLOCK
  8
0
  2
*U23
 70
     1
 10
0.0
 20
0.0
 30
0.0
  3
*U23
  1

  0
TEXT
  5
A420
  8
1TEXT
 62
   201
 10
550.60921521090461
 20
461.61257695698538
 30
0.0
 40
7.0
  1
12
  0
ENDBLK
  5
A422
  8
0
  0
BLOCK
  8
0
  2
*U24
 70
     1
 10
0.0
 20
0.0
 30
0.0
  3
*U24
  1

  0
TEXT
  5
A424
  8
1TEXT
 62
   201
 10
432.24255354424508
 20
469.89442877489142
 30
0.0
 40
7.0
  1
10.6
  0
ENDBLK
  5
A426
  8
0
  0
ENDSEC
  0
SECTION
  2
ENTITIES
  0
LINE
  5
941A
  8
01
 10
469.54255354423827
 20
491.65955007775352
 30
0.0
 11
469.54255354423827
 21
540.65870699092693
 31
0.0
  0
LINE
  5
941B
  8
01
 10
425.342553544238
 20
491.15955007775159
 30
0.0
 11
469.04255354423827
 21
491.15955007775352
 31
0.0
  0
ARC
  5
941C
  8
01
 10
469.04255354423827
 20
491.65955007775352
 30
0.0
 40
0.5
 50
270.0
 51
0.0
  0
LINE
  5
941D
  8
01
 10
425.342553544238
 20
541.15870699092784
 30
0.0
 11
469.04255354423827
 21
541.15870699092693
 31
0.0
  0
ARC
  5
941F
  8
01
 10
469.04255354423827
 20
540.65870699092693
 30
0.0
 40
0.5
 50
0.0
 51
90.0
  0
LINE
  5
9420
  8
01
 10
425.342553544238
 20
541.15870699092784
 30
0.0
 11
425.342553544238
 21
491.15955007775159
 31
0.0
  0
CIRCLE
  5
9425
  8
01
 10
234.54255354423461
 20
518.75163356045584
 30
0.0
 40
2.25
  0
CIRCLE
  5
9426
  8
01
 10
204.54255354423461
 20
518.75163356045141
 30
0.0
 40
2.25
  0
LINE
  5
9485
  8
01
 10
24.842553701591982
 20
539.95955007775592
 30
0.0
 11
24.842553701591982
 21
492.35955007775601
 31
0.0
  0
LINE
  5
9486
  8
01
 10
214.2425533868776
 20
539.95955007775592
 30
0.0
 11
213.74255354423849
 21
539.95955007775592
 31
0.0
  0
LINE
  5
9487
  8
01
 10
214.2425533868776
 20
539.95955007775592
 30
0.0
 11
214.2425533868776
 21
492.35955007775601
 31
0.0
  0
LINE
  5
948B
  8
01
 10
214.2425533868776
 20
492.35955007775601
 30
0.0
 11
213.74255354423849
 21
492.35955007775601
 31
0.0
  0
LINE
  5
94A8
  8
01
 10
24.842553701591982
 20
539.95955007775592
 30
0.0
 11
25.342553544231212
 21
539.95955007775592
 31
0.0
  0
LINE
  5
94AD
  8
01
 10
24.842553701591982
 20
492.35955007775601
 30
0.0
 11
25.342553544231212
 21
492.35955007775601
 31
0.0
  0
LINE
  5
94CD
  8
01
 10
213.74255354423849
 20
541.15955007775574
 30
0.0
 11
25.342553544231212
 21
541.15955007775574
 31
0.0
  0
LINE
  5
94D1
  8
01
 10
213.74255354423809
 20
491.15955007775568
 30
0.0
 11
25.342553544231212
 21
491.15955007775568
 31
0.0
  0
LINE
  5
94D5
  8
01
 10
414.24255338688482
 20
539.96662350822635
 30
0.0
 11
413.74255354424582
 21
539.96662350822635
 31
0.0
  0
LINE
  5
94D6
  8
01
 10
414.24255338688482
 20
539.96662350822635
 30
0.0
 11
414.24255338688482
 21
492.36662350822638
 31
0.0
  0
LINE
  5
94DA
  8
01
 10
414.24255338688482
 20
492.36662350822638
 30
0.0
 11
413.74255354424582
 21
492.36662350822638
 31
0.0
  0
LINE
  5
94F7
  8
01
 10
224.8425537015988
 20
539.95870699092757
 30
0.0
 11
225.342553544238
 21
539.95870699092757
 31
0.0
  0
LINE
  5
94F8
  8
01
 10
224.8425537015988
 20
539.95870699092757
 30
0.0
 11
224.8425537015988
 21
492.3587069909276
 31
0.0
  0
LINE
  5
94FB
  8
01
 10
224.8425537015988
 20
492.3587069909276
 30
0.0
 11
225.342553544238
 21
492.3587069909276
 31
0.0
  0
LINE
  5
9519
  8
01
 10
413.74255354424639
 20
541.15870699092727
 30
0.0
 11
225.342553544238
 21
541.15870699092727
 31
0.0
  0
LINE
  5
951D
  8
01
 10
413.7425535442456
 20
491.15870699092733
 30
0.0
 11
225.342553544238
 21
491.15870699092733
 31
0.0
  0
LINE
  5
9526
  8
01
 10
14.24255354423101
 20
491.05135356101482
 30
0.0
 11
14.24255354423101
 21
541.2505104741881
 31
0.0
  0
ARC
  5
9527
  8
01
 10
14.74255354423056
 20
541.2505104741881
 30
0.0
 40
0.5
 50
90.0
 51
180.0
  0
LINE
  5
9528
  8
01
 10
24.8425535442315
 20
491.05135356101482
 30
0.0
 11
24.8425535442315
 21
541.2505104741881
 31
0.0
  0
ARC
  5
9529
  8
01
 10
24.342553544231041
 20
541.2505104741881
 30
0.0
 40
0.5
 50
0.0
 51
90.0
  0
LINE
  5
952A
  8
01
 10
14.74255354423101
 20
490.55135356101482
 30
0.0
 11
24.342553544231489
 21
490.55135356101482
 31
0.0
  0
ARC
  5
952B
  8
01
 10
24.342553544231489
 20
491.05135356101482
 30
0.0
 40
0.5
 50
270.0
 51
0.0
  0
ARC
  5
952C
  8
01
 10
14.74255354423101
 20
491.05135356101482
 30
0.0
 40
0.5
 50
180.0
 51
270.0
  0
LINE
  5
952D
  8
01
 10
14.74255354423056
 20
541.7505104741881
 30
0.0
 11
24.342553544231041
 21
541.7505104741881
 31
0.0
  0
LINE
  5
9531
  8
01
 10
214.24255354423781
 20
491.05135356101482
 30
0.0
 11
214.24255354423781
 21
541.2505104741881
 31
0.0
  0
ARC
  5
9532
  8
01
 10
214.74255354423741
 20
541.2505104741881
 30
0.0
 40
0.5
 50
90.0
 51
180.0
  0
LINE
  5
9533
  8
01
 10
224.84255354423831
 20
491.05135356101482
 30
0.0
 11
224.84255354423831
 21
541.2505104741881
 31
0.0
  0
ARC
  5
9534
  8
01
 10
224.3425535442378
 20
541.2505104741881
 30
0.0
 40
0.5
 50
0.0
 51
90.0
  0
LINE
  5
9535
  8
01
 10
214.74255354423781
 20
490.55135356101482
 30
0.0
 11
224.34255354423831
 21
490.55135356101482
 31
0.0
  0
ARC
  5
9536
  8
01
 10
224.34255354423831
 20
491.05135356101482
 30
0.0
 40
0.5
 50
270.0
 51
0.0
  0
ARC
  5
9537
  8
01
 10
214.74255354423781
 20
491.05135356101482
 30
0.0
 40
0.5
 50
180.0
 51
270.0
  0
LINE
  5
9538
  8
01
 10
214.74255354423741
 20
541.7505104741881
 30
0.0
 11
224.34255354423789
 21
541.7505104741881
 31
0.0
  0
LINE
  5
953C
  8
01
 10
414.24255354424503
 20
491.05927007831349
 30
0.0
 11
414.24255354424503
 21
541.25842699148677
 31
0.0
  0
LINE
  5
953D
  8
01
 10
419.5425535442451
 20
487.26391419810261
 30
0.0
 11
419.5425535442451
 21
546.4481115059034
 31
0.0
  0
ARC
  5
953E
  8
01
 10
414.74255354424457
 20
541.25842699148677
 30
0.0
 40
0.5
 50
90.0
 51
180.0
  0
LINE
  5
953F
  8
01
 10
424.84255354424511
 20
491.05927007831349
 30
0.0
 11
424.84255354424511
 21
541.25842699148677
 31
0.0
  0
ARC
  5
9540
  8
01
 10
424.34255354424511
 20
541.25842699148677
 30
0.0
 40
0.5
 50
0.0
 51
90.0
  0
LINE
  5
9541
  8
01
 10
414.74255354424503
 20
490.55927007831349
 30
0.0
 11
424.34255354424511
 21
490.5592700783136
 31
0.0
  0
ARC
  5
9542
  8
01
 10
424.34255354424511
 20
491.05927007831349
 30
0.0
 40
0.5
 50
270.0
 51
0.0
  0
ARC
  5
9543
  8
01
 10
414.74255354424503
 20
491.05927007831349
 30
0.0
 40
0.5
 50
180.0
 51
270.0
  0
LINE
  5
9544
  8
01
 10
414.74255354424457
 20
541.75842699148677
 30
0.0
 11
424.34255354424511
 21
541.75842699148677
 31
0.0
  0
LINE
  5
954D
  8
01
 10
219.5425535442383
 20
543.22689096118393
 30
0.0
 11
219.5425535442383
 21
490.55135356101482
 31
0.0
  0
LINE
  5
954E
  8
01
 10
19.542553544231481
 20
543.22689096118393
 30
0.0
 11
19.542553544231481
 21
489.39167976242419
 31
0.0
  0
LINE
  5
95C5
  8
01
 10
579.40988189054315
 20
490.62486316715763
 30
0.0
 11
579.55649596759315
 21
496.2238288809508
 31
0.0
  0
ARC
  5
95C6
  8
01
 10
529.22792697469117
 20
491.93892390277261
 30
0.0
 40
1.0
 50
178.5000000000006
 51
268.49999999999721
  0
LINE
  5
95C7
  8
01
 10
528.42461260281675
 20
499.46313572383968
 30
0.0
 11
528.22826964971568
 21
491.96510085108031
 31
0.0
  0
ARC
  5
95C8
  8
01
 10
578.41022456556755
 20
490.65104011546549
 30
0.0
 40
1.0
 50
268.5
 51
358.49999999999989
  0
LINE
  5
95C9
  8
01
 10
529.20175002638348
 20
490.93926657779713
 30
0.0
 11
578.38404761725974
 21
489.65138279048989
 31
0.0
  0
LINE
  5
95CA
  8
01
 10
529.45044687610027
 20
500.43661610050748
 30
0.0
 11
530.45010420107656
 21
500.41043915219967
 31
0.0
  0
ARC
  5
95CB
  8
01
 10
529.42426992779235
 20
499.43695877553188
 30
0.0
 40
1.0
 50
88.499999999999915
 51
178.49999999999989
  0
LINE
  5
95D8
  8
01
 10
578.43709926661882
 20
496.25954994672168
 30
0.0
 11
580.34254854423989
 21
496.25954994672031
 31
0.0
  0
LINE
  5
95E6
  8
01
 10
580.3425485442383
 20
503.65927007831249
 30
0.0
 11
580.3425485442383
 21
528.65927007831215
 31
0.0
  0
LINE
  5
961D
  8
01
 10
579.55647288167654
 20
496.22294426351777
 30
0.0
 11
578.43798664848225
 21
496.2522328562963
 31
0.0
  0
LINE
  5
9622
  8
01
 10
570.8057554298781
 20
497.88217341495698
 30
0.0
 11
570.81202132518695
 21
496.6854864974681
 31
0.0
  0
LINE
  5
9623
  8
01
 10
570.81202132518695
 20
496.6854864974681
 30
0.0
 11
570.23909462446909
 21
495.68103906438279
 31
0.0
  0
LINE
  5
9624
  8
01
 10
570.23909462446909
 20
495.68103906438279
 30
0.0
 11
570.20468816795744
 21
494.3671095003325
 31
0.0
  0
ARC
  5
9625
  8
01
  6
BYBLOCK
 10
-574.34254862281887
 20
495.75926999973342
 30
0.0
 40
4.125
210
0.0
220
0.0
230
-1.0
 50
30.97361244699745
 51
173.13639821097539
  0
LINE
  5
9626
  8
01
 10
570.20468816795744
 20
494.3671095003325
 30
0.0
 11
532.81750421387119
 21
495.3461273670473
 31
0.0
  0
ARC
  5
9627
  8
01
 10
532.84368116217911
 20
496.3457846920229
 30
0.0
 40
1.0
 50
178.49999999999989
 51
268.5
  0
CIRCLE
  5
9628
  8
01
 10
574.34254862281887
 20
495.75926999973342
 30
0.0
 40
2.149999999999999
  0
ARC
  5
962A
  8
01
 10
532.84368116217911
 20
496.3457846920229
 30
0.0
 40
1.0
 50
178.49999999999989
 51
268.5
  0
LINE
  5
962B
  8
01
 10
531.84402383720374
 20
496.37196164033071
 30
0.0
 11
531.92255468212727
 21
499.37093361525649
 31
0.0
  0
ARC
  5
962C
  8
01
 10
530.9228973571519
 20
499.39711056356441
 30
0.0
 40
1.0
 50
358.49999999999989
 51
88.499999999973966
  0
LINE
  5
962D
  8
01
 10
530.94907430545982
 20
500.39676788854001
 30
0.0
 11
529.44958831799624
 21
500.43603331100269
 31
0.0
  0
ARC
  5
962E
  8
01
 10
529.42341136968844
 20
499.43637598602709
 30
0.0
 40
1.0
 50
88.499999999999915
 51
178.49999999999989
  0
LINE
  5
9811
  8
01
 10
434.54255354424549
 20
526.60603758680531
 30
0.0
 11
434.54255354424549
 21
512.02345698672002
 31
0.0
  0
CIRCLE
  5
9821
  8
01
 10
-434.54255354424549
 20
518.75955007775417
 30
0.0
 40
2.25
210
0.0
220
0.0
230
-1.0
  0
CIRCLE
  5
9822
  8
01
 10
-404.54255354424549
 20
518.75955007775417
 30
0.0
 40
2.25
210
0.0
220
0.0
230
-1.0
  0
LINE
  5
982B
  8
01
 10
-30.457446455761701
 20
491.65955007775352
 30
0.0
 11
-30.457446455761701
 21
540.65870699092693
 31
0.0
  0
LINE
  5
982C
  8
01
 10
13.74255354423857
 20
491.15955007775159
 30
0.0
 11
-29.957446455761701
 21
491.15955007775352
 31
0.0
  0
ARC
  5
982D
  8
01
 10
-29.957446455761701
 20
491.65955007775352
 30
0.0
 40
0.5
 50
180.0
 51
270.0
  0
LINE
  5
982E
  8
01
 10
13.74255354423857
 20
541.15870699092784
 30
0.0
 11
-29.957446455761701
 21
541.15870699092693
 31
0.0
  0
ARC
  5
982F
  8
01
 10
-29.957446455761701
 20
540.65870699092693
 30
0.0
 40
0.5
 50
90.0
 51
180.0
  0
LINE
  5
9830
  8
01
 10
13.74255354423857
 20
541.15870699092784
 30
0.0
 11
13.74255354423857
 21
491.15955007775159
 31
0.0
  0
LINE
  5
983A
  8
01
 10
4.5425535442310263
 20
525.88157286120429
 30
0.0
 11
4.5425535442310263
 21
512.02345698672002
 31
0.0
  0
CIRCLE
  5
9849
  8
01
 10
-4.5425535442310263
 20
518.75955007775417
 30
0.0
 40
2.25
210
0.0
220
0.0
230
-1.0
  0
CIRCLE
  5
984A
  8
01
 10
-34.542553544231033
 20
518.75955007775417
 30
0.0
 40
2.25
210
0.0
220
0.0
230
-1.0
  0
LINE
  5
9A29
  8
01
 10
-34.213508169584152
 20
518.75955007775417
 30
0.0
 11
472.98862854189338
 21
518.75955007775417
 31
0.0
  0
LINE
  5
9A2A
  8
01
 10
404.54255354424549
 20
512.02345698672002
 30
0.0
 11
404.54255354424549
 21
526.60603758680531
 31
0.0
  0
LINE
  5
9A2B
  8
01
 10
234.54255354423461
 20
512.02345698672002
 30
0.0
 11
234.54255354423461
 21
526.60603758680531
 31
0.0
  0
LINE
  5
9A2C
  8
01
 10
204.54255354423461
 20
512.01554046941715
 30
0.0
 11
204.54255354423461
 21
526.59812106950244
 31
0.0
  0
LINE
  5
9A2D
  8
01
 10
34.542553544231033
 20
512.02345698672002
 30
0.0
 11
34.542553544231033
 21
526.60603758680531
 31
0.0
  0
LINE
  5
9A76
  8
01
 10
580.3425485442383
 20
568.15982999861114
 30
0.0
 11
580.3425485442383
 21
468.15982999861131
 31
0.0
  0
LINE
  5
9A77
  8
01
 10
589.34254854423853
 20
568.15982999861114
 30
0.0
 11
589.34254854423841
 21
468.15982999861131
 31
0.0
  0
LINE
  5
9A78
  8
01
 10
598.34254854423841
 20
568.15982999861114
 30
0.0
 11
598.34254854423853
 21
468.1598299986112
 31
0.0
  0
LINE
  5
9A8E
  8
01
 10
469.54255354423827
 20
645.83830516799082
 30
0.0
 11
469.54255354423822
 21
651.33830516799037
 31
0.0
  0
LINE
  5
9A8F
  8
01
 10
-30.457446455761701
 20
645.83830516799082
 30
0.0
 11
-30.457446455761701
 21
651.83830516799094
 31
0.0
  0
LINE
  5
9A90
  8
01
 10
424.84255354424351
 20
645.33830516799048
 30
0.0
 11
414.24255354424361
 21
645.33830516799048
 31
0.0
  0
LINE
  5
9B06
  8
01
 10
413.7425535442465
 20
654.83830524657185
 30
0.0
 11
225.342553544238
 21
654.83830524657185
 31
0.0
  0
LINE
  5
9B07
  8
01
 10
425.342553544238
 20
645.83830516799082
 30
0.0
 11
425.342553544238
 21
651.33830516799037
 31
0.0
  0
LINE
  5
9B08
  8
01
 10
413.7425535442465
 20
645.83830516799094
 30
0.0
 11
413.74255354424639
 21
654.83830524657185
 31
0.0
  0
LINE
  5
9B09
  8
01
 10
225.342553544238
 20
645.83830516799094
 30
0.0
 11
225.342553544238
 21
654.83830524657185
 31
0.0
  0
LINE
  5
9B0A
  8
01
 10
213.7425535442386
 20
645.83830516799082
 30
0.0
 11
213.7425535442386
 21
654.83830524657174
 31
0.0
  0
LINE
  5
9B0B
  8
01
 10
25.342553544231212
 20
645.83830516799094
 30
0.0
 11
25.342553544231212
 21
654.83830524657196
 31
0.0
  0
LINE
  5
9B0C
  8
01
 10
13.74255354423857
 20
645.83830516799082
 30
0.0
 11
13.74255354423858
 21
651.83830516799082
 31
0.0
  0
LINE
  5
9B0E
  8
01
 10
223.7995622473787
 20
645.33830516799026
 30
0.0
 11
215.2855448410979
 21
645.3383051679906
 31
0.0
  0
LINE
  5
9B0F
  8
01
 10
23.799562247371941
 20
645.33830516799048
 30
0.0
 11
15.28554484109107
 21
645.33830516799048
 31
0.0
  0
LINE
  5
9B10
  8
01
 10
459.54255354423822
 20
657.33830516799082
 30
0.0
 11
-20.457446455761701
 21
657.33830516799082
 31
0.0
  0
LINE
  5
9B11
  8
01
 10
459.54255354423822
 20
651.33830516799037
 30
0.0
 11
459.54255354423822
 21
657.33830516799082
 31
0.0
  0
LINE
  5
9B12
  8
01
 10
469.54255354423822
 20
651.33830516799037
 30
0.0
 11
424.84255354423789
 21
651.33830516799037
 31
0.0
  0
LINE
  5
9B13
  8
01
 10
469.54255354423827
 20
645.83830516799082
 30
0.0
 11
425.342553544238
 21
645.83830516799082
 31
0.0
  0
LINE
  5
9B14
  8
01
 10
413.7425535442465
 20
645.83830516799094
 30
0.0
 11
225.342553544238
 21
645.83830516799094
 31
0.0
  0
LINE
  5
9B15
  8
01
 10
213.7425535442386
 20
645.83830516799082
 30
0.0
 11
25.342553544231212
 21
645.83830516799094
 31
0.0
  0
LINE
  5
9B16
  8
01
 10
13.74255354423857
 20
645.83830516799082
 30
0.0
 11
-30.457446455761701
 21
645.83830516799082
 31
0.0
  0
LINE
  5
9B17
  8
01
 10
413.74255354424639
 20
651.83830516799094
 30
0.0
 11
225.342553544238
 21
651.83830516799105
 31
0.0
  0
LINE
  5
9B18
  8
01
 10
213.7425535442386
 20
651.83830516799071
 30
0.0
 11
25.342553544231212
 21
651.83830516799082
 31
0.0
  0
LINE
  5
9B19
  8
01
 10
14.24255354423858
 20
651.83830516799071
 30
0.0
 11
-30.457446455761701
 21
651.83830516799094
 31
0.0
  0
LINE
  5
9B1A
  8
01
 10
213.7425535442386
 20
654.83830524657174
 30
0.0
 11
25.342553544231212
 21
654.83830524657196
 31
0.0
  0
LINE
  5
9B27
  8
01
 10
414.24255354424309
 20
654.83830524657174
 30
0.0
 11
424.842553544238
 21
654.83830524657196
 31
0.0
  0
LINE
  5
9B28
  8
01
 10
223.4837727729979
 20
654.83830524657174
 30
0.0
 11
215.6013343154786
 21
654.83830524657185
 31
0.0
  0
LINE
  5
9B29
  8
01
 10
15.60133431547183
 20
654.83830524657196
 30
0.0
 11
23.483772772991159
 21
654.83830524657174
 31
0.0
  0
LINE
  5
9B2A
  8
01
 10
-20.457446455761708
 20
651.83830516799094
 30
0.0
 11
-20.457446455761701
 21
657.33830516799082
 31
0.0
  0
LINE
  5
9B2F
  8
01
 10
214.2864300907865
 20
646.38037315712927
 30
0.0
 11
214.60221956516719
 21
653.88037323571064
 31
0.0
  0
LINE
  5
9B30
  8
01
 10
224.79867699769011
 20
646.38037315712916
 30
0.0
 11
224.4828875233093
 21
653.88037323571052
 31
0.0
  0
LINE
  5
9B31
  8
01
 10
14.286430090779669
 20
646.38037315712916
 30
0.0
 11
14.602219565160389
 21
653.88037323571075
 31
0.0
  0
LINE
  5
9B32
  8
01
 10
24.798676997683341
 20
646.38037315712916
 30
0.0
 11
24.48288752330253
 21
653.88037323571064
 31
0.0
  0
LINE
  5
9B33
  8
01
 10
424.84255354423789
 20
651.33830516799037
 30
0.0
 11
424.84255354423789
 21
657.33830516799082
 31
0.0
  0
LINE
  5
9B34
  8
01
 10
14.24255354423858
 20
651.83830516799071
 30
0.0
 11
14.24255354423858
 21
657.33830516799082
 31
0.0
  0
LINE
  5
9B35
  8
01
 10
423.84255354424499
 20
605.33830524657128
 30
0.0
 11
415.24255354424508
 21
605.33830524657117
 31
0.0
  0
LINE
  5
9B36
  8
01
 10
423.84255354424488
 20
608.83830524657128
 30
0.0
 11
415.24255354424503
 21
608.83830524657151
 31
0.0
  0
LINE
  5
9B37
  8
01
 10
424.84255354424317
 20
654.83830524657185
 30
0.0
 11
424.84255354424499
 21
606.33830524657139
 31
0.0
  0
LINE
  5
9B38
  8
01
 10
414.24255354424321
 20
654.83830524657174
 30
0.0
 11
414.24255354424503
 21
606.33830524657117
 31
0.0
  0
LINE
  5
9B39
  8
01
 10
421.29255354424498
 20
647.23830524657149
 30
0.0
 11
417.7925535442451
 21
647.23830524657149
 31
0.0
  0
LINE
  5
9B3A
  8
01
 10
421.29255354424498
 20
647.74715289136145
 30
0.0
 11
417.7925535442451
 21
647.74715289136145
 31
0.0
  0
LINE
  5
9B3B
  8
01
 10
424.8425535442434
 20
650.08830516799026
 30
0.0
 11
414.24255354424332
 21
650.08830516799026
 31
0.0
  0
LINE
  5
9B3D
  8
01
 10
417.7925535442451
 20
650.08830516799026
 30
0.0
 11
417.7925535442451
 21
645.33830516799048
 31
0.0
  0
LINE
  5
9B3E
  8
01
 10
421.29255354424498
 20
650.08830516799026
 30
0.0
 11
421.29255354424498
 21
645.33830516799048
 31
0.0
  0
LINE
  5
9DB1
  8
01
 10
569.34254854423796
 20
490.55927007831258
 30
0.0
 11
574.94254862281878
 21
490.55927007831241
 31
0.0
  0
ARC
  5
9DB2
  8
01
 10
569.34254854423796
 20
540.75842699148689
 30
0.0
 40
1.0
 50
90.0
 51
180.0
  0
LINE
  5
9DB3
  8
01
 10
576.8431536870479
 20
541.75842699148677
 30
0.0
 11
569.34254854423796
 21
541.75842699148677
 31
0.0
  0
ARC
  5
9DB4
  8
01
 10
569.34254854423796
 20
491.55927007831258
 30
0.0
 40
1.0
 50
180.0
 51
270.0
  0
LINE
  5
9DB5
  8
01
 10
568.34254854423807
 20
540.75842699148689
 30
0.0
 11
568.34254854423796
 21
491.55927007831258
 31
0.0
  0
LINE
  5
9DB6
  8
01
 10
577.8431536870479
 20
540.75842699148689
 30
0.0
 11
577.84315368704813
 21
539.75842699148586
 31
0.0
  0
ARC
  5
9DB7
  8
01
 10
576.8431536870479
 20
540.75842699148689
 30
0.0
 40
1.0
 50
0.0
 51
90.0
  0
LINE
  5
9DB8
  8
01
 10
574.94254862281878
 20
490.55927007831241
 30
0.0
 11
574.94254862281878
 21
491.63427004931492
 31
0.0
  0
ARC
  5
9DC1
  8
01
 10
576.84254862281853
 20
539.25926999973353
 30
0.0
 40
1.0
 50
306.78932071627781
 51
359.99999999997402
  0
LINE
  5
9DC2
  8
01
 10
577.84254862281853
 20
539.25926999973353
 30
0.0
 11
577.84254862281944
 21
540.75926999973353
 31
0.0
  0
ARC
  5
9DC3
  8
01
 10
576.84254862281944
 20
540.75926999973353
 30
0.0
 40
1.0
 50
0.0
 51
90.0
  0
LINE
  5
9DCE
  8
01
 10
574.34254854423796
 20
538.45842699148693
 30
0.0
 11
580.3425485442383
 21
538.45842699148693
 31
0.0
  0
LINE
  5
9DCF
  8
01
 10
574.34254854423807
 20
540.65870699092693
 30
0.0
 11
574.34254854423796
 21
491.65955007775352
 31
0.0
  0
LINE
  5
9DD5
  8
01
 10
578.04254854423857
 20
539.15927007831306
 30
0.0
 11
577.83753606782273
 21
539.15927007831306
 31
0.0
  0
LINE
  5
9DDA
  8
01
 10
578.54254854423857
 20
538.65927007831306
 30
0.0
 11
578.54254854423857
 21
538.45842699148693
 31
0.0
  0
ARC
  5
9DDB
  8
01
 10
578.04254854423857
 20
538.65927007831306
 30
0.0
 40
0.5
 50
0.0
 51
89.999999999986969
  0
LINE
  5
9DDF
  8
01
 10
574.34254854423796
 20
493.8592700783127
 30
0.0
 11
580.3425485442383
 21
493.85927007831259
 31
0.0
  0
LINE
  5
9DE3
  8
01
 10
569.34254854423841
 20
541.15870699092693
 30
0.0
 11
573.84254854423807
 21
541.15870699092693
 31
0.0
  0
LINE
  5
9DE4
  8
01
 10
569.34254854423841
 20
491.15955007775352
 30
0.0
 11
573.84254854423796
 21
491.15955007775358
 31
0.0
  0
LINE
  5
9DE5
  8
01
 10
568.84254854423841
 20
540.65870699092693
 30
0.0
 11
568.84254854423841
 21
491.65955007775352
 31
0.0
  0
ARC
  5
9DE6
  8
01
 10
569.34254854423841
 20
540.65870699092693
 30
0.0
 40
0.5
 50
90.0
 51
180.0
  0
ARC
  5
9DE7
  8
01
 10
573.84254854423807
 20
540.65870699092693
 30
0.0
 40
0.5
 50
359.99999999999989
 51
90.0
  0
ARC
  5
9DE8
  8
01
 10
569.34254854423841
 20
491.65955007775352
 30
0.0
 40
0.5
 50
180.0
 51
270.0
  0
ARC
  5
9DE9
  8
01
 10
573.84254854423796
 20
491.65955007775352
 30
0.0
 40
0.5
 50
269.99999999999989
 51
359.99999999999972
  0
LINE
  5
9DEA
  8
01
 10
574.34190905534092
 20
491.63427004931492
 30
0.0
 11
574.94254862281878
 21
491.63427004931492
 31
0.0
  0
LINE
  5
9DEB
  8
01
 10
25.342553544231212
 20
541.15955007775574
 30
0.0
 11
25.342553544231212
 21
491.15955007775568
 31
0.0
  0
LINE
  5
9DEC
  8
01
 10
213.74255354423849
 20
541.15955007775574
 30
0.0
 11
213.74255354423809
 21
491.15955007775568
 31
0.0
  0
LINE
  5
9DED
  8
01
 10
225.342553544238
 20
541.15870699092727
 30
0.0
 11
225.342553544238
 21
491.15870699092733
 31
0.0
  0
LINE
  5
9DEE
  8
01
 10
413.74255354424639
 20
541.15870699092727
 30
0.0
 11
413.7425535442456
 21
491.15870699092733
 31
0.0
  0
ARC
  5
9DEF
  8
01
 10
223.7995622473787
 20
646.33830516799048
 30
0.0
 40
1.0
 50
269.99999999999841
 51
2.4110297266915941
  0
ARC
  5
9DF0
  8
01
 10
215.2855448410979
 20
646.3383051679906
 30
0.0
 40
1.0
 50
177.58897027330889
 51
269.99999999999841
  0
ARC
  5
9DF1
  8
01
 10
23.799562247371941
 20
646.33830516799048
 30
0.0
 40
1.0
 50
270.0
 51
2.411029726691619
  0
ARC
  5
9DF2
  8
01
 10
15.28554484109107
 20
646.33830516799048
 30
0.0
 40
1.0
 50
177.58897027330909
 51
270.0
  0
ARC
  5
9DF3
  8
01
 10
15.601334315471791
 20
653.83830524657208
 30
0.0
 40
1.0
 50
89.999999999997456
 51
177.58897027330909
  0
ARC
  5
9DF4
  8
01
 10
23.483772772991131
 20
653.83830524657185
 30
0.0
 40
1.0
 50
2.4110297266916318
 51
89.999999999998167
  0
ARC
  5
9DF5
  8
01
 10
215.6013343154786
 20
653.83830524657185
 30
0.0
 40
1.0
 50
89.999999999998366
 51
177.58897027330929
  0
ARC
  5
9DF6
  8
01
 10
223.4837727729979
 20
653.83830524657174
 30
0.0
 40
1.0
 50
2.4110297266915812
 51
89.999999999998366
  0
ARC
  5
9DF7
  8
01
 10
415.24255354424503
 20
607.83830524657139
 30
0.0
 40
1.0
 50
90.0
 51
180.0
  0
ARC
  5
9DF8
  8
01
 10
423.84255354424488
 20
607.83830524657139
 30
0.0
 40
1.0
 50
359.99999999999989
 51
90.0
  0
ARC
  5
9DF9
  8
01
 10
423.84255354424499
 20
606.33830524657139
 30
0.0
 40
1.0
 50
270.0
 51
0.0000000000012977
  0
ARC
  5
9DFA
  8
01
 10
415.24255354424508
 20
606.33830524657117
 30
0.0
 40
1.0
 50
180.0
 51
270.0
  0
TEXT
  5
A294
  8
01
 10
-20.44263165165863
 20
710.87425952790795
 30
0.0
 40
4.0
  1
表面処理：
 72
     1
 11
-9.7950126040395844
 21
710.87425952790795
 31
0.0
  0
TEXT
  5
A295
  8
01
 10
-18.861679270706251
 20
704.03897086838367
 30
0.0
 40
4.0
  1
シルバー
 72
     1
 11
-9.7950126040395844
 21
704.03897086838367
 31
0.0
  0
LINE
  5
A296
  8
01
 10
-27.195012604039679
 20
716.37425952790807
 30
0.0
 11
42.804987395960318
 21
716.37425952790807
 31
0.0
  0
LINE
  5
A297
  8
01
 10
-27.195012604039679
 20
702.37425952790795
 30
0.0
 11
42.804987395960318
 21
702.37425952790795
 31
0.0
  0
LINE
  5
A298
  8
01
 10
-27.195012604039679
 20
709.37425952790795
 30
0.0
 11
42.804987395960318
 21
709.37425952790795
 31
0.0
  0
LINE
  5
A299
  8
01
 10
7.8049873959603238
 20
716.37425952790807
 30
0.0
 11
7.8049873959600404
 21
695.37425952790807
 31
0.0
  0
TEXT
  5
A29A
  8
01
 10
11.96689215786563
 20
703.65990254425856
 30
0.0
 40
4.0
  1
AC822BC
 72
     1
 11
25.20498739596087
 21
703.65990254425856
 31
0.0
  0
TEXT
  5
A29B
  8
01
 10
18.404987395960411
 20
710.87425952790795
 30
0.0
 40
4.0
  1
コード
 72
     1
 11
25.204987395960419
 21
710.87425952790795
 31
0.0
  0
LINE
  5
A29C
  8
01
 10
-27.195012604039849
 20
695.37425952790807
 30
0.0
 11
-27.195012604039679
 21
716.37425952790807
 31
0.0
  0
LINE
  5
A29D
  8
01
 10
42.804987395960147
 20
695.37425952790807
 30
0.0
 11
42.804987395960318
 21
716.37425952790807
 31
0.0
  0
TEXT
  5
A29E
  8
01
 10
-27.195012604039679
 20
721.37425952790807
 30
0.0
 40
8.0
  1
AC-822
  0
TEXT
  5
A29F
  8
01
 10
-18.728345937373032
 20
697.03897086838356
 30
0.0
 40
4.0
  1
ホワイト
 72
     1
 11
-9.7950126040396981
 21
697.03897086838356
 31
0.0
  0
LINE
  5
A2A0
  8
01
 10
-27.195012604039789
 20
695.37425952790807
 30
0.0
 11
42.804987395960211
 21
695.37425952790807
 31
0.0
  0
TEXT
  5
A2A1
  8
01
 10
12.06213025310362
 20
696.65990254425867
 30
0.0
 40
4.0
  1
AC822SC
 72
     1
 11
25.20498739596076
 21
696.65990254425867
 31
0.0
  0
LINE
  5
A2F4
  8
01
 10
424.54255354424498
 20
605.33830524657128
 30
0.0
 11
510.92627511768342
 21
605.33830524657128
 31
0.0
  0
LINE
  5
A2F5
  8
01
 10
459.54255354423822
 20
657.33830516799082
 30
0.0
 11
510.92627511768342
 21
657.33830516799082
 31
0.0
  0
LINE
  5
A2F6
  8
01
 10
508.92627511768342
 20
609.33830524657128
 30
0.0
 11
508.92627511768347
 21
653.33830516799082
 31
0.0
  0
LINE
  5
A2FA
  8
01
 10
469.04255354423827
 20
541.15870699092693
 30
0.0
 11
489.07907558792522
 21
541.15870699092693
 31
0.0
  0
LINE
  5
A2FB
  8
01
 10
472.98862854189338
 20
518.75955007775417
 30
0.0
 11
489.07907558792522
 21
518.75955007775417
 31
0.0
  0
LINE
  5
A2FC
  8
01
 10
487.07907558792522
 20
522.75955007775417
 30
0.0
 11
487.07907558792522
 21
537.15870699092693
 31
0.0
  0
LINE
  5
A2FD
  8
01
 10
487.07907558792522
 20
541.15870699092693
 30
0.0
 11
487.07907558792522
 21
569.62537365759363
 31
0.0
  0
LINE
  5
A301
  8
01
 10
568.34254854423796
 20
491.55927007831258
 30
0.0
 11
568.34254854423796
 21
458.2125769569854
 31
0.0
  0
LINE
  5
A302
  8
01
 10
580.3425485442383
 20
503.65927007831249
 30
0.0
 11
580.3425485442383
 21
458.2125769569854
 31
0.0
  0
LINE
  5
A303
  8
01
 10
576.3425485442383
 20
460.2125769569854
 30
0.0
 11
572.34254854423796
 21
460.2125769569854
 31
0.0
  0
LINE
  5
A304
  8
01
 10
568.34254854423796
 20
460.2125769569854
 30
0.0
 11
551.20921521090463
 21
460.2125769569854
 31
0.0
  0
LINE
  5
A308
  8
01
 10
219.5425535442383
 20
543.22689096118393
 30
0.0
 11
219.5425535442383
 21
552.06987101067625
 31
0.0
  0
LINE
  5
A309
  8
01
 10
19.542553544231481
 20
543.22689096118393
 30
0.0
 11
19.542553544231481
 21
552.06987101067625
 31
0.0
  0
LINE
  5
A30A
  8
01
 10
215.5425535442383
 20
550.06987101067625
 30
0.0
 11
23.542553544231481
 21
550.06987101067625
 31
0.0
  0
LINE
  5
A30E
  8
01
 10
219.5425535442383
 20
543.22689096118393
 30
0.0
 11
219.5425535442383
 21
552.06987101067625
 31
0.0
  0
LINE
  5
A30F
  8
01
 10
419.5425930593629
 20
544.4481115062938
 30
0.0
 11
419.5425930593629
 21
552.06987101067625
 31
0.0
  0
LINE
  5
A310
  8
01
 10
223.5425535442383
 20
550.06987101067625
 30
0.0
 11
415.5425930593629
 21
550.06987101067625
 31
0.0
  0
LINE
  5
A314
  8
01
 10
-30.457446455761701
 20
540.65870699092693
 30
0.0
 11
-30.457446455761701
 21
562.62547348944463
 31
0.0
  0
LINE
  5
A315
  8
01
 10
469.54255354423827
 20
540.65870699092693
 30
0.0
 11
469.54255354423827
 21
562.62547348944463
 31
0.0
  0
LINE
  5
A316
  8
01
 10
-26.457446455761701
 20
560.62547348944463
 30
0.0
 11
465.54255354423827
 21
560.62547348944463
 31
0.0
  0
LINE
  5
A31B
  8
01
 10
611.79704624725673
 20
518.7595499991711
 30
0.0
 11
573.96391319988197
 21
518.7595499991711
 31
0.0
  0
LINE
  5
A31C
  8
01
 10
603.14255354659599
 20
520.25950346327318
 30
0.0
 11
603.2425547099931
 21
520.75950346327318
 31
0.0
  0
LINE
  5
A31D
  8
01
 10
603.2425547099931
 20
520.75950346327318
 30
0.0
 11
604.04254540281568
 21
516.75950346327318
 31
0.0
  0
LINE
  5
A31E
  8
01
 10
604.04254540281568
 20
516.75950346327318
 30
0.0
 11
604.14254656621267
 21
517.25950346327329
 31
0.0
  0
LINE
  5
A31F
  8
01
 10
601.54255354659585
 20
520.25950346327318
 30
0.0
 11
601.64255470999285
 21
520.75950346327318
 31
0.0
  0
LINE
  5
A320
  8
01
 10
602.44254540281554
 20
516.75950346327318
 30
0.0
 11
602.54254656621265
 21
517.25950346327329
 31
0.0
  0
LINE
  5
A321
  8
01
 10
601.64255470999285
 20
520.75950346327318
 30
0.0
 11
602.44254540281554
 21
516.75950346327318
 31
0.0
  0
LINE
  5
A322
  8
01
 10
599.94255354659595
 20
520.25950346327318
 30
0.0
 11
600.04255470999306
 21
520.75950346327318
 31
0.0
  0
LINE
  5
A323
  8
01
 10
600.04255470999306
 20
520.75950346327318
 30
0.0
 11
600.84254540281563
 21
516.75950346327318
 31
0.0
  0
LINE
  5
A324
  8
01
 10
600.84254540281563
 20
516.75950346327318
 30
0.0
 11
600.94254656621274
 21
517.25950346327329
 31
0.0
  0
LINE
  5
A325
  8
01
 10
591.94255354659572
 20
520.25950346327318
 30
0.0
 11
592.04255470999283
 21
520.75950346327318
 31
0.0
  0
LINE
  5
A326
  8
01
 10
592.8425454028154
 20
516.75950346327318
 30
0.0
 11
592.94254656621274
 21
517.25950346327329
 31
0.0
  0
LINE
  5
A327
  8
01
 10
594.44254540281554
 20
516.75950346327318
 30
0.0
 11
594.54254656621265
 21
517.25950346327329
 31
0.0
  0
LINE
  5
A328
  8
01
 10
593.54255354659585
 20
520.25950346327318
 30
0.0
 11
593.64255470999285
 21
520.75950346327318
 31
0.0
  0
LINE
  5
A329
  8
01
 10
595.14255354659565
 20
520.25950346327318
 30
0.0
 11
595.24255470999276
 21
520.75950346327318
 31
0.0
  0
LINE
  5
A32A
  8
01
 10
593.64255470999285
 20
520.75950346327318
 30
0.0
 11
594.44254540281554
 21
516.75950346327318
 31
0.0
  0
LINE
  5
A32B
  8
01
 10
592.04255470999283
 20
520.75950346327318
 30
0.0
 11
592.8425454028154
 21
516.75950346327318
 31
0.0
  0
LINE
  5
A32C
  8
01
 10
596.74255354659556
 20
520.25950346327318
 30
0.0
 11
596.84255470999301
 21
520.75950346327318
 31
0.0
  0
LINE
  5
A32D
  8
01
 10
604.94255354659572
 20
520.25950346327318
 30
0.0
 11
605.04255470999283
 21
520.75950346327318
 31
0.0
  0
LINE
  5
A32E
  8
01
 10
605.04255470999283
 20
520.75950346327318
 30
0.0
 11
605.84254592961815
 21
516.98591051547714
 31
0.0
  0
LINE
  5
A32F
  8
01
 10
605.84254592961815
 20
516.98591051547714
 30
0.0
 11
605.97181662724802
 21
517.52250425074828
 31
0.0
  0
LINE
  5
A330
  8
01
 10
597.64254540281559
 20
516.75950346327318
 30
0.0
 11
597.74254656621247
 21
517.25950346327329
 31
0.0
  0
LINE
  5
A331
  8
01
 10
599.24254540281549
 20
516.75950346327318
 30
0.0
 11
599.34254656621249
 21
517.25950346327329
 31
0.0
  0
LINE
  5
A332
  8
01
 10
598.34255354659581
 20
520.25950346327318
 30
0.0
 11
598.44255470999292
 21
520.75950346327318
 31
0.0
  0
LINE
  5
A333
  8
01
 10
598.44255470999292
 20
520.75950346327318
 30
0.0
 11
599.24254540281549
 21
516.75950346327318
 31
0.0
  0
LINE
  5
A334
  8
01
 10
596.84255470999301
 20
520.75950346327318
 30
0.0
 11
597.64254540281559
 21
516.75950346327318
 31
0.0
  0
LINE
  5
A335
  8
01
 10
606.64255365638257
 20
520.30668732121455
 30
0.0
 11
607.44254698322368
 21
517.43872461988406
 31
0.0
  0
LINE
  5
A336
  8
01
 10
608.24255260277835
 20
519.85387381316616
 30
0.0
 11
609.04254803682943
 21
517.89153872429085
 31
0.0
  0
LINE
  5
A337
  8
01
 10
607.44254698322368
 20
517.43872461988406
 30
0.0
 11
607.62531112585179
 21
517.99047408368733
 31
0.0
  0
LINE
  5
A338
  8
01
 10
608.09111680633805
 20
519.39670197253508
 30
0.0
 11
608.24255260277835
 21
519.85387381316616
 31
0.0
  0
LINE
  5
A339
  8
01
 10
609.04254803682943
 20
517.89153872429085
 30
0.0
 11
609.35431789308154
 21
518.47981529933315
 31
0.0
  0
LINE
  5
A33A
  8
01
 10
606.52978414403265
 20
519.83858886606447
 30
0.0
 11
606.64255365638257
 21
520.30668732121455
 31
0.0
  0
LINE
  5
A33B
  8
01
 10
596.04254540281545
 20
516.75950346327318
 30
0.0
 11
596.14254656621267
 21
517.25950346327329
 31
0.0
  0
LINE
  5
A33C
  8
01
 10
595.24255470999276
 20
520.75950346327318
 30
0.0
 11
596.04254540281545
 21
516.75950346327318
 31
0.0
  0
LINE
  5
A33D
  8
01
 10
578.34254656619578
 20
517.25950346327329
 30
0.0
 11
578.44254540279803
 21
516.75950346327318
 31
0.0
  0
LINE
  5
A33E
  8
01
 10
579.24255470998423
 20
520.75950346327318
 30
0.0
 11
580.04254540280238
 21
516.75950346327318
 31
0.0
  0
LINE
  5
A33F
  8
01
 10
582.44255470998417
 20
520.75950346327318
 30
0.0
 11
583.24254540280253
 21
516.75950346327318
 31
0.0
  0
LINE
  5
A340
  8
01
 10
583.24254540280253
 20
516.75950346327318
 30
0.0
 11
583.3425465662001
 21
517.25950346327329
 31
0.0
  0
LINE
  5
A341
  8
01
 10
580.04254540280238
 20
516.75950346327318
 30
0.0
 11
580.14254656620005
 21
517.25950346327329
 31
0.0
  0
LINE
  5
A342
  8
01
 10
580.74255354658635
 20
520.25950346327318
 30
0.0
 11
580.84255470998414
 21
520.75950346327318
 31
0.0
  0
LINE
  5
A343
  8
01
 10
581.64254540280228
 20
516.75950346327318
 30
0.0
 11
581.74254656619985
 21
517.25950346327329
 31
0.0
  0
LINE
  5
A344
  8
01
 10
580.84255470998414
 20
520.75950346327318
 30
0.0
 11
581.64254540280228
 21
516.75950346327318
 31
0.0
  0
LINE
  5
A345
  8
01
 10
582.34255354658637
 20
520.25950346327318
 30
0.0
 11
582.44255470998417
 21
520.75950346327318
 31
0.0
  0
LINE
  5
A346
  8
01
 10
578.44254540279803
 20
516.75950346327318
 30
0.0
 11
578.54254656619571
 21
517.25950346327329
 31
0.0
  0
LINE
  5
A347
  8
01
 10
579.14255354658644
 20
520.25950346327318
 30
0.0
 11
579.24255470998423
 21
520.75950346327318
 31
0.0
  0
LINE
  5
A348
  8
01
 10
575.64255936379925
 20
522.75954999917121
 30
0.0
 11
575.64254074944006
 21
514.7595499991711
 31
0.0
  0
LINE
  5
A349
  8
01
 10
583.94255354659094
 20
520.25950346327318
 30
0.0
 11
584.04255470998851
 21
520.75950346327318
 31
0.0
  0
LINE
  5
A34A
  8
01
 10
585.54255354659506
 20
520.25950346327318
 30
0.0
 11
585.64255470999285
 21
520.75950346327318
 31
0.0
  0
LINE
  5
A34B
  8
01
 10
584.84254540280665
 20
516.75950346327318
 30
0.0
 11
584.94254656620456
 21
517.25950346327329
 31
0.0
  0
LINE
  5
A34C
  8
01
 10
588.7425535465951
 20
520.25950346327318
 30
0.0
 11
588.84255470999301
 21
520.75950346327318
 31
0.0
  0
LINE
  5
A34D
  8
01
 10
587.24255470999276
 20
520.75950346327318
 30
0.0
 11
588.04254540281113
 21
516.75950346327318
 31
0.0
  0
LINE
  5
A34E
  8
01
 10
588.04254540281113
 20
516.75950346327318
 30
0.0
 11
588.14254656620858
 21
517.25950346327329
 31
0.0
  0
LINE
  5
A34F
  8
01
 10
587.14255354659508
 20
520.25950346327318
 30
0.0
 11
587.24255470999276
 21
520.75950346327318
 31
0.0
  0
LINE
  5
A350
  8
01
 10
586.44254540281122
 20
516.75950346327318
 30
0.0
 11
586.54254656620867
 21
517.25950346327329
 31
0.0
  0
LINE
  5
A351
  8
01
 10
591.24254540281549
 20
516.75950346327318
 30
0.0
 11
591.34254656621249
 21
517.25950346327329
 31
0.0
  0
LINE
  5
A352
  8
01
 10
589.64254540281115
 20
516.75950346327318
 30
0.0
 11
589.74254656620883
 21
517.25950346327329
 31
0.0
  0
LINE
  5
A353
  8
01
 10
590.34255354659513
 20
520.25950346327318
 30
0.0
 11
590.44255470999292
 21
520.75950346327318
 31
0.0
  0
LINE
  5
A354
  8
01
 10
590.44255470999292
 20
520.75950346327318
 30
0.0
 11
591.24254540281549
 21
516.75950346327318
 31
0.0
  0
LINE
  5
A355
  8
01
 10
588.84255470999301
 20
520.75950346327318
 30
0.0
 11
589.64254540281115
 21
516.75950346327318
 31
0.0
  0
LINE
  5
A356
  8
01
 10
585.64255470999285
 20
520.75950346327318
 30
0.0
 11
586.44254540281122
 21
516.75950346327318
 31
0.0
  0
LINE
  5
A357
  8
01
 10
584.04255470998851
 20
520.75950346327318
 30
0.0
 11
584.84254540280665
 21
516.75950346327318
 31
0.0
  0
LINE
  5
A358
  8
01
 10
414.24255354424503
 20
491.05927007831349
 30
0.0
 11
414.24255354424503
 21
466.4944287748915
 31
0.0
  0
LINE
  5
A359
  8
01
 10
424.84255354424511
 20
491.05927007831349
 30
0.0
 11
424.84255354424511
 21
466.4944287748915
 31
0.0
  0
LINE
  5
A35A
  8
01
 10
410.24255354424503
 20
468.4944287748915
 30
0.0
 11
406.24255354424503
 21
468.4944287748915
 31
0.0
  0
LINE
  5
A35B
  8
01
 10
428.84255354424511
 20
468.4944287748915
 30
0.0
 11
455.97588687757838
 21
468.4944287748915
 31
0.0
  0
LINE
  5
A35C
  8
01
 10
414.24255354424503
 20
468.4944287748915
 30
0.0
 11
424.84255354424511
 21
468.4944287748915
 31
0.0
  0
LINE
  5
A360
  8
01
 10
469.04255354423827
 20
541.15870699092693
 30
0.0
 11
510.92627511768342
 21
541.15870699092693
 31
0.0
  0
LINE
  5
A361
  8
01
 10
469.04255354423827
 20
491.15955007775352
 30
0.0
 11
510.92627511768342
 21
491.15955007775352
 31
0.0
  0
LINE
  5
A362
  8
01
 10
508.92627511768342
 20
537.15870699092693
 30
0.0
 11
508.92627511768342
 21
495.15955007775352
 31
0.0
  0
LINE
  5
A366
  8
01
 10
-30.457446455772612
 20
540.65955007775392
 30
0.0
 11
-30.457446455772612
 21
552.06987101067625
 31
0.0
  0
LINE
  5
A367
  8
01
 10
19.542553544231481
 20
543.22689096118393
 30
0.0
 11
19.542553544231481
 21
552.06987101067625
 31
0.0
  0
LINE
  5
A368
  8
01
 10
-26.457446455772612
 20
550.06987101067625
 30
0.0
 11
15.542553544231479
 21
550.06987101067625
 31
0.0
  0
TEXT
  5
A36C
  8
01
 10
612.34458072949985
 20
584.29262692377586
 30
0.0
 40
7.0
  1
合板9mm以上
  0
TEXT
  5
A36F
  8
01
 10
607.60782877128622
 20
596.84972248738518
 30
0.0
 40
7.0
  1
P.B
  0
TEXT
  5
A372
  8
01
 10
446.72011085157311
 20
675.70407058030867
 30
0.0
 40
7.0
  1
材質：樹脂（グレー色）
  0
TEXT
  5
A375
  8
01
 10
443.8298751085357
 20
689.35834151512802
 30
0.0
 40
7.0
  1
材質：アルミ
  0
TEXT
  5
A378
  8
01
 10
229.59349298702071
 20
469.99909273115992
 30
0.0
 40
7.0
  1
材質：亜鉛ダイキャスト（クロームメッキ）
  0
TEXT
  5
A37B
  8
01
 10
63.929169815138494
 20
481.5652941572767
 30
0.0
 40
7.0
  1
材質：アルミ
  0
TEXT
  5
A37C
  8
01
 10
63.929169815138494
 20
469.89862749061001
 30
0.0
 40
7.0
  1
仕上：各種仕上
  0
LINE
  5
A37F
  8
01
 10
54.852105857309517
 20
486.63114704811858
 30
0.0
 11
58.529169815138502
 21
468.49862749060998
 31
0.0
1001
ACAD
1000
DSTYLE
1002
{
1070
    40
1040
2.0
1002
}
  0
LINE
  5
A380
  8
01
 10
58.529169815138502
 20
468.49862749060998
 30
0.0
 11
120.8625031484718
 21
468.49862749060998
 31
0.0
1001
ACAD
1000
DSTYLE
1002
{
1070
    40
1040
2.0
1002
}
  0
LINE
  5
A381
  8
01
  6
BYBLOCK
 10
53.80168969754628
 20
486.41813487462912
 30
0.0
 11
54.057133596003041
 21
490.55135356101482
 31
0.0
  0
LINE
  5
A382
  8
01
  6
BYBLOCK
 10
54.057133596003041
 20
490.55135356101482
 30
0.0
 11
55.902522017072769
 21
486.84415922160821
 31
0.0
  0
LINE
  5
A383
  8
01
  6
BYBLOCK
 10
54.057133596003041
 20
490.55135356101482
 30
0.0
 11
54.852105857309517
 21
486.63114704811858
 31
0.0
  0
LINE
  5
A384
  8
01
 10
220.12775975458291
 20
486.64912190975991
 30
0.0
 11
224.1934929870207
 21
468.59909273116
 31
0.0
1001
ACAD
1000
DSTYLE
1002
{
1070
    40
1040
2.0
1002
}
  0
LINE
  5
A385
  8
01
 10
224.1934929870207
 20
468.59909273116
 30
0.0
 11
391.52682632035402
 21
468.59909273116
 31
0.0
1001
ACAD
1000
DSTYLE
1002
{
1070
    40
1040
2.0
1002
}
  0
LINE
  5
A386
  8
01
  6
BYBLOCK
 10
219.0821599444368
 20
486.41360262866192
 30
0.0
 11
219.24878982338811
 21
490.55135356101482
 31
0.0
  0
LINE
  5
A387
  8
01
  6
BYBLOCK
 10
219.24878982338811
 20
490.55135356101482
 30
0.0
 11
221.173359564729
 21
486.88464119085779
 31
0.0
  0
LINE
  5
A388
  8
01
  6
BYBLOCK
 10
219.24878982338811
 20
490.55135356101482
 30
0.0
 11
220.12775975458291
 21
486.64912190975991
 31
0.0
  0
LINE
  5
A389
  8
01
 10
418.26519004488188
 20
660.96004546341112
 30
0.0
 11
438.42987510853578
 21
687.95834151512804
 31
0.0
1001
ACAD
1000
DSTYLE
1002
{
1070
    40
1040
2.0
1002
}
  0
LINE
  5
A38A
  8
01
 10
438.42987510853578
 20
687.95834151512804
 30
0.0
 11
490.49654177520239
 21
687.95834151512804
 31
0.0
1001
ACAD
1000
DSTYLE
1002
{
1070
    40
1040
2.0
1002
}
  0
LINE
  5
A38B
  8
01
  6
BYBLOCK
 10
419.1239087451093
 20
660.31867935218725
 30
0.0
 11
415.87157910982478
 21
657.75526361567563
 31
0.0
  0
LINE
  5
A38C
  8
01
  6
BYBLOCK
 10
415.87157910982478
 20
657.75526361567563
 30
0.0
 11
417.40647134465439
 21
661.60141157463465
 31
0.0
  0
LINE
  5
A38D
  8
01
  6
BYBLOCK
 10
415.87157910982478
 20
657.75526361567563
 30
0.0
 11
418.26519004488188
 21
660.96004546341112
 31
0.0
  0
LINE
  5
A38E
  8
01
 10
431.12506857861558
 20
660.87605650289561
 30
0.0
 11
441.32011085157319
 21
674.30407058030858
 31
0.0
1001
ACAD
1000
DSTYLE
1002
{
1070
    40
1040
2.0
1002
}
  0
LINE
  5
A38F
  8
01
 10
441.32011085157319
 20
674.30407058030858
 30
0.0
 11
533.05344418490654
 21
674.30407058030858
 31
0.0
1001
ACAD
1000
DSTYLE
1002
{
1070
    40
1040
2.0
1002
}
  0
LINE
  5
A390
  8
01
  6
BYBLOCK
 10
431.9787063985986
 20
660.22794326661574
 30
0.0
 11
428.70627702981568
 21
657.69023675855124
 31
0.0
  0
LINE
  5
A391
  8
01
  6
BYBLOCK
 10
428.70627702981568
 20
657.69023675855124
 30
0.0
 11
430.27143075863262
 21
661.52416973917525
 31
0.0
  0
LINE
  5
A392
  8
01
  6
BYBLOCK
 10
428.70627702981568
 20
657.69023675855124
 30
0.0
 11
431.12506857861558
 21
660.87605650289561
 31
0.0
  0
LINE
  5
A393
  8
01
 10
586.65836026374961
 20
566.01330225116158
 30
0.0
 11
603.54116210461962
 21
595.44972248738509
 31
0.0
1001
ACAD
1000
DSTYLE
1002
{
1070
    40
1040
2.0
1002
}
  0
LINE
  5
A394
  8
01
 10
603.54116210461962
 20
595.44972248738509
 30
0.0
 11
623.94116210461959
 21
595.44972248738509
 31
0.0
1001
ACAD
1000
DSTYLE
1002
{
1070
    40
1040
2.0
1002
}
  0
LINE
  5
A395
  8
01
  6
BYBLOCK
 10
587.58809586213636
 20
565.48006683238441
 30
0.0
 11
584.66829857042114
 21
562.54348172889445
 31
0.0
  0
LINE
  5
A396
  8
01
  6
BYBLOCK
 10
584.66829857042114
 20
562.54348172889445
 30
0.0
 11
585.72862466536264
 21
566.54653766993897
 31
0.0
  0
LINE
  5
A397
  8
01
  6
BYBLOCK
 10
584.66829857042114
 20
562.54348172889445
 30
0.0
 11
586.65836026374961
 21
566.01330225116158
 31
0.0
  0
LINE
  5
A398
  8
01
 10
597.57980771913742
 20
566.74218325289644
 30
0.0
 11
606.94458072949988
 21
582.89262692377599
 31
0.0
1001
ACAD
1000
DSTYLE
1002
{
1070
    40
1040
2.0
1002
}
  0
LINE
  5
A399
  8
01
 10
606.94458072949988
 20
582.89262692377599
 30
0.0
 11
670.74458072949994
 21
582.89262692377599
 31
0.0
1001
ACAD
1000
DSTYLE
1002
{
1070
    40
1040
2.0
1002
}
  0
LINE
  5
A39A
  8
01
  6
BYBLOCK
 10
598.50700723850775
 20
566.20455015679283
 30
0.0
 11
595.57333367044362
 21
563.28182750645669
 31
0.0
  0
LINE
  5
A39B
  8
01
  6
BYBLOCK
 10
595.57333367044362
 20
563.28182750645669
 30
0.0
 11
596.65260819976697
 21
567.27981634899993
 31
0.0
  0
LINE
  5
A39C
  8
01
  6
BYBLOCK
 10
595.57333367044362
 20
563.28182750645669
 30
0.0
 11
597.57980771913742
 21
566.74218325289644
 31
0.0
  0
TEXT
  5
A39D
  8
01
 10
-12.12411312243723
 20
551.46987101067623
 30
0.0
 40
7.0
  1
50
  0
LINE
  5
A39E
  8
01
  6
BYBLOCK
 10
15.542553544231479
 20
551.14166777067624
 30
0.0
 11
19.542553544231481
 21
550.06987101067625
 31
0.0
  0
LINE
  5
A39F
  8
01
  6
BYBLOCK
 10
19.542553544231481
 20
550.06987101067625
 30
0.0
 11
15.542553544231479
 21
548.99807425067615
 31
0.0
  0
LINE
  5
A3A0
  8
01
  6
BYBLOCK
 10
19.542553544231481
 20
550.06987101067625
 30
0.0
 11
15.542553544231479
 21
550.06987101067625
 31
0.0
  0
LINE
  5
A3A1
  8
01
  6
BYBLOCK
 10
-26.457446455772612
 20
548.99807425067615
 30
0.0
 11
-30.457446455772612
 21
550.06987101067625
 31
0.0
  0
LINE
  5
A3A2
  8
01
  6
BYBLOCK
 10
-30.457446455772612
 20
550.06987101067625
 30
0.0
 11
-26.457446455772612
 21
551.14166777067624
 31
0.0
  0
LINE
  5
A3A3
  8
01
  6
BYBLOCK
 10
-30.457446455772612
 20
550.06987101067625
 30
0.0
 11
-26.457446455772612
 21
550.06987101067625
 31
0.0
  0
TEXT
  5
A3A4
  8
01
 10
507.52627511768338
 20
509.49246186767363
 30
0.0
 40
7.0
  1
50
 50
90.0
  0
LINE
  5
A3A5
  8
01
  6
BYBLOCK
 10
509.9980718776834
 20
495.15955007775352
 30
0.0
 11
508.92627511768342
 21
491.15955007775352
 31
0.0
  0
LINE
  5
A3A6
  8
01
  6
BYBLOCK
 10
508.92627511768342
 20
491.15955007775352
 30
0.0
 11
507.85447835768338
 21
495.15955007775352
 31
0.0
  0
LINE
  5
A3A7
  8
01
  6
BYBLOCK
 10
508.92627511768342
 20
491.15955007775352
 30
0.0
 11
508.92627511768342
 21
495.15955007775352
 31
0.0
  0
LINE
  5
A3A8
  8
01
  6
BYBLOCK
 10
507.85447835768338
 20
537.15870699092693
 30
0.0
 11
508.92627511768342
 21
541.15870699092693
 31
0.0
  0
LINE
  5
A3A9
  8
01
  6
BYBLOCK
 10
508.92627511768342
 20
541.15870699092693
 30
0.0
 11
509.9980718776834
 21
537.15870699092693
 31
0.0
  0
LINE
  5
A3AA
  8
01
  6
BYBLOCK
 10
508.92627511768342
 20
541.15870699092693
 30
0.0
 11
508.92627511768342
 21
537.15870699092693
 31
0.0
  0
TEXT
  5
A3AB
  8
01
 10
432.24255354424508
 20
469.89442877489142
 30
0.0
 40
7.0
  1
10.6
  0
LINE
  5
A3AC
  8
01
  6
BYBLOCK
 10
428.84255354424511
 20
467.42263201489152
 30
0.0
 11
424.84255354424511
 21
468.4944287748915
 31
0.0
  0
LINE
  5
A3AD
  8
01
  6
BYBLOCK
 10
424.84255354424511
 20
468.4944287748915
 30
0.0
 11
428.84255354424511
 21
469.56622553489137
 31
0.0
  0
LINE
  5
A3AE
  8
01
  6
BYBLOCK
 10
424.84255354424511
 20
468.4944287748915
 30
0.0
 11
428.84255354424511
 21
468.4944287748915
 31
0.0
  0
LINE
  5
A3AF
  8
01
  6
BYBLOCK
 10
410.24255354424503
 20
469.56622553489137
 30
0.0
 11
414.24255354424503
 21
468.4944287748915
 31
0.0
  0
LINE
  5
A3B0
  8
01
  6
BYBLOCK
 10
414.24255354424503
 20
468.4944287748915
 30
0.0
 11
410.24255354424503
 21
467.42263201489152
 31
0.0
  0
LINE
  5
A3B1
  8
01
  6
BYBLOCK
 10
414.24255354424503
 20
468.4944287748915
 30
0.0
 11
410.24255354424503
 21
468.4944287748915
 31
0.0
  0
LINE
  5
A3B2
  8
01
 10
605.04255354659529
 20
520.25950346327318
 30
0.0
 11
578.14258844847143
 21
520.25950346327318
 31
0.0
  0
LINE
  5
A3B3
  8
01
 10
575.64255936379925
 20
522.75954999917121
 30
0.0
 11
578.14258844847143
 21
520.25950346327318
 31
0.0
  0
LINE
  5
A3B4
  8
01
 10
610.34255005645616
 20
518.75950346327329
 30
0.0
 11
605.04255354659529
 21
520.25950346327318
 31
0.0
  0
LINE
  5
A3B5
  8
01
 10
575.64255936379925
 20
522.75954999917121
 30
0.0
 11
575.34255936379839
 21
522.75954999917121
 31
0.0
  0
LINE
  5
A3B6
  8
01
 10
610.34255005645616
 20
518.75950346327329
 30
0.0
 11
605.04254656621094
 21
517.25950346327329
 31
0.0
  0
LINE
  5
A3B7
  8
01
 10
575.34255936379839
 20
522.75954999917121
 30
0.0
 11
575.34254074943908
 21
514.7595499991711
 31
0.0
  0
LINE
  5
A3B8
  8
01
 10
605.04254656621094
 20
517.25950346327329
 30
0.0
 11
578.1425232981062
 21
517.25950346327329
 31
0.0
  0
LINE
  5
A3B9
  8
01
 10
575.64254074944006
 20
514.7595499991711
 30
0.0
 11
575.34254074943908
 21
514.7595499991711
 31
0.0
  0
LINE
  5
A3BA
  8
01
 10
575.64254074944006
 20
514.7595499991711
 30
0.0
 11
578.1425232981062
 21
517.25950346327329
 31
0.0
  0
TEXT
  5
A3BB
  8
01
 10
209.5425535442383
 20
562.02547348944449
 30
0.0
 40
7.0
  1
500
  0
LINE
  5
A3BC
  8
01
  6
BYBLOCK
 10
465.54255354423827
 20
561.69727024944461
 30
0.0
 11
469.54255354423827
 21
560.62547348944463
 31
0.0
  0
LINE
  5
A3BD
  8
01
  6
BYBLOCK
 10
469.54255354423827
 20
560.62547348944463
 30
0.0
 11
465.54255354423827
 21
559.55367672944465
 31
0.0
  0
LINE
  5
A3BE
  8
01
  6
BYBLOCK
 10
469.54255354423827
 20
560.62547348944463
 30
0.0
 11
465.54255354423827
 21
560.62547348944463
 31
0.0
  0
LINE
  5
A3BF
  8
01
  6
BYBLOCK
 10
-26.457446455761701
 20
559.55367672944465
 30
0.0
 11
-30.457446455761701
 21
560.62547348944463
 31
0.0
  0
LINE
  5
A3C0
  8
01
  6
BYBLOCK
 10
-30.457446455761701
 20
560.62547348944463
 30
0.0
 11
-26.457446455761701
 21
561.69727024944461
 31
0.0
  0
LINE
  5
A3C1
  8
01
  6
BYBLOCK
 10
-30.457446455761701
 20
560.62547348944463
 30
0.0
 11
-26.457446455761701
 21
560.62547348944463
 31
0.0
  0
TEXT
  5
A3C2
  8
01
 10
309.54257330180059
 20
551.46987101067623
 30
0.0
 40
7.0
  1
200
  0
LINE
  5
A3C3
  8
01
  6
BYBLOCK
 10
415.5425930593629
 20
551.14166777067624
 30
0.0
 11
419.5425930593629
 21
550.06987101067625
 31
0.0
  0
LINE
  5
A3C4
  8
01
  6
BYBLOCK
 10
419.5425930593629
 20
550.06987101067625
 30
0.0
 11
415.5425930593629
 21
548.99807425067615
 31
0.0
  0
LINE
  5
A3C5
  8
01
  6
BYBLOCK
 10
419.5425930593629
 20
550.06987101067625
 30
0.0
 11
415.5425930593629
 21
550.06987101067625
 31
0.0
  0
LINE
  5
A3C6
  8
01
  6
BYBLOCK
 10
223.5425535442383
 20
548.99807425067615
 30
0.0
 11
219.5425535442383
 21
550.06987101067625
 31
0.0
  0
LINE
  5
A3C7
  8
01
  6
BYBLOCK
 10
219.5425535442383
 20
550.06987101067625
 30
0.0
 11
223.5425535442383
 21
551.14166777067624
 31
0.0
  0
LINE
  5
A3C8
  8
01
  6
BYBLOCK
 10
219.5425535442383
 20
550.06987101067625
 30
0.0
 11
223.5425535442383
 21
550.06987101067625
 31
0.0
  0
TEXT
  5
A3C9
  8
01
 10
109.54255354423481
 20
551.46987101067623
 30
0.0
 40
7.0
  1
200
  0
LINE
  5
A3CA
  8
01
  6
BYBLOCK
 10
23.542553544231481
 20
548.99807425067615
 30
0.0
 11
19.542553544231481
 21
550.06987101067625
 31
0.0
  0
LINE
  5
A3CB
  8
01
  6
BYBLOCK
 10
19.542553544231481
 20
550.06987101067625
 30
0.0
 11
23.542553544231481
 21
551.14166777067624
 31
0.0
  0
LINE
  5
A3CC
  8
01
  6
BYBLOCK
 10
19.542553544231481
 20
550.06987101067625
 30
0.0
 11
23.542553544231481
 21
550.06987101067625
 31
0.0
  0
LINE
  5
A3CD
  8
01
  6
BYBLOCK
 10
215.5425535442383
 20
551.14166777067624
 30
0.0
 11
219.5425535442383
 21
550.06987101067625
 31
0.0
  0
LINE
  5
A3CE
  8
01
  6
BYBLOCK
 10
219.5425535442383
 20
550.06987101067625
 30
0.0
 11
215.5425535442383
 21
548.99807425067615
 31
0.0
  0
LINE
  5
A3CF
  8
01
  6
BYBLOCK
 10
219.5425535442383
 20
550.06987101067625
 30
0.0
 11
215.5425535442383
 21
550.06987101067625
 31
0.0
  0
TEXT
  5
A3D0
  8
01
 10
550.60921521090461
 20
461.61257695698538
 30
0.0
 40
7.0
  1
12
  0
LINE
  5
A3D1
  8
01
  6
BYBLOCK
 10
572.34254854423796
 20
459.14078019698542
 30
0.0
 11
568.34254854423796
 21
460.2125769569854
 31
0.0
  0
LINE
  5
A3D2
  8
01
  6
BYBLOCK
 10
568.34254854423796
 20
460.2125769569854
 30
0.0
 11
572.34254854423796
 21
461.28437371698527
 31
0.0
  0
LINE
  5
A3D3
  8
01
  6
BYBLOCK
 10
568.34254854423796
 20
460.2125769569854
 30
0.0
 11
572.34254854423796
 21
460.2125769569854
 31
0.0
  0
LINE
  5
A3D4
  8
01
  6
BYBLOCK
 10
576.3425485442383
 20
461.28437371698527
 30
0.0
 11
580.3425485442383
 21
460.2125769569854
 31
0.0
  0
LINE
  5
A3D5
  8
01
  6
BYBLOCK
 10
580.3425485442383
 20
460.2125769569854
 30
0.0
 11
576.3425485442383
 21
459.14078019698542
 31
0.0
  0
LINE
  5
A3D6
  8
01
  6
BYBLOCK
 10
580.3425485442383
 20
460.2125769569854
 30
0.0
 11
576.3425485442383
 21
460.2125769569854
 31
0.0
  0
TEXT
  5
A3D7
  8
01
 10
485.67907558792513
 20
545.55870699092691
 30
0.0
 40
7.0
  1
22.4
 50
90.0
  0
LINE
  5
A3D8
  8
01
  6
BYBLOCK
 10
486.00727882792518
 20
537.15870699092693
 30
0.0
 11
487.07907558792522
 21
541.15870699092693
 31
0.0
  0
LINE
  5
A3D9
  8
01
  6
BYBLOCK
 10
487.07907558792522
 20
541.15870699092693
 30
0.0
 11
488.15087234792509
 21
537.15870699092693
 31
0.0
  0
LINE
  5
A3DA
  8
01
  6
BYBLOCK
 10
487.07907558792522
 20
541.15870699092693
 30
0.0
 11
487.07907558792522
 21
537.15870699092693
 31
0.0
  0
LINE
  5
A3DB
  8
01
  6
BYBLOCK
 10
488.15087234792509
 20
522.75955007775417
 30
0.0
 11
487.07907558792522
 21
518.75955007775417
 31
0.0
  0
LINE
  5
A3DC
  8
01
  6
BYBLOCK
 10
487.07907558792522
 20
518.75955007775417
 30
0.0
 11
486.00727882792518
 21
522.75955007775417
 31
0.0
  0
LINE
  5
A3DD
  8
01
  6
BYBLOCK
 10
487.07907558792522
 20
518.75955007775417
 30
0.0
 11
487.07907558792522
 21
522.75955007775417
 31
0.0
  0
TEXT
  5
A3DE
  8
01
 10
495.85960845101658
 20
619.67163854061459
 30
0.0
 40
7.0
  1
使用時
 50
90.0
  0
TEXT
  5
A3DF
  8
01
 10
507.52627511768338
 20
624.67163854061459
 30
0.0
 40
7.0
  1
52
 50
90.0
  0
LINE
  5
A3E0
  8
01
  6
BYBLOCK
 10
507.85447835768349
 20
653.33830516799082
 30
0.0
 11
508.92627511768347
 21
657.33830516799082
 31
0.0
  0
LINE
  5
A3E1
  8
01
  6
BYBLOCK
 10
508.92627511768347
 20
657.33830516799082
 30
0.0
 11
509.9980718776834
 21
653.33830516799082
 31
0.0
  0
LINE
  5
A3E2
  8
01
  6
BYBLOCK
 10
508.92627511768347
 20
657.33830516799082
 30
0.0
 11
508.92627511768347
 21
653.33830516799082
 31
0.0
  0
LINE
  5
A3E3
  8
01
  6
BYBLOCK
 10
509.9980718776834
 20
609.33830524657128
 30
0.0
 11
508.92627511768342
 21
605.33830524657128
 31
0.0
  0
LINE
  5
A3E4
  8
01
  6
BYBLOCK
 10
508.92627511768342
 20
605.33830524657128
 30
0.0
 11
507.85447835768338
 21
609.33830524657128
 31
0.0
  0
LINE
  5
A3E5
  8
01
  6
BYBLOCK
 10
508.92627511768342
 20
605.33830524657128
 30
0.0
 11
508.92627511768342
 21
609.33830524657128
 31
0.0
  0
VIEWPORT
  5
57
 67
     1
  8
0
 10
-7.7295765619316219
 20
15.93034360476137
 30
0.0
 40
395.95729492229759
 41
280.35190613694812
 68
     1
 69
     1
1001
ACAD
1000
MVIEW
1002
{
1070
    16
1010
0.0
1020
0.0
1030
0.0
1010
0.0
1020
0.0
1030
1.0
1040
0.0
1040
280.35190613694812
1040
-7.7295765619316219
1040
15.93034360476137
1040
50.0
1040
0.0
1040
0.0
1070
     0
1070
   100
1070
     1
1070
     1
1070
     0
1070
     0
1070
     0
1070
     0
1040
0.0
1040
0.0
1040
0.0
1040
10.0
1040
10.0
1040
10.0
1040
10.0
1070
     0
1002
{
1002
}
1002
}
  0
ENDSEC
  0
EOF
